  0
SECTION
  2
HEADER
  9
$ACADVER
  1
AC1009
  9
$INSBASE
 10
0
 20
0
 30
0
  9
$EXTMIN
 10
0
 20
0
  9
$EXTMAX
 10
420.5
 20
297
  9
$LIMMIN
 10
0
 20
0
  9
$LIMMAX
 10
420.5
 20
297
  9
$LTSCALE
 40
0.5
  0
ENDSEC
  0
SECTION
  2
TABLES
  0
TABLE
  2
LTYPE
 70
     9
  0
LTYPE
  2
CONTINUOUS
 70
    64
  3
実線
 72
    65
 73
     0
 40
0.0
  0
LTYPE
  2
DASHED1
 70
    64
  3
--  --  --  --  --  --  --  --  
 72
    65
 73
     2
 40
2.5
 49
1.25
 49
-1.25
  0
LTYPE
  2
DASHED2
 70
    64
  3
----    ----    ----    ----    
 72
    65
 73
     2
 40
5.0
 49
2.5
 49
-2.5
  0
LTYPE
  2
DASHED3
 70
    64
  3
------  ------  ------  ------  
 72
    65
 73
     2
 40
5.0
 49
3.75
 49
-1.25
  0
LTYPE
  2
CENTER1
 70
    64
  3
----- - ----- - ----- - ----- - 
 72
    65
 73
     4
 40
10.0
 49
6.25
 49
-1.25
 49
1.25
 49
-1.25
  0
LTYPE
  2
CENTER2
 70
    64
  3
----------  --  ----------  --  
 72
    65
 73
     4
 40
20.0
 49
12.5
 49
-2.5
 49
2.5
 49
-2.5
  0
LTYPE
  2
PHANTOM1
 70
    64
  3
--- - - --- - - --- - - --- - - 
 72
    65
 73
     6
 40
10.0
 49
3.25
 49
-1.25
 49
1.25
 49
-1.25
 49
1.25
 49
-1.25
  0
LTYPE
  2
PHANTOM2
 70
    64
  3
--------  -  -  --------  -  -  
 72
    65
 73
     6
 40
20.0
 49
10.0
 49
-2.5
 49
1.25
 49
-2.5
 49
1.25
 49
-2.5
  0
LTYPE
  2
DOT
 70
    64
  3
-   -   -   -   -   -   -   -   
 72
    65
 73
     2
 40
2.5
 49
0.625
 49
-1.875
  0
LTYPE
  2
DUMMY
 70
    64
  3
ダミー
 72
    65
 73
     0
 40
0.0
  0
LTYPE
  2
RAND1
 70
    64
  3
ランダム線1
 72
    65
 73
     4
 40
10.0
 49
1.0
 49
-2.0
 49
3.0
 49
-4.0
  0
LTYPE
  2
RAND2
 70
    64
  3
ランダム線2
 72
    65
 73
     4
 40
14.0
 49
2.0
 49
-3.0
 49
4.0
 49
-5.0
  0
LTYPE
  2
RAND3
 70
    64
  3
ランダム線3
 72
    65
 73
     4
 40
18.0
 49
3.0
 49
-4.0
 49
5.0
 49
-6.0
  0
LTYPE
  2
RAND4
 70
    64
  3
ランダム線4
 72
    65
 73
     4
 40
22.0
 49
4.0
 49
-5.0
 49
6.0
 49
-7.0
  0
LTYPE
  2
RAND5
 70
    64
  3
ランダム線5
 72
    65
 73
     4
 40
26.0
 49
5.0
 49
-6.0
 49
7.0
 49
-8.0
  0
LTYPE
  2
LONG1
 70
    64
  3
----------  --  ----------  --  
 72
    65
 73
     4
 40
40.0
 49
32.5
 49
-2.5
 49
2.5
 49
-2.5
  0
LTYPE
  2
LONG2
 70
    64
  3
--------  -  -  --------  -  -  
 72
    65
 73
     6
 40
40.0
 49
30.0
 49
-2.5
 49
1.25
 49
-2.5
 49
1.25
 49
-2.5
  0
LTYPE
  2
LONG3
 70
    64
  3
+++++++++++++++..+++++++++++++++
 72
    65
 73
     2
 40
40.0
 49
37.5
 49
-2.5
  0
LTYPE
  2
LONG4
 70
    64
  3
+++++++++++++++..+++++++++++++++
 72
    65
 73
     2
 40
80.0
 49
75.0
 49
-5.0
  0
LTYPE
  2
LONG5
 70
    64
  3
----------  --  ----------  --  
 72
    65
 73
     4
 40
60.0
 49
37.5
 49
-7.5
 49
7.5
 49
-7.5
  0
LTYPE
  2
dashed
 70
   64
  3
-------   -------------   ------
 72
   65
 73
    2
 40
7.5
 49
6
 49
-1.5
  0
LTYPE
  2
dashed_spaced
 70
   64
  3
----        --------        ----
 72
   65
 73
    2
 40
12
 49
6
 49
-6
  0
LTYPE
  2
long_dashed_dotted
 70
   64
  3
------------- --- --------------
 72
   65
 73
    4
 40
15.25
 49
12
 49
-1.5
 49
0.25
 49
-1.5
  0
LTYPE
  2
long_dashed_double-dotted
 70
   64
  3
----------- --- --- ------------
 72
   65
 73
    6
 40
17
 49
12
 49
-1.5
 49
0.25
 49
-1.5
 49
0.25
 49
-1.5
  0
LTYPE
  2
long_dashed_triplicate-dotted
 70
   64
  3
--------- --- --- --- ----------
 72
   65
 73
    8
 40
18.75
 49
12
 49
-1.5
 49
0.25
 49
-1.5
 49
0.25
 49
-1.5
 49
0.25
 49
-1.5
  0
LTYPE
  2
dotted
 70
   64
  3
   -       -       -       -    
 72
   65
 73
    2
 40
1.75
 49
0.25
 49
-1.5
  0
LTYPE
  2
chain
 70
   64
  3
-------------- -- --------------
 72
   65
 73
    4
 40
18.5
 49
12
 49
-1.5
 49
3.5
 49
-1.5
  0
LTYPE
  2
chain_double_dash
 70
   64
  3
------------ -- -- -------------
 72
   65
 73
    6
 40
23.5
 49
12
 49
-1.5
 49
3.5
 49
-1.5
 49
3.5
 49
-1.5
  0
LTYPE
  2
dashed_dotted
 70
   64
  3
-----------     -     ----------
 72
   65
 73
    4
 40
9.25
 49
6
 49
-1.5
 49
0.25
 49
-1.5
  0
LTYPE
  2
double-dashed_dotted
 70
   64
  3
------   -----------   -   -----
 72
   65
 73
    6
 40
16.75
 49
6
 49
-1.5
 49
6
 49
-1.5
 49
0.25
 49
-1.5
  0
LTYPE
  2
dashed_double-dotted
 70
   64
  3
---------    -    -    ---------
 72
   65
 73
    6
 40
11
 49
6
 49
-1.5
 49
0.25
 49
-1.5
 49
0.25
 49
-1.5
  0
LTYPE
  2
double-dashed_double-dotted
 70
   64
  3
-----   ---------   -   -   ----
 72
   65
 73
    8
 40
18.5
 49
6
 49
-1.5
 49
6
 49
-1.5
 49
0.25
 49
-1.5
 49
0.25
 49
-1.5
  0
LTYPE
  2
dashed_triplicate-dotted
 70
   64
  3
-------    -    -    -    ------
 72
   65
 73
    8
 40
12.75
 49
6
 49
-1.5
 49
0.25
 49
-1.5
 49
0.25
 49
-1.5
 49
0.25
 49
-1.5
  0
LTYPE
  2
double-dashed_triplicate-dotted
 70
   64
  3
-----  ---------  -  -  -  -----
 72
   65
 73
   10
 40
20.25
 49
6
 49
-1.5
 49
6
 49
-1.5
 49
0.25
 49
-1.5
 49
0.25
 49
-1.5
 49
0.25
 49
-1.5
  0
LTYPE
  2
undefined
 70
   64
  3
--------------------------------
 72
   65
 73
    0
 40
0
  0
LTYPE
  2
DOT_CENTER
 70
   64
  3
----------    ----    ----------
 72
   65
 73
    4
 40
2
 49
1.25
 49
-0.25
 49
0.25
 49
-0.25
  0
LTYPE
  2
CENTER
 70
   64
  3
----------    ----    ----------
 72
   65
 73
    4
 40
22
 49
13
 49
-3
 49
3
 49
-3
  0
LTYPE
  2
_
 70
   64
  3
                                
 72
   65
 73
    0
 40
0
  0
LTYPE
  2
__20
 70
   64
  3
                                
 72
   65
 73
    0
 40
0
  0
LTYPE
  2
__21
 70
   64
  3
                                
 72
   65
 73
    0
 40
0
  0
LTYPE
  2
__22
 70
   64
  3
                                
 72
   65
 73
    0
 40
0
  0
LTYPE
  2
__23
 70
   64
  3
                                
 72
   65
 73
    0
 40
0
  0
LTYPE
  2
__24
 70
   64
  3
                                
 72
   65
 73
    0
 40
0
  0
LTYPE
  2
__25
 70
   64
  3
                                
 72
   65
 73
    0
 40
0
  0
LTYPE
  2
__26
 70
   64
  3
                                
 72
   65
 73
    0
 40
0
  0
LTYPE
  2
__27
 70
   64
  3
                                
 72
   65
 73
    0
 40
0
  0
LTYPE
  2
__28
 70
   64
  3
                                
 72
   65
 73
    0
 40
0
  0
LTYPE
  2
__29
 70
   64
  3
                                
 72
   65
 73
    0
 40
0
  0
LTYPE
  2
__30
 70
   64
  3
                                
 72
   65
 73
    0
 40
0
  0
LTYPE
  2
__31
 70
   64
  3
                                
 72
   65
 73
    0
 40
0
  0
LTYPE
  2
__32
 70
   64
  3
                                
 72
   65
 73
    0
 40
0
  0
ENDTAB
  0
TABLE
  2
STYLE
  5
3
100
AcDbSymbolTable
 70
     1
  0
STYLE
  5
10
100
AcDbSymbolTableRecord
100
AcDbTextStyleTableRecord
  2
STANDARD
 70
     0
 40
0.0
 41
1.0
 50
0.0
 71
     0
 42
0.2
  3
txt
  4
bigfont.shx
  0
STYLE
  5
26
100
AcDbSymbolTableRecord
100
AcDbTextStyleTableRecord
  2
TATEGAKI
 70
    68
 40
0.0
 41
1.0
 50
0.0
 71
     0
 42
1.0
  3
txt
  4
bigfont.shx
  0
ENDTAB
  0
TABLE
  2
LAYER
 70
    6
  0
LAYER
  2
0
 70
   64
 62
    7
  6
CONTINUOUS
  0
LAYER
  2
Defpoints
 70
   64
 62
    7
  6
CONTINUOUS
  0
LAYER
  2
0_COMPONENTS
 70
   64
 62
    7
  6
CONTINUOUS
  0
LAYER
  2
1
 70
   64
 62
    7
  6
CONTINUOUS
  0
LAYER
  2
_1-0_
 70
   64
 62
    7
  6
CONTINUOUS
  0
LAYER
  2
ADD_LINE
 70
   64
 62
    7
  6
CONTINUOUS
  0
ENDTAB
  0
ENDSEC
  0
SECTION
  2
BLOCKS
  0
BLOCK
  2
-000-_D0
 70
   64
 10
0
 20
0
 30
0
  0
LINE
  8
1
  6
CONTINUOUS
 62
    2
 10
826.89533308065847
 20
-1000.095039087739
 11
826.89533308065847
 21
-1086.29337666677
  0
LINE
  8
1
  6
CONTINUOUS
 62
    2
 10
1292.8953330806571
 20
-1000.095039087739
 11
1292.8953330806571
 21
-1086.29337666677
  0
LINE
  8
1
  6
CONTINUOUS
 62
    2
 10
842.89533308065847
 20
-1081.29337666677
 11
1276.8953330806571
 21
-1081.29337666677
  0
SOLID
  8
1
  6
CONTINUOUS
 62
    2
 10
842.89533308065847
 20
-1078.626710000103
 11
842.89533308065847
 21
-1083.960043333436
 12
826.89533308065847
 22
-1081.29337666677
 13
826.89533308065847
 23
-1081.29337666677
  0
SOLID
  8
1
  6
CONTINUOUS
 62
    2
 10
1276.8953330806571
 20
-1078.626710000103
 11
1276.8953330806571
 21
-1083.960043333436
 12
1292.8953330806571
 22
-1081.29337666677
 13
1292.8953330806571
 23
-1081.29337666677
  0
TEXT
  8
1
 62
    7
 10
1047.895333080658
 20
-1076.29337666677
 40
16
 41
1
 50
0
  1
466
  0
CIRCLE
  8
Defpoints
 62
    7
 10
826.89533308065847
 20
-995.09503908773888
 40
0.2
  0
CIRCLE
  8
Defpoints
 62
    7
 10
1292.8953330806571
 20
-995.09503908773888
 40
0.2
  0
CIRCLE
  8
Defpoints
 62
    7
 10
1292.8953330806571
 20
-1081.29337666677
 40
0.2
  0
ENDBLK
  0
BLOCK
  2
-001-_D1
 70
   64
 10
0
 20
0
 30
0
  0
LINE
  8
1
  6
CONTINUOUS
 62
    2
 10
1964.7385756935087
 20
-988.34229815723916
 11
1964.7385756935087
 21
-1054.16736583384
  0
LINE
  8
1
  6
CONTINUOUS
 62
    2
 10
1661.7385756935087
 20
-988.34229815723916
 11
1661.7385756935087
 21
-1054.16736583384
  0
LINE
  8
1
  6
CONTINUOUS
 62
    2
 10
1948.7385756935091
 20
-1049.16736583384
 11
1677.7385756935089
 21
-1049.16736583384
  0
SOLID
  8
1
  6
CONTINUOUS
 62
    2
 10
1948.7385756935091
 20
-1046.500699167173
 11
1948.7385756935091
 21
-1051.834032500507
 12
1964.7385756935087
 22
-1049.16736583384
 13
1964.7385756935087
 23
-1049.16736583384
  0
SOLID
  8
1
  6
CONTINUOUS
 62
    2
 10
1677.7385756935089
 20
-1046.500699167173
 11
1677.7385756935089
 21
-1051.834032500507
 12
1661.7385756935087
 22
-1049.16736583384
 13
1661.7385756935087
 23
-1049.16736583384
  0
TEXT
  8
1
 62
    7
 10
1801.2385756935087
 20
-1044.16736583384
 40
16
 41
1
 50
0
  1
303
  0
CIRCLE
  8
Defpoints
 62
    7
 10
1964.7385756935087
 20
-983.34229815723904
 40
0.2
  0
CIRCLE
  8
Defpoints
 62
    7
 10
1661.7385756935087
 20
-983.34229815723904
 40
0.2
  0
CIRCLE
  8
Defpoints
 62
    7
 10
1661.7385756935087
 20
-1049.16736583384
 40
0.2
  0
ENDBLK
  0
BLOCK
  2
-002-_D2
 70
   64
 10
0
 20
0
 30
0
  0
LINE
  8
1
  6
CONTINUOUS
 62
    2
 10
1474.9594894309971
 20
-554.70007538095138
 11
1474.9594894309971
 21
-305.692657693809
  0
LINE
  8
1
  6
CONTINUOUS
 62
    2
 10
1754.9594894309971
 20
-554.70007538095115
 11
1754.9594894309971
 21
-305.692657693809
  0
LINE
  8
1
  6
CONTINUOUS
 62
    2
 10
1490.9594894309971
 20
-310.692657693809
 11
1738.9594894309971
 21
-310.692657693809
  0
SOLID
  8
1
  6
CONTINUOUS
 62
    2
 10
1490.9594894309971
 20
-308.02599102714231
 11
1490.9594894309971
 21
-313.35932436047568
 12
1474.9594894309971
 22
-310.692657693809
 13
1474.9594894309971
 23
-310.692657693809
  0
SOLID
  8
1
  6
CONTINUOUS
 62
    2
 10
1738.9594894309971
 20
-308.02599102714231
 11
1738.9594894309971
 21
-313.35932436047568
 12
1754.9594894309971
 22
-310.692657693809
 13
1754.9594894309971
 23
-310.692657693809
  0
TEXT
  8
1
 62
    7
 10
1602.9594894309971
 20
-305.692657693809
 40
16
 41
1
 50
0
  1
280
  0
CIRCLE
  8
Defpoints
 62
    7
 10
1474.9594894309971
 20
-559.70007538095126
 40
0.2
  0
CIRCLE
  8
Defpoints
 62
    7
 10
1754.9594894309971
 20
-559.70007538095126
 40
0.2
  0
CIRCLE
  8
Defpoints
 62
    7
 10
1754.9594894309971
 20
-310.692657693809
 40
0.2
  0
ENDBLK
  0
BLOCK
  2
-003-_D3
 70
   64
 10
0
 20
0
 30
0
  0
LINE
  8
1
  6
CONTINUOUS
 62
    2
 10
2042.8385756935099
 20
-941.09229815723916
 11
2042.8385756935099
 21
-1094.4109482507399
  0
LINE
  8
1
  6
CONTINUOUS
 62
    2
 10
1583.6385756935099
 20
-941.09229815723916
 11
1583.6385756935099
 21
-1094.4109482507399
  0
LINE
  8
1
  6
CONTINUOUS
 62
    2
 10
2026.8385756935099
 20
-1089.4109482507399
 11
1599.6385756935101
 21
-1089.4109482507399
  0
SOLID
  8
1
  6
CONTINUOUS
 62
    2
 10
2026.8385756935099
 20
-1086.744281584073
 11
2026.8385756935099
 21
-1092.0776149174069
 12
2042.8385756935099
 22
-1089.4109482507399
 13
2042.8385756935099
 23
-1089.4109482507399
  0
SOLID
  8
1
  6
CONTINUOUS
 62
    2
 10
1599.6385756935101
 20
-1086.744281584073
 11
1599.6385756935101
 21
-1092.0776149174069
 12
1583.6385756935099
 22
-1089.4109482507399
 13
1583.6385756935099
 23
-1089.4109482507399
  0
TEXT
  8
1
 62
    7
 10
1793.2385756935103
 20
-1084.4109482507399
 40
16
 41
1
 50
0
  1
459.2
  0
CIRCLE
  8
Defpoints
 62
    7
 10
2042.8385756935099
 20
-936.09229815723904
 40
0.2
  0
CIRCLE
  8
Defpoints
 62
    7
 10
1583.6385756935099
 20
-936.09229815723904
 40
0.2
  0
CIRCLE
  8
Defpoints
 62
    7
 10
1583.6385756935099
 20
-1089.4109482507399
 40
0.2
  0
ENDBLK
  0
BLOCK
  2
-004-_D5
 70
   64
 10
0
 20
0
 30
0
  0
LINE
  8
1
  6
CONTINUOUS
 62
    2
 10
1754.9594894309971
 20
-554.70007538095115
 11
1754.9594894309971
 21
-342.77176329743207
  0
LINE
  8
1
  6
CONTINUOUS
 62
    2
 10
1653.4594894309971
 20
-387.70007538095126
 11
1653.4594894309971
 21
-342.77176329743207
  0
LINE
  8
1
  6
CONTINUOUS
 62
    2
 10
1738.9594894309971
 20
-347.77176329743207
 11
1669.4594894309971
 21
-347.77176329743207
  0
SOLID
  8
1
  6
CONTINUOUS
 62
    2
 10
1738.9594894309971
 20
-345.10509663076539
 11
1738.9594894309971
 21
-350.4384299640987
 12
1754.9594894309971
 22
-347.77176329743207
 13
1754.9594894309971
 23
-347.77176329743207
  0
SOLID
  8
1
  6
CONTINUOUS
 62
    2
 10
1669.4594894309971
 20
-345.10509663076539
 11
1669.4594894309971
 21
-350.4384299640987
 12
1653.4594894309971
 22
-347.77176329743207
 13
1653.4594894309971
 23
-347.77176329743207
  0
TEXT
  8
1
 62
    7
 10
1684.2094894309973
 20
-342.77176329743213
 40
16
 41
1
 50
0
  1
101.5
  0
CIRCLE
  8
Defpoints
 62
    7
 10
1754.9594894309971
 20
-559.70007538095126
 40
0.2
  0
CIRCLE
  8
Defpoints
 62
    7
 10
1653.4594894309971
 20
-392.7000753809512
 40
0.2
  0
CIRCLE
  8
Defpoints
 62
    7
 10
1653.4594894309971
 20
-347.77176329743207
 40
0.2
  0
ENDBLK
  0
BLOCK
  2
-005-_D6
 70
   64
 10
0
 20
0
 30
0
  0
LINE
  8
1
  6
CONTINUOUS
 62
    2
 10
1059.895333080658
 20
-367.40337492595143
 11
1059.895333080658
 21
-305.692657693809
  0
LINE
  8
1
  6
CONTINUOUS
 62
    2
 10
862.3953330806587
 20
-554.70007538095138
 11
862.3953330806587
 21
-305.692657693809
  0
LINE
  8
1
  6
CONTINUOUS
 62
    2
 10
1043.895333080658
 20
-310.692657693809
 11
878.3953330806587
 21
-310.692657693809
  0
SOLID
  8
1
  6
CONTINUOUS
 62
    2
 10
1043.895333080658
 20
-308.02599102714231
 11
1043.895333080658
 21
-313.35932436047568
 12
1059.895333080658
 22
-310.692657693809
 13
1059.895333080658
 23
-310.692657693809
  0
SOLID
  8
1
  6
CONTINUOUS
 62
    2
 10
878.3953330806587
 20
-308.02599102714231
 11
878.3953330806587
 21
-313.35932436047568
 12
862.3953330806587
 22
-310.692657693809
 13
862.3953330806587
 23
-310.692657693809
  0
TEXT
  8
1
 62
    7
 10
941.14533308065847
 20
-305.692657693809
 40
16
 41
1
 50
0
  1
197.5
  0
CIRCLE
  8
Defpoints
 62
    7
 10
1059.895333080658
 20
-372.40337492595143
 40
0.2
  0
CIRCLE
  8
Defpoints
 62
    7
 10
862.3953330806587
 20
-559.70007538095126
 40
0.2
  0
CIRCLE
  8
Defpoints
 62
    7
 10
862.3953330806587
 20
-310.692657693809
 40
0.2
  0
ENDBLK
  0
BLOCK
  2
-006-_D7
 70
   64
 10
0
 20
0
 30
0
  0
LINE
  8
1
  6
CONTINUOUS
 62
    2
 10
1059.895333080658
 20
-367.40337492595143
 11
1059.895333080658
 21
-342.88865378859413
  0
LINE
  8
1
  6
CONTINUOUS
 62
    2
 10
1257.395333080658
 20
-554.70007538095115
 11
1257.395333080658
 21
-342.88865378859413
  0
LINE
  8
1
  6
CONTINUOUS
 62
    2
 10
1075.895333080658
 20
-347.88865378859413
 11
1241.395333080658
 21
-347.88865378859413
  0
SOLID
  8
1
  6
CONTINUOUS
 62
    2
 10
1075.895333080658
 20
-345.22198712192738
 11
1075.895333080658
 21
-350.55532045526081
 12
1059.895333080658
 22
-347.88865378859413
 13
1059.895333080658
 23
-347.88865378859413
  0
SOLID
  8
1
  6
CONTINUOUS
 62
    2
 10
1241.395333080658
 20
-345.22198712192738
 11
1241.395333080658
 21
-350.55532045526081
 12
1257.395333080658
 22
-347.88865378859413
 13
1257.395333080658
 23
-347.88865378859413
  0
TEXT
  8
1
 62
    7
 10
1138.645333080658
 20
-342.88865378859413
 40
16
 41
1
 50
0
  1
197.5
  0
CIRCLE
  8
Defpoints
 62
    7
 10
1059.895333080658
 20
-372.40337492595143
 40
0.2
  0
CIRCLE
  8
Defpoints
 62
    7
 10
1257.395333080658
 20
-559.70007538095126
 40
0.2
  0
CIRCLE
  8
Defpoints
 62
    7
 10
1257.395333080658
 20
-347.88865378859413
 40
0.2
  0
ENDBLK
  0
BLOCK
  2
-007-_D8
 70
   64
 10
0
 20
0
 30
0
  0
LINE
  8
1
  6
CONTINUOUS
 62
    2
 10
1742.6504724365977
 20
-389.20007538095138
 11
1830.772718707834
 21
-389.20007538095138
  0
LINE
  8
1
  6
CONTINUOUS
 62
    2
 10
1792.2594894309991
 20
-559.70007538095126
 11
1830.772718707834
 21
-559.70007538095126
  0
LINE
  8
1
  6
CONTINUOUS
 62
    2
 10
1825.772718707834
 20
-405.20007538095138
 11
1825.772718707834
 21
-543.70007538095126
  0
SOLID
  8
1
  6
CONTINUOUS
 62
    2
 10
1823.106052041167
 20
-405.20007538095138
 11
1828.4393853745009
 21
-405.20007538095138
 12
1825.772718707834
 22
-389.20007538095138
 13
1825.772718707834
 23
-389.20007538095138
  0
SOLID
  8
1
  6
CONTINUOUS
 62
    2
 10
1823.106052041167
 20
-543.70007538095126
 11
1828.4393853745009
 21
-543.70007538095126
 12
1825.772718707834
 22
-559.70007538095126
 13
1825.772718707834
 23
-559.70007538095126
  0
TEXT
  8
1
 62
    7
 10
1820.7727187078331
 20
-494.45007538095177
 40
16
 41
1
 50
90
  1
170.5
  0
CIRCLE
  8
Defpoints
 62
    7
 10
1737.650472436598
 20
-389.20007538095138
 40
0.2
  0
CIRCLE
  8
Defpoints
 62
    7
 10
1787.2594894309982
 20
-559.70007538095138
 40
0.2
  0
CIRCLE
  8
Defpoints
 62
    7
 10
1825.772718707834
 20
-559.70007538095126
 40
0.2
  0
ENDBLK
  0
BLOCK
  2
-008-_D10
 70
   64
 10
0
 20
0
 30
0
  0
LINE
  8
1
  6
CONTINUOUS
 62
    2
 10
1315.6953330806591
 20
-496.20007538095456
 11
1375.353148503928
 21
-496.20007538095456
  0
LINE
  8
1
  6
CONTINUOUS
 62
    2
 10
1315.6953330806591
 20
-403.20007538094853
 11
1375.353148503928
 21
-403.20007538094853
  0
LINE
  8
1
  6
CONTINUOUS
 62
    2
 10
1370.353148503928
 20
-480.2000753809545
 11
1370.353148503928
 21
-419.20007538094865
  0
SOLID
  8
1
  6
CONTINUOUS
 62
    2
 10
1367.686481837261
 20
-480.2000753809545
 11
1373.0198151705949
 21
-480.2000753809545
 12
1370.353148503928
 22
-496.20007538095456
 13
1370.353148503928
 23
-496.20007538095456
  0
SOLID
  8
1
  6
CONTINUOUS
 62
    2
 10
1367.686481837261
 20
-419.20007538094865
 11
1373.0198151705949
 21
-419.20007538094865
 12
1370.353148503928
 22
-403.20007538094853
 13
1370.353148503928
 23
-403.20007538094853
  0
TEXT
  8
1
 62
    7
 10
1365.353148503928
 20
-465.70007538095183
 40
16
 41
1
 50
90
  1
φ93
  0
CIRCLE
  8
Defpoints
 62
    7
 10
1310.6953330806591
 20
-496.20007538095456
 40
0.2
  0
CIRCLE
  8
Defpoints
 62
    7
 10
1310.6953330806591
 20
-403.20007538094853
 40
0.2
  0
CIRCLE
  8
Defpoints
 62
    7
 10
1370.353148503928
 20
-403.20007538094853
 40
0.2
  0
ENDBLK
  0
BLOCK
  2
-009-_D11
 70
   64
 10
0
 20
0
 30
0
  0
LINE
  8
1
  6
CONTINUOUS
 62
    2
 10
1310.695333080658
 20
-398.20007538094853
 11
1310.695333080658
 21
-305.692657693809
  0
LINE
  8
1
  6
CONTINUOUS
 62
    2
 10
1059.895333080658
 20
-367.40337492595143
 11
1059.895333080658
 21
-305.692657693809
  0
LINE
  8
1
  6
CONTINUOUS
 62
    2
 10
1294.695333080658
 20
-310.692657693809
 11
1075.895333080658
 21
-310.692657693809
  0
SOLID
  8
1
  6
CONTINUOUS
 62
    2
 10
1294.695333080658
 20
-308.02599102714231
 11
1294.695333080658
 21
-313.35932436047568
 12
1310.695333080658
 22
-310.692657693809
 13
1310.695333080658
 23
-310.692657693809
  0
SOLID
  8
1
  6
CONTINUOUS
 62
    2
 10
1075.895333080658
 20
-308.02599102714231
 11
1075.895333080658
 21
-313.35932436047568
 12
1059.895333080658
 22
-310.692657693809
 13
1059.895333080658
 23
-310.692657693809
  0
TEXT
  8
1
 62
    7
 10
1165.2953330806581
 20
-305.692657693809
 40
16
 41
1
 50
0
  1
250.8
  0
CIRCLE
  8
Defpoints
 62
    7
 10
1310.695333080658
 20
-403.20007538094848
 40
0.2
  0
CIRCLE
  8
Defpoints
 62
    7
 10
1059.895333080658
 20
-372.40337492595143
 40
0.2
  0
CIRCLE
  8
Defpoints
 62
    7
 10
1059.895333080658
 20
-310.692657693809
 40
0.2
  0
ENDBLK
  0
BLOCK
  2
-010-_D13
 70
   64
 10
0
 20
0
 30
0
  0
LINE
  8
1
  6
CONTINUOUS
 62
    2
 10
1296.832738173486
 20
-559.7000753809516
 11
1414.3524398917309
 21
-559.7000753809516
  0
LINE
  8
1
  6
CONTINUOUS
 62
    2
 10
1325.906162976959
 20
-449.70007538095138
 11
1414.3524398917309
 21
-449.70007538095138
  0
LINE
  8
1
  6
CONTINUOUS
 62
    2
 10
1409.3524398917309
 20
-543.7000753809516
 11
1409.3524398917309
 21
-465.70007538095132
  0
SOLID
  8
1
  6
CONTINUOUS
 62
    2
 10
1406.6857732250639
 20
-543.7000753809516
 11
1412.0191065583981
 21
-543.7000753809516
 12
1409.3524398917309
 22
-559.7000753809516
 13
1409.3524398917309
 23
-559.7000753809516
  0
SOLID
  8
1
  6
CONTINUOUS
 62
    2
 10
1406.6857732250639
 20
-465.70007538095138
 11
1412.0191065583981
 21
-465.70007538095132
 12
1409.3524398917309
 22
-449.70007538095138
 13
1409.3524398917309
 23
-449.70007538095138
  0
TEXT
  8
1
 62
    7
 10
1404.3524398917311
 20
-516.70007538095172
 40
16
 41
1
 50
90
  1
110
  0
CIRCLE
  8
Defpoints
 62
    7
 10
1291.832738173486
 20
-559.7000753809516
 40
0.2
  0
CIRCLE
  8
Defpoints
 62
    7
 10
1320.906162976959
 20
-449.70007538095138
 40
0.2
  0
CIRCLE
  8
Defpoints
 62
    7
 10
1409.3524398917309
 20
-449.70007538095138
 40
0.2
  0
ENDBLK
  0
BLOCK
  2
-011-_D14
 70
   64
 10
0
 20
0
 30
0
  0
LINE
  8
1
  6
CONTINUOUS
 62
    2
 10
1256.395333080658
 20
-970.24229815723879
 11
1256.395333080658
 21
-1054.16736583384
  0
LINE
  8
1
  6
CONTINUOUS
 62
    2
 10
863.39533308065847
 20
-975.24229815723902
 11
863.39533308065847
 21
-1054.16736583384
  0
LINE
  8
1
  6
CONTINUOUS
 62
    2
 10
1240.395333080658
 20
-1049.16736583384
 11
879.39533308065847
 21
-1049.16736583384
  0
SOLID
  8
1
  6
CONTINUOUS
 62
    2
 10
1240.395333080658
 20
-1046.500699167173
 11
1240.395333080658
 21
-1051.834032500507
 12
1256.395333080658
 22
-1049.16736583384
 13
1256.395333080658
 23
-1049.16736583384
  0
SOLID
  8
1
  6
CONTINUOUS
 62
    2
 10
879.39533308065847
 20
-1046.500699167173
 11
879.39533308065847
 21
-1051.834032500507
 12
863.39533308065847
 22
-1049.16736583384
 13
863.39533308065847
 23
-1049.16736583384
  0
TEXT
  8
1
 62
    7
 10
1047.895333080658
 20
-1044.16736583384
 40
16
 41
1
 50
0
  1
393
  0
CIRCLE
  8
Defpoints
 62
    7
 10
1256.395333080658
 20
-965.24229815723902
 40
0.2
  0
CIRCLE
  8
Defpoints
 62
    7
 10
863.39533308065847
 20
-970.24229815723879
 40
0.2
  0
CIRCLE
  8
Defpoints
 62
    7
 10
863.39533308065847
 20
-1049.16736583384
 40
0.2
  0
ENDBLK
  0
BLOCK
  2
-012-_D15
 70
   64
 10
0
 20
0
 30
0
  0
LINE
  8
1
  6
CONTINUOUS
 62
    2
 10
1972.98857569351
 20
-668.09229815723916
 11
2120.744673015924
 21
-668.09229815723916
  0
LINE
  8
1
  6
CONTINUOUS
 62
    2
 10
1972.98857569351
 20
-980.09229815723938
 11
2120.744673015924
 21
-980.09229815723938
  0
LINE
  8
1
  6
CONTINUOUS
 62
    2
 10
2115.744673015924
 20
-684.09229815723927
 11
2115.744673015924
 21
-964.09229815723938
  0
SOLID
  8
1
  6
CONTINUOUS
 62
    2
 10
2113.078006349258
 20
-684.09229815723927
 11
2118.411339682591
 21
-684.09229815723927
 12
2115.744673015924
 22
-668.09229815723916
 13
2115.744673015924
 23
-668.09229815723916
  0
SOLID
  8
1
  6
CONTINUOUS
 62
    2
 10
2113.078006349258
 20
-964.09229815723938
 11
2118.411339682591
 21
-964.09229815723938
 12
2115.744673015924
 22
-980.09229815723938
 13
2115.744673015924
 23
-980.09229815723938
  0
TEXT
  8
1
 62
    7
 10
2110.744673015924
 20
-836.09229815723984
 40
16
 41
1
 50
90
  1
312
  0
CIRCLE
  8
Defpoints
 62
    7
 10
1967.98857569351
 20
-668.09229815723916
 40
0.2
  0
CIRCLE
  8
Defpoints
 62
    7
 10
1967.98857569351
 20
-980.09229815723938
 40
0.2
  0
CIRCLE
  8
Defpoints
 62
    7
 10
2115.744673015924
 20
-980.09229815723938
 40
0.2
  0
ENDBLK
  0
BLOCK
  2
-013-_D16
 70
   64
 10
0
 20
0
 30
0
  0
LINE
  8
1
  6
CONTINUOUS
 62
    2
 10
1792.2594894309991
 20
-559.70007538095126
 11
1830.772718707849
 21
-559.70007538095126
  0
LINE
  8
1
  6
CONTINUOUS
 62
    2
 10
1619.959489430998
 20
-585.70007538095081
 11
1830.772718707849
 21
-585.70007538095069
  0
LINE
  8
1
  6
CONTINUOUS
 62
    2
 10
1825.772718707849
 20
-543.70007538095126
 11
1825.772718707849
 21
-527.70007538095126
  0
LINE
  8
1
  6
CONTINUOUS
 62
    2
 10
1825.772718707849
 20
-601.70007538095058
 11
1825.772718707849
 21
-617.70007538095058
  0
TEXT
  8
1
 62
    7
 10
1820.7727187078467
 20
-612.70007538095058
 40
16
 41
1
 50
90
  1
26
  0
LINE
  8
1
  6
CONTINUOUS
 62
    2
 10
1825.772718707849
 20
-559.70007538095126
 11
1825.772718707849
 21
-585.70007538095069
  0
SOLID
  8
1
  6
CONTINUOUS
 62
    2
 10
1823.106052041182
 20
-543.70007538095126
 11
1828.439385374515
 21
-543.70007538095126
 12
1825.772718707849
 22
-559.70007538095126
 13
1825.772718707849
 23
-559.70007538095126
  0
SOLID
  8
1
  6
CONTINUOUS
 62
    2
 10
1823.106052041182
 20
-601.70007538095058
 11
1828.439385374515
 21
-601.70007538095058
 12
1825.772718707849
 22
-585.70007538095069
 13
1825.772718707849
 23
-585.70007538095069
  0
CIRCLE
  8
Defpoints
 62
    7
 10
1787.2594894309982
 20
-559.70007538095138
 40
0.2
  0
CIRCLE
  8
Defpoints
 62
    7
 10
1614.959489430998
 20
-585.70007538095081
 40
0.2
  0
CIRCLE
  8
Defpoints
 62
    7
 10
1825.772718707849
 20
-585.70007538095069
 40
0.2
  0
ENDBLK
  0
BLOCK
  2
-014-_D17
 70
   64
 10
0
 20
0
 30
0
  0
LINE
  8
1
  6
CONTINUOUS
 62
    2
 10
1268.545333080659
 20
-958.0922981572395
 11
1371.491393030301
 21
-958.09229815723938
  0
LINE
  8
1
  6
CONTINUOUS
 62
    2
 10
1268.545333080659
 20
-690.09229815723916
 11
1371.491393030301
 21
-690.09229815723916
  0
LINE
  8
1
  6
CONTINUOUS
 62
    2
 10
1366.491393030301
 20
-942.09229815723938
 11
1366.491393030301
 21
-706.09229815723916
  0
SOLID
  8
1
  6
CONTINUOUS
 62
    2
 10
1363.824726363634
 20
-942.09229815723938
 11
1369.1580596969679
 21
-942.09229815723938
 12
1366.491393030301
 22
-958.09229815723938
 13
1366.491393030301
 23
-958.09229815723938
  0
SOLID
  8
1
  6
CONTINUOUS
 62
    2
 10
1363.824726363634
 20
-706.09229815723916
 11
1369.1580596969679
 21
-706.09229815723916
 12
1366.491393030301
 22
-690.09229815723916
 13
1366.491393030301
 23
-690.09229815723916
  0
TEXT
  8
1
 62
    7
 10
1361.4913930303001
 20
-836.09229815723938
 40
16
 41
1
 50
90
  1
268
  0
CIRCLE
  8
Defpoints
 62
    7
 10
1263.545333080659
 20
-958.0922981572395
 40
0.2
  0
CIRCLE
  8
Defpoints
 62
    7
 10
1263.545333080659
 20
-690.09229815723916
 40
0.2
  0
CIRCLE
  8
Defpoints
 62
    7
 10
1366.491393030301
 20
-690.09229815723916
 40
0.2
  0
ENDBLK
  0
BLOCK
  2
-015-_D18
 70
   64
 10
0
 20
0
 30
0
  0
LINE
  8
1
  6
CONTINUOUS
 62
    2
 10
851.24533308065895
 20
-685.09229815723916
 11
788.26009175960087
 21
-685.09229815723916
  0
LINE
  8
1
  6
CONTINUOUS
 62
    2
 10
851.24533308065895
 20
-963.09229815723938
 11
788.26009175960098
 21
-963.09229815723938
  0
LINE
  8
1
  6
CONTINUOUS
 62
    2
 10
793.26009175960098
 20
-701.09229815723927
 11
793.2600917596011
 21
-947.09229815723938
  0
SOLID
  8
1
  6
CONTINUOUS
 62
    2
 10
790.59342509293435
 20
-701.09229815723927
 11
795.92675842626772
 21
-701.09229815723927
 12
793.26009175960098
 22
-685.09229815723916
 13
793.26009175960098
 23
-685.09229815723916
  0
SOLID
  8
1
  6
CONTINUOUS
 62
    2
 10
790.59342509293447
 20
-947.09229815723938
 11
795.92675842626772
 21
-947.09229815723938
 12
793.2600917596011
 22
-963.09229815723938
 13
793.2600917596011
 23
-963.09229815723938
  0
TEXT
  8
1
 62
    7
 10
788.26009175960075
 20
-836.09229815723938
 40
16
 41
1
 50
90
  1
278
  0
CIRCLE
  8
Defpoints
 62
    7
 10
856.24533308065907
 20
-685.09229815723916
 40
0.2
  0
CIRCLE
  8
Defpoints
 62
    7
 10
856.24533308065907
 20
-963.09229815723938
 40
0.2
  0
CIRCLE
  8
Defpoints
 62
    7
 10
793.2600917596011
 20
-963.09229815723938
 40
0.2
  0
ENDBLK
  0
BLOCK
  2
-016-_D19
 70
   64
 10
0
 20
0
 30
0
  0
LINE
  8
1
  6
CONTINUOUS
 62
    2
 10
1295.898074011159
 20
-997.09229815723938
 11
1407.8922928478221
 21
-997.09229815723938
  0
LINE
  8
1
  6
CONTINUOUS
 62
    2
 10
1295.898074011159
 20
-651.09229815723927
 11
1407.8922928478221
 21
-651.09229815723927
  0
LINE
  8
1
  6
CONTINUOUS
 62
    2
 10
1402.8922928478221
 20
-981.09229815723938
 11
1402.8922928478221
 21
-667.09229815723927
  0
SOLID
  8
1
  6
CONTINUOUS
 62
    2
 10
1400.2256261811549
 20
-981.09229815723938
 11
1405.5589595144879
 21
-981.09229815723938
 12
1402.8922928478221
 22
-997.09229815723938
 13
1402.8922928478221
 23
-997.09229815723938
  0
SOLID
  8
1
  6
CONTINUOUS
 62
    2
 10
1400.2256261811549
 20
-667.09229815723927
 11
1405.5589595144879
 21
-667.09229815723927
 12
1402.8922928478221
 22
-651.09229815723927
 13
1402.8922928478221
 23
-651.09229815723927
  0
TEXT
  8
1
 62
    7
 10
1397.892292847821
 20
-836.09229815723984
 40
16
 41
1
 50
90
  1
346
  0
CIRCLE
  8
Defpoints
 62
    7
 10
1290.898074011159
 20
-997.09229815723938
 40
0.2
  0
CIRCLE
  8
Defpoints
 62
    7
 10
1290.898074011159
 20
-651.09229815723927
 40
0.2
  0
CIRCLE
  8
Defpoints
 62
    7
 10
1402.8922928478221
 20
-651.09229815723927
 40
0.2
  0
ENDBLK
  0
BLOCK
  2
-017-_D9
 70
   64
 10
0
 20
0
 30
0
  0
LINE
  8
1
  6
CONTINUOUS
 62
    2
 10
1280.6953330806591
 20
-501.70007538095138
 11
1375.35314850392
 21
-501.70007538095138
  0
LINE
  8
1
  6
CONTINUOUS
 62
    2
 10
1296.832738173486
 20
-559.7000753809516
 11
1375.3531485039209
 21
-559.7000753809516
  0
LINE
  8
1
  6
CONTINUOUS
 62
    2
 10
1370.3531485039209
 20
-517.70007538095126
 11
1370.3531485039209
 21
-543.7000753809516
  0
SOLID
  8
1
  6
CONTINUOUS
 62
    2
 10
1367.686481837254
 20
-517.70007538095126
 11
1373.0198151705879
 21
-517.70007538095126
 12
1370.3531485039209
 22
-501.70007538095138
 13
1370.3531485039209
 23
-501.70007538095138
  0
SOLID
  8
1
  6
CONTINUOUS
 62
    2
 10
1367.686481837254
 20
-543.7000753809516
 11
1373.0198151705879
 21
-543.7000753809516
 12
1370.3531485039209
 22
-559.7000753809516
 13
1370.3531485039209
 23
-559.7000753809516
  0
TEXT
  8
1
 62
    7
 10
1365.35314850392
 20
-538.70007538095183
 40
16
 41
1
 50
90
  1
58
  0
CIRCLE
  8
Defpoints
 62
    7
 10
1275.6953330806591
 20
-501.70007538095138
 40
0.2
  0
CIRCLE
  8
Defpoints
 62
    7
 10
1291.832738173486
 20
-559.7000753809516
 40
0.2
  0
CIRCLE
  8
Defpoints
 62
    7
 10
1370.3531485039209
 20
-559.7000753809516
 40
0.2
  0
ENDBLK
  0
ENDSEC
  0
SECTION
  2
ENTITIES
  0
INSERT
  2
-008-_D10
  8
1
 10
-385.40730924019977
 20
1511.7991746252028
 41
1
 42
1
 50
0
  0
LINE
  8
_1-0_
  6
CONTINUOUS
 62
    7
 10
881.06073174360017
 20
688.57390269419227
 11
881.06073174360017
 21
686.77990249812206
  0
LINE
  8
_1-0_
  6
CONTINUOUS
 62
    7
 10
825.1880238404583
 20
791.26500647674368
 11
825.1880238404583
 21
584.14874646448357
  0
LINE
  8
_1-0_
  6
CONTINUOUS
 62
    7
 10
799.1880238404583
 20
791.26500647674368
 11
799.1880238404583
 21
584.14874646448357
  0
LINE
  8
_1-0_
  6
CONTINUOUS
 62
    7
 10
772.1880238404583
 20
791.26500647674368
 11
772.1880238404583
 21
584.14874646448357
  0
LINE
  8
_1-0_
  6
CONTINUOUS
 62
    7
 10
744.78802384045821
 20
614.75187099496372
 11
733.1880238404583
 21
614.75187099496372
  0
LINE
  8
_1-0_
  6
CONTINUOUS
 62
    7
 10
783.78802384045821
 20
791.26500647674368
 11
783.78802384045821
 21
584.14874646448357
  0
ARC
  8
_1-0_
  6
CONTINUOUS
 62
    7
 10
656.52500827076005
 20
794.14919216284045
 40
2
 50
0
 51
90
  0
ARC
  8
_1-0_
  6
CONTINUOUS
 62
    7
 10
584.52500827076005
 20
794.14919216284045
 40
2
 50
0
 51
90
  0
ARC
  8
_1-0_
  6
CONTINUOUS
 62
    7
 10
565.52500827076005
 20
581.26343862326371
 40
2
 50
180
 51
270
  0
INSERT
  2
-003-_D3
  8
1
 10
-385.40730924019977
 20
1511.7991746252028
 41
1
 42
1
 50
0
  0
INSERT
  2
-001-_D1
  8
1
 10
-385.40730924019977
 20
1511.7991746252028
 41
1
 42
1
 50
0
  0
INSERT
  2
-000-_D0
  8
1
 10
-385.40730924019977
 20
1511.7991746252028
 41
1
 42
1
 50
0
  0
INSERT
  2
-016-_D19
  8
1
 10
-385.40730924019977
 20
1511.7991746252028
 41
1
 42
1
 50
0
  0
INSERT
  2
-015-_D18
  8
1
 10
-385.40730924019977
 20
1511.7991746252028
 41
1
 42
1
 50
0
  0
INSERT
  2
-014-_D17
  8
1
 10
-385.40730924019977
 20
1511.7991746252028
 41
1
 42
1
 50
0
  0
INSERT
  2
-013-_D16
  8
1
 10
-385.40730924019977
 20
1511.7991746252028
 41
1
 42
1
 50
0
  0
INSERT
  2
-012-_D15
  8
1
 10
-385.40730924019977
 20
1511.7991746252028
 41
1
 42
1
 50
0
  0
INSERT
  2
-011-_D14
  8
1
 10
-385.40730924019977
 20
1511.7991746252028
 41
1
 42
1
 50
0
  0
INSERT
  2
-010-_D13
  8
1
 10
-385.40730924019977
 20
1511.7991746252028
 41
1
 42
1
 50
0
  0
INSERT
  2
-009-_D11
  8
1
 10
-385.40730924019977
 20
1511.7991746252028
 41
1
 42
1
 50
0
  0
INSERT
  2
-007-_D8
  8
1
 10
-385.40730924019977
 20
1511.7991746252028
 41
1
 42
1
 50
0
  0
INSERT
  2
-006-_D7
  8
1
 10
-385.40730924019977
 20
1511.7991746252028
 41
1
 42
1
 50
0
  0
INSERT
  2
-005-_D6
  8
1
 10
-385.40730924019977
 20
1511.7991746252028
 41
1
 42
1
 50
0
  0
INSERT
  2
-002-_D2
  8
1
 10
-385.40730924019977
 20
1511.7991746252028
 41
1
 42
1
 50
0
  0
INSERT
  2
-004-_D5
  8
1
 10
-385.40730924019977
 20
1511.7991746252028
 41
1
 42
1
 50
0
  0
LINE
  8
Defpoints
  6
DOT_CENTER
 62
    6
 10
1906.217463905763
 20
1361.7436870378756
 11
296.21746390576328
 21
1361.7436870378756
  0
LINE
  8
Defpoints
  6
DOT_CENTER
 62
    6
 10
296.21746390576328
 20
1361.7436870378756
 11
296.21746390576328
 21
195.26368703787477
  0
LINE
  8
Defpoints
  6
DOT_CENTER
 62
    6
 10
296.21746390576328
 20
195.26368703787477
 11
1906.217463905763
 21
195.26368703787477
  0
LINE
  8
Defpoints
  6
DOT_CENTER
 62
    6
 10
1906.217463905763
 20
195.26368703787477
 11
1906.217463905763
 21
1361.7436870378756
  0
LINE
  8
1
  6
CONTINUOUS
 62
    6
 10
325.41746390576299
 20
230.65324928043773
 11
325.41746390576299
 21
225.26368703787657
  0
LINE
  8
1
  6
CONTINUOUS
 62
    6
 10
325.41746390576299
 20
225.26368703787657
 11
338.26607358353067
 21
225.26368703787657
  0
LINE
  8
1
  6
CONTINUOUS
 62
    7
 10
1876.217463905763
 20
1331.7436870378756
 11
326.21746390576328
 21
1331.7436870378756
  0
LINE
  8
1
  6
CONTINUOUS
 62
    7
 10
326.21746390576328
 20
1331.7436870378756
 11
326.21746390576328
 21
238.94368703787666
  0
LINE
  8
1
  6
CONTINUOUS
 62
    7
 10
326.21746390576328
 20
238.94368703787666
 11
1876.217463905763
 21
238.94368703787666
  0
LINE
  8
1
  6
CONTINUOUS
 62
    7
 10
1876.217463905763
 20
238.94368703787666
 11
1876.217463905763
 21
1331.7436870378756
  0
LINE
  8
1
  6
CONTINUOUS
 62
    7
 10
1399.9670825245942
 20
365.53183658660657
 11
1399.9670825245942
 21
307.53183658660657
  0
LINE
  8
1
  6
CONTINUOUS
 62
    7
 10
1315.9670825245942
 20
365.53183658660657
 11
1315.9670825245942
 21
307.53183658660657
  0
LINE
  8
1
  6
CONTINUOUS
 62
    7
 10
1315.9670825245942
 20
307.53183658660657
 11
1399.9670825245942
 21
307.53183658660657
  0
LINE
  8
1
  6
CONTINUOUS
 62
    7
 10
1315.9670825245942
 20
365.53183658660657
 11
1399.9670825245942
 21
365.53183658660657
  0
LINE
  8
1
  6
CONTINUOUS
 62
    4
 10
1288.9577933389803
 20
357.73715245819278
 11
1306.9820896840263
 21
375.76144880323966
  0
LINE
  8
1
  6
CONTINUOUS
 62
    4
 10
1283.8532393490211
 20
341.31888996924965
 11
1325.4778926641022
 21
382.94354328432962
  0
LINE
  8
1
  6
CONTINUOUS
 62
    4
 10
1282.5332048650093
 20
328.6851469862537
 11
1315.9670825245933
 21
362.1190246458367
  0
LINE
  8
1
  6
CONTINUOUS
 62
    4
 10
1319.3798944653622
 20
365.53183658660566
 11
1339.9340799239642
 21
386.08602204520764
  0
LINE
  8
1
  6
CONTINUOUS
 62
    4
 10
1284.0368619948943
 20
318.87509561715262
 11
1315.9670825245933
 21
350.80531614685162
  0
LINE
  8
1
  6
CONTINUOUS
 62
    4
 10
1330.6936029643473
 20
365.53183658660566
 11
1352.7261000283422
 21
387.56433365060059
  0
LINE
  8
1
  6
CONTINUOUS
 62
    4
 10
1287.5999567724973
 20
311.1244818957706
 11
1315.9670825245933
 21
339.49160764786677
  0
LINE
  8
1
  6
CONTINUOUS
 62
    4
 10
1342.0073114633312
 20
365.53183658660566
 11
1364.3023557515223
 21
387.82688087479676
  0
LINE
  8
1
  6
CONTINUOUS
 62
    4
 10
1292.8826219002422
 20
305.09343852453173
 11
1315.9670825245933
 21
328.17789914888169
  0
LINE
  8
1
  6
CONTINUOUS
 62
    4
 10
1353.3210199623163
 20
365.53183658660566
 11
1375.0411000868812
 21
387.25191671117079
  0
LINE
  8
1
  6
CONTINUOUS
 62
    4
 10
1299.3423592835063
 20
300.23946740881058
 11
1315.9670825245933
 21
316.86419064989661
  0
LINE
  8
1
  6
CONTINUOUS
 62
    4
 10
1364.6347284613012
 20
365.53183658660566
 11
1385.2394266707313
 21
386.13653479603465
  0
LINE
  8
1
  6
CONTINUOUS
 62
    4
 10
1306.6078784488693
 20
296.19127807518873
 11
1317.9484369602872
 21
307.53183658660566
  0
LINE
  8
1
  6
CONTINUOUS
 62
    4
 10
1375.9484369602862
 20
365.53183658660566
 11
1394.8432124155393
 21
384.42661204185958
  0
LINE
  8
1
  6
CONTINUOUS
 62
    4
 10
1314.4592447708683
 20
292.72893589820262
 11
1329.2621454592713
 21
307.53183658660566
  0
LINE
  8
1
  6
CONTINUOUS
 62
    4
 10
1387.2621454592713
 20
365.53183658660566
 11
1403.7383095446432
 21
382.00800067197758
  0
LINE
  8
1
  6
CONTINUOUS
 62
    4
 10
1322.9245839423552
 20
289.88056657070467
 11
1340.5758539582562
 21
307.53183658660566
  0
LINE
  8
1
  6
CONTINUOUS
 62
    4
 10
1398.5758539582562
 20
365.53183658660566
 11
1411.8419078913923
 21
378.79789051974274
  0
LINE
  8
1
  6
CONTINUOUS
 62
    4
 10
1332.1034964746773
 20
287.7457706040426
 11
1351.8895624572403
 21
307.53183658660566
  0
LINE
  8
1
  6
CONTINUOUS
 62
    4
 10
1399.9670825245933
 20
355.60935665395766
 11
1418.7881688019731
 21
374.43044293133869
  0
LINE
  8
1
  6
CONTINUOUS
 62
    4
 10
1342.1159849181151
 20
286.44455054849561
 11
1363.2032709562252
 21
307.53183658660566
  0
LINE
  8
1
  6
CONTINUOUS
 62
    4
 10
1399.9670825245933
 20
344.29564815497258
 11
1424.0266057984093
 21
368.35517142878973
  0
LINE
  8
1
  6
CONTINUOUS
 62
    4
 10
1353.1195778536523
 20
286.13443498504773
 11
1374.5169794552103
 21
307.53183658660566
  0
LINE
  8
1
  6
CONTINUOUS
 62
    4
 10
1399.9670825245942
 20
332.98193965598864
 11
1427.2107480381821
 21
360.22560516957776
  0
LINE
  8
1
  6
CONTINUOUS
 62
    4
 10
1365.2991551078253
 20
287.00030374023561
 11
1385.8306879541951
 21
307.53183658660566
  0
LINE
  8
1
  6
CONTINUOUS
 62
    4
 10
1399.9670825245933
 20
321.66823115700379
 11
1428.6508386793882
 21
350.35198731179764
  0
LINE
  8
1
  6
CONTINUOUS
 62
    4
 10
1378.3134098222652
 20
288.70084995569175
 11
1397.1443964531802
 21
307.53183658660566
  0
LINE
  8
1
  6
CONTINUOUS
 62
    4
 10
1399.9670825245923
 20
310.35452265801871
 11
1428.8203626471202
 21
339.20780278054769
  0
LINE
  8
1
  6
CONTINUOUS
 62
    4
 10
1391.9558501067963
 20
291.02958174123762
 11
1428.7879691056542
 21
327.86170074009567
  0
LINE
  8
1
  6
CONTINUOUS
 62
    4
 10
1407.6004834813702
 20
295.36050661682668
 11
1427.1085088838183
 21
314.86853201927477
  0
TEXT
  8
1
 62
    7
 10
1322.1636539531653
 20
320.27469372946359
 40
10
 41
0.89
 50
0
  1
（285x410）
  0
TEXT
  8
1
 62
    7
 10
1318.9087968103083
 20
342.33183658660676
 40
10
 41
0.89
 50
0
  1
参考開口寸法
  0
LINE
  8
1
  6
CONTINUOUS
 62
    7
 10
1283.9226571656661
 20
341.60122067559962
 11
1283.4203677433593
 21
338.36441856758859
  0
LINE
  8
1
  6
CONTINUOUS
 62
    7
 10
1283.4203677433593
 20
338.36441856758859
 11
1282.9848130646012
 21
335.12403424411571
  0
LINE
  8
1
  6
CONTINUOUS
 62
    7
 10
1282.9848130646012
 20
335.12403424411571
 11
1282.6827278729413
 21
331.87648548971958
  0
LINE
  8
1
  6
CONTINUOUS
 62
    7
 10
1282.6827278729413
 20
331.87648548971958
 11
1282.5808469119293
 21
328.61819008893769
  0
LINE
  8
1
  6
CONTINUOUS
 62
    7
 10
1282.5808469119293
 20
328.61819008893769
 11
1282.6479699944853
 21
326.58322573247563
  0
LINE
  8
1
  6
CONTINUOUS
 62
    7
 10
1282.6479699944853
 20
326.58322573247563
 11
1283.2176616088461
 21
322.08018398706179
  0
LINE
  8
1
  6
CONTINUOUS
 62
    7
 10
1283.2176616088461
 20
322.08018398706179
 11
1284.0050985477092
 21
318.87231561180067
  0
LINE
  8
1
  6
CONTINUOUS
 62
    7
 10
1284.0050985477092
 20
318.87231561180067
 11
1285.1124875896542
 21
315.7766234429356
  0
LINE
  8
1
  6
CONTINUOUS
 62
    7
 10
1285.1124875896542
 20
315.7766234429356
 11
1286.6081829654513
 21
312.73532501786769
  0
LINE
  8
1
  6
CONTINUOUS
 62
    7
 10
1286.6081829654513
 20
312.73532501786769
 11
1288.2999956643182
 21
310.12832728501064
  0
LINE
  8
1
  6
CONTINUOUS
 62
    7
 10
1288.2999956643182
 20
310.12832728501064
 11
1290.3479011446182
 21
307.61883078487278
  0
LINE
  8
1
  6
CONTINUOUS
 62
    7
 10
1290.3479011446182
 20
307.61883078487278
 11
1292.6496045030312
 21
305.3050366276176
  0
LINE
  8
1
  6
CONTINUOUS
 62
    7
 10
1292.6496045030312
 20
305.3050366276176
 11
1295.1663372551043
 21
303.17321801333458
  0
LINE
  8
1
  6
CONTINUOUS
 62
    7
 10
1295.1663372551043
 20
303.17321801333458
 11
1297.8593309163823
 21
301.20964814211072
  0
LINE
  8
1
  6
CONTINUOUS
 62
    7
 10
1297.8593309163823
 20
301.20964814211072
 11
1300.6898170024103
 21
299.40060021403576
  0
LINE
  8
1
  6
CONTINUOUS
 62
    7
 10
1300.6898170024103
 20
299.40060021403576
 11
1303.6190270287352
 21
297.73234742919669
  0
LINE
  8
1
  6
CONTINUOUS
 62
    7
 10
1303.6190270287352
 20
297.73234742919669
 11
1306.5623594070241
 21
296.21377554318576
  0
LINE
  8
1
  6
CONTINUOUS
 62
    7
 10
1306.5623594070241
 20
296.21377554318576
 11
1309.6253513900672
 21
294.76554081836059
  0
LINE
  8
1
  6
CONTINUOUS
 62
    7
 10
1309.6253513900672
 20
294.76554081836059
 11
1312.6645498756463
 21
293.45246055361861
  0
LINE
  8
1
  6
CONTINUOUS
 62
    7
 10
1312.6645498756463
 20
293.45246055361861
 11
1315.7260456208812
 21
292.2509284302447
  0
LINE
  8
1
  6
CONTINUOUS
 62
    7
 10
1315.7260456208812
 20
292.2509284302447
 11
1318.8100962559652
 21
291.15995067750157
  0
LINE
  8
1
  6
CONTINUOUS
 62
    7
 10
1318.8100962559652
 20
291.15995067750157
 11
1321.9169594110851
 21
290.17853352465465
  0
LINE
  8
1
  6
CONTINUOUS
 62
    7
 10
1321.9169594110851
 20
290.17853352465465
 11
1325.0468927164352
 21
289.3056832009687
  0
LINE
  8
1
  6
CONTINUOUS
 62
    7
 10
1325.0468927164352
 20
289.3056832009687
 11
1328.2001538022012
 21
288.54040593570664
  0
LINE
  8
1
  6
CONTINUOUS
 62
    7
 10
1328.2001538022012
 20
288.54040593570664
 11
1331.3770002985752
 21
287.88170795813369
  0
LINE
  8
1
  6
CONTINUOUS
 62
    7
 10
1331.3770002985752
 20
287.88170795813369
 11
1334.2390220334512
 21
287.38197449312258
  0
LINE
  8
1
  6
CONTINUOUS
 62
    7
 10
1334.2390220334512
 20
287.38197449312258
 11
1337.8013676911582
 21
286.8800139434976
  0
LINE
  8
1
  6
CONTINUOUS
 62
    7
 10
1337.8013676911582
 20
286.8800139434976
 11
1341.0439433380602
 21
286.53473170493965
  0
LINE
  8
1
  6
CONTINUOUS
 62
    7
 10
1341.0439433380602
 20
286.53473170493965
 11
1344.3007329730622
 21
286.29148474170267
  0
LINE
  8
1
  6
CONTINUOUS
 62
    7
 10
1344.3007329730622
 20
286.29148474170267
 11
1347.5670537584751
 21
286.14900906647165
  0
LINE
  8
1
  6
CONTINUOUS
 62
    7
 10
1347.5670537584751
 20
286.14900906647165
 11
1350.8382228566122
 21
286.10604069192857
  0
LINE
  8
1
  6
CONTINUOUS
 62
    7
 10
1350.8382228566122
 20
286.10604069192857
 11
1354.3613886010883
 21
286.16961137419469
  0
LINE
  8
1
  6
CONTINUOUS
 62
    7
 10
1354.3613886010883
 20
286.16961137419469
 11
1357.3767943198632
 21
286.31188935480361
  0
LINE
  8
1
  6
CONTINUOUS
 62
    7
 10
1357.3767943198632
 20
286.31188935480361
 11
1360.6377871188593
 21
286.54634114251974
  0
LINE
  8
1
  6
CONTINUOUS
 62
    7
 10
1360.6377871188593
 20
286.54634114251974
 11
1363.8910552696113
 21
286.85058397735258
  0
LINE
  8
1
  6
CONTINUOUS
 62
    7
 10
1363.8910552696113
 20
286.85058397735258
 11
1367.1351184588261
 21
287.2105298662126
  0
LINE
  8
1
  6
CONTINUOUS
 62
    7
 10
1367.1351184588261
 20
287.2105298662126
 11
1370.3684963732103
 21
287.61209081601157
  0
LINE
  8
1
  6
CONTINUOUS
 62
    7
 10
1370.3684963732103
 20
287.61209081601157
 11
1374.6005922030251
 21
288.17964780532964
  0
LINE
  8
1
  6
CONTINUOUS
 62
    7
 10
1374.6005922030251
 20
288.17964780532964
 11
1376.7975760716922
 21
288.48509343646572
  0
LINE
  8
1
  6
CONTINUOUS
 62
    7
 10
1376.7975760716922
 20
288.48509343646572
 11
1379.9941909445222
 21
288.94621878910459
  0
LINE
  8
1
  6
CONTINUOUS
 62
    7
 10
1379.9941909445222
 20
288.94621878910459
 11
1383.1836537412612
 21
289.43619674578565
  0
LINE
  8
1
  6
CONTINUOUS
 62
    7
 10
1383.1836537412612
 20
289.43619674578565
 11
1386.3700940185172
 21
289.96680347911058
  0
LINE
  8
1
  6
CONTINUOUS
 62
    7
 10
1386.3700940185172
 20
289.96680347911058
 11
1389.5576413328993
 21
290.54981516167561
  0
LINE
  8
1
  6
CONTINUOUS
 62
    7
 10
1389.5576413328993
 20
290.54981516167561
 11
1392.7504252410133
 21
291.19700796608061
  0
LINE
  8
1
  6
CONTINUOUS
 62
    7
 10
1392.7504252410133
 20
291.19700796608061
 11
1395.9525752994682
 21
291.92015806492566
  0
LINE
  8
1
  6
CONTINUOUS
 62
    7
 10
1395.9525752994682
 20
291.92015806492566
 11
1399.1682210648703
 21
292.73104163080768
  0
LINE
  8
1
  6
CONTINUOUS
 62
    7
 10
1399.1682210648703
 20
292.73104163080768
 11
1402.0131460408002
 21
293.5267532861377
  0
LINE
  8
1
  6
CONTINUOUS
 62
    7
 10
1402.0131460408002
 20
293.5267532861377
 11
1405.6426612868033
 21
294.66735500969378
  0
LINE
  8
1
  6
CONTINUOUS
 62
    7
 10
1405.6426612868033
 20
294.66735500969378
 11
1408.8434270949622
 21
295.83662609684359
  0
LINE
  8
1
  6
CONTINUOUS
 62
    7
 10
1408.8434270949622
 20
295.83662609684359
 11
1411.9486898288483
 21
297.17915277458872
  0
LINE
  8
1
  6
CONTINUOUS
 62
    7
 10
1411.9486898288483
 20
297.17915277458872
 11
1414.9033667584292
 21
298.72483452890663
  0
LINE
  8
1
  6
CONTINUOUS
 62
    7
 10
1414.9033667584292
 20
298.72483452890663
 11
1417.6523751536752
 21
300.50357084577774
  0
LINE
  8
1
  6
CONTINUOUS
 62
    7
 10
1417.6523751536752
 20
300.50357084577774
 11
1420.1406322845542
 21
302.54526121118272
  0
LINE
  8
1
  6
CONTINUOUS
 62
    7
 10
1420.1406322845542
 20
302.54526121118272
 11
1422.5918819894532
 21
305.23566330076267
  0
LINE
  8
1
  6
CONTINUOUS
 62
    7
 10
1422.5918819894532
 20
305.23566330076267
 11
1424.1237444610542
 21
307.52644777466378
  0
LINE
  8
1
  6
CONTINUOUS
 62
    7
 10
1424.1237444610542
 20
307.52644777466378
 11
1425.5832397511633
 21
310.4389487075797
  0
LINE
  8
1
  6
CONTINUOUS
 62
    7
 10
1425.5832397511633
 20
310.4389487075797
 11
1426.7235105952643
 21
313.54620420468075
  0
LINE
  8
1
  6
CONTINUOUS
 62
    7
 10
1426.7235105952643
 20
313.54620420468075
 11
1427.5765674718973
 21
316.77706278742573
  0
LINE
  8
1
  6
CONTINUOUS
 62
    7
 10
1427.5765674718973
 20
316.77706278742573
 11
1428.1523576837642
 21
319.91118661427379
  0
LINE
  8
1
  6
CONTINUOUS
 62
    7
 10
1428.1523576837642
 20
319.91118661427379
 11
1428.5523369105633
 21
323.33906698083968
  0
LINE
  8
1
  6
CONTINUOUS
 62
    7
 10
1428.5523369105633
 20
323.33906698083968
 11
1428.7569444669823
 21
326.60523074875266
  0
LINE
  8
1
  6
CONTINUOUS
 62
    7
 10
1428.7569444669823
 20
326.60523074875266
 11
1428.8373523660503
 21
329.86167841648569
  0
LINE
  8
1
  6
CONTINUOUS
 62
    7
 10
1428.8373523660503
 20
329.86167841648569
 11
1428.8426691783422
 21
333.11122296614064
  0
LINE
  8
1
  6
CONTINUOUS
 62
    7
 10
1428.8426691783422
 20
333.11122296614064
 11
1428.8174378238782
 21
337.67440365322375
  0
LINE
  8
1
  6
CONTINUOUS
 62
    7
 10
1428.8174378238782
 20
337.67440365322375
 11
1428.8211123690023
 21
339.60085999603268
  0
LINE
  8
1
  6
CONTINUOUS
 62
    7
 10
1428.8211123690023
 20
339.60085999603268
 11
1428.8343563131202
 21
342.84667129731758
  0
LINE
  8
1
  6
CONTINUOUS
 62
    7
 10
1428.8343563131202
 20
342.84667129731758
 11
1428.8158818396512
 21
346.09707603753861
  0
LINE
  8
1
  6
CONTINUOUS
 62
    7
 10
1428.8158818396512
 20
346.09707603753861
 11
1428.7187628672752
 21
349.35504068485568
  0
LINE
  8
1
  6
CONTINUOUS
 62
    7
 10
1428.7187628672752
 20
349.35504068485568
 11
1428.4960733146702
 21
352.62353170742574
  0
LINE
  8
1
  6
CONTINUOUS
 62
    7
 10
1428.4960733146702
 20
352.62353170742574
 11
1428.1639729241813
 21
355.47586690695664
  0
LINE
  8
1
  6
CONTINUOUS
 62
    7
 10
1428.1639729241813
 20
355.47586690695664
 11
1427.4892644530041
 21
359.18704775885578
  0
LINE
  8
1
  6
CONTINUOUS
 62
    7
 10
1427.4892644530041
 20
359.18704775885578
 11
1426.6253046586933
 21
362.40865984057666
  0
LINE
  8
1
  6
CONTINUOUS
 62
    7
 10
1426.6253046586933
 20
362.40865984057666
 11
1425.4744829503113
 21
365.50309163284771
  0
LINE
  8
1
  6
CONTINUOUS
 62
    7
 10
1425.4744829503113
 20
365.50309163284771
 11
1424.0022699533313
 21
368.40310904005366
  0
LINE
  8
1
  6
CONTINUOUS
 62
    7
 10
1424.0022699533313
 20
368.40310904005366
 11
1422.6673109660783
 21
370.40890980011375
  0
LINE
  8
1
  6
CONTINUOUS
 62
    7
 10
1422.6673109660783
 20
370.40890980011375
 11
1419.9853833446812
 21
373.38133139509875
  0
LINE
  8
1
  6
CONTINUOUS
 62
    7
 10
1419.9853833446812
 20
373.38133139509875
 11
1417.4858769317461
 21
375.44134777564875
  0
LINE
  8
1
  6
CONTINUOUS
 62
    7
 10
1417.4858769317461
 20
375.44134777564875
 11
1414.7328661518663
 21
377.24772157603377
  0
LINE
  8
1
  6
CONTINUOUS
 62
    7
 10
1414.7328661518663
 20
377.24772157603377
 11
1411.7833603994181
 21
378.82640325135173
  0
LINE
  8
1
  6
CONTINUOUS
 62
    7
 10
1411.7833603994181
 20
378.82640325135173
 11
1408.6943690687792
 21
380.20334325669967
  0
LINE
  8
1
  6
CONTINUOUS
 62
    7
 10
1408.6943690687792
 20
380.20334325669967
 11
1405.5229015543252
 21
381.40449204717459
  0
LINE
  8
1
  6
CONTINUOUS
 62
    7
 10
1405.5229015543252
 20
381.40449204717459
 11
1403.7311944670403
 21
382.01031857569171
  0
LINE
  8
1
  6
CONTINUOUS
 62
    7
 10
1403.7311944670403
 20
382.01031857569171
 11
1399.1309145014993
 21
383.37587405272677
  0
LINE
  8
1
  6
CONTINUOUS
 62
    7
 10
1399.1309145014993
 20
383.37587405272677
 11
1395.9394000991083
 21
384.17695972849663
  0
LINE
  8
1
  6
CONTINUOUS
 62
    7
 10
1395.9394000991083
 20
384.17695972849663
 11
1392.7479525519052
 21
384.87003315526078
  0
LINE
  8
1
  6
CONTINUOUS
 62
    7
 10
1392.7479525519052
 20
384.87003315526078
 11
1389.5539453991332
 21
385.46627960341868
  0
LINE
  8
1
  6
CONTINUOUS
 62
    7
 10
1389.5539453991332
 20
385.46627960341868
 11
1386.3547521800433
 21
385.97688434336771
  0
LINE
  8
1
  6
CONTINUOUS
 62
    7
 10
1386.3547521800433
 20
385.97688434336771
 11
1383.1477464338811
 21
386.41303264550777
  0
LINE
  8
1
  6
CONTINUOUS
 62
    7
 10
1383.1477464338811
 20
386.41303264550777
 11
1379.9303016998952
 21
386.78590978023465
  0
LINE
  8
1
  6
CONTINUOUS
 62
    7
 10
1379.9303016998952
 20
386.78590978023465
 11
1378.1138561591151
 21
386.97215111554362
  0
LINE
  8
1
  6
CONTINUOUS
 62
    7
 10
1378.1138561591151
 20
386.97215111554362
 11
1373.4563202507022
 21
387.37794284610561
  0
LINE
  8
1
  6
CONTINUOUS
 62
    7
 10
1373.4563202507022
 20
387.37794284610561
 11
1370.2023865697763
 21
387.59458875998973
  0
LINE
  8
1
  6
CONTINUOUS
 62
    7
 10
1370.2023865697763
 20
387.59458875998973
 11
1366.9409606207812
 21
387.75009904417664
  0
LINE
  8
1
  6
CONTINUOUS
 62
    7
 10
1366.9409606207812
 20
387.75009904417664
 11
1363.6749356856103
 21
387.83817741989867
  0
LINE
  8
1
  6
CONTINUOUS
 62
    7
 10
1363.6749356856103
 20
387.83817741989867
 11
1360.4072050461532
 21
387.8525276083916
  0
LINE
  8
1
  6
CONTINUOUS
 62
    7
 10
1360.4072050461532
 20
387.8525276083916
 11
1357.6735632802922
 21
387.80329900568074
  0
LINE
  8
1
  6
CONTINUOUS
 62
    7
 10
1357.6735632802922
 20
387.80329900568074
 11
1353.8779189823213
 21
387.63716937111974
  0
LINE
  8
1
  6
CONTINUOUS
 62
    7
 10
1353.8779189823213
 20
387.63716937111974
 11
1350.6209056999403
 21
387.40511034080566
  0
LINE
  8
1
  6
CONTINUOUS
 62
    7
 10
1350.6209056999403
 20
387.40511034080566
 11
1347.3714441516233
 21
387.09319680343867
  0
LINE
  8
1
  6
CONTINUOUS
 62
    7
 10
1347.3714441516233
 20
387.09319680343867
 11
1344.1313571273663
 21
386.70394293964171
  0
LINE
  8
1
  6
CONTINUOUS
 62
    7
 10
1344.1313571273663
 20
386.70394293964171
 11
1340.9024674171683
 21
386.2398629300377
  0
LINE
  8
1
  6
CONTINUOUS
 62
    7
 10
1340.9024674171683
 20
386.2398629300377
 11
1337.3758941076273
 21
385.64777280765668
  0
LINE
  8
1
  6
CONTINUOUS
 62
    7
 10
1337.3758941076273
 20
385.64777280765668
 11
1334.4855321456432
 21
385.09629449845272
  0
LINE
  8
1
  6
CONTINUOUS
 62
    7
 10
1334.4855321456432
 20
385.09629449845272
 11
1331.3008455813351
 21
384.41457521581958
  0
LINE
  8
1
  6
CONTINUOUS
 62
    7
 10
1331.3008455813351
 20
384.41457521581958
 11
1328.1340436937533
 21
383.65279216531269
  0
LINE
  8
1
  6
CONTINUOUS
 62
    7
 10
1328.1340436937533
 20
383.65279216531269
 11
1324.9866320105052
 21
382.80542318806363
  0
LINE
  8
1
  6
CONTINUOUS
 62
    7
 10
1324.9866320105052
 20
382.80542318806363
 11
1321.8601160592002
 21
381.86694612520557
  0
LINE
  8
1
  6
CONTINUOUS
 62
    7
 10
1321.8601160592002
 20
381.86694612520557
 11
1318.7560013674433
 21
380.8318388178717
  0
LINE
  8
1
  6
CONTINUOUS
 62
    7
 10
1318.7560013674433
 20
380.8318388178717
 11
1314.2689947692243
 21
379.13628778813575
  0
LINE
  8
1
  6
CONTINUOUS
 62
    7
 10
1314.2689947692243
 20
379.13628778813575
 11
1312.6216769145801
 21
378.44936101180463
  0
LINE
  8
1
  6
CONTINUOUS
 62
    7
 10
1312.6216769145801
 20
378.44936101180463
 11
1309.6088392947202
 21
377.08494361829673
  0
LINE
  8
1
  6
CONTINUOUS
 62
    7
 10
1309.6088392947202
 20
377.08494361829673
 11
1306.6641656144122
 21
375.58519677444258
  0
LINE
  8
1
  6
CONTINUOUS
 62
    7
 10
1306.6641656144122
 20
375.58519677444258
 11
1303.8149578968503
 21
373.93381602734678
  0
LINE
  8
1
  6
CONTINUOUS
 62
    7
 10
1303.8149578968503
 20
373.93381602734678
 11
1301.0885181652282
 21
372.11449692411259
  0
LINE
  8
1
  6
CONTINUOUS
 62
    7
 10
1301.0885181652282
 20
372.11449692411259
 11
1298.5121484427411
 21
370.11093501184462
  0
LINE
  8
1
  6
CONTINUOUS
 62
    7
 10
1298.5121484427411
 20
370.11093501184462
 11
1295.5810221309703
 21
367.36108294684675
  0
LINE
  8
1
  6
CONTINUOUS
 62
    7
 10
1295.5810221309703
 20
367.36108294684675
 11
1293.9173648992053
 21
365.4895009413666
  0
LINE
  8
1
  6
CONTINUOUS
 62
    7
 10
1293.9173648992053
 20
365.4895009413666
 11
1291.9385734223792
 21
362.87627378404375
  0
LINE
  8
1
  6
CONTINUOUS
 62
    7
 10
1291.9385734223792
 20
362.87627378404375
 11
1290.1846234252582
 21
360.09921704425767
  0
LINE
  8
1
  6
CONTINUOUS
 62
    7
 10
1290.1846234252582
 20
360.09921704425767
 11
1288.6633205407393
 21
357.19050652166277
  0
LINE
  8
1
  6
CONTINUOUS
 62
    7
 10
1288.6633205407393
 20
357.19050652166277
 11
1287.8509250542522
 21
355.36053228792559
  0
LINE
  8
1
  6
CONTINUOUS
 62
    7
 10
1287.8509250542522
 20
355.36053228792559
 11
1286.3214694803112
 21
351.10058592967778
  0
LINE
  8
1
  6
CONTINUOUS
 62
    7
 10
1286.3214694803112
 20
351.10058592967778
 11
1285.4287315221732
 21
347.96443786490875
  0
LINE
  8
1
  6
CONTINUOUS
 62
    7
 10
1285.4287315221732
 20
347.96443786490875
 11
1284.6477541879433
 21
344.7919213762317
  0
LINE
  8
1
  6
CONTINUOUS
 62
    7
 10
1284.6477541879433
 20
344.7919213762317
 11
1283.9226571656661
 21
341.60122067559962
  0
TEXT
  8
1
 62
    7
 10
1625.1980353343351
 20
397.34368703787675
 40
10
 41
0.89
 50
0
  1
型式
  0
TEXT
  8
1
 62
    7
 10
1608.9237496200481
 20
374.05797275216162
 40
10
 41
0.89
 50
0
  1
PROD.MARK
  0
TEXT
  8
1
 62
    7
 10
1625.1980353343351
 20
345.41511560930473
 40
10
 41
0.89
 50
0
  1
名称
  0
TEXT
  8
1
 62
    7
 10
1608.9237496200481
 20
312.5294013235906
 40
10
 41
0.89
 50
0
  1
DWG．NAME
  0
TEXT
  8
1
 62
    7
 10
1618.6883210486203
 20
280.35797275216271
 40
10
 41
0.89
 50
0
  1
作成日
  0
TEXT
  8
1
 62
    7
 10
1608.9237496200481
 20
249.52940132359063
 40
10
 41
0.89
 50
0
  1
DWG．DATE
  0
LINE
  8
1
  6
CONTINUOUS
 62
    2
 10
1674.2174639057632
 20
414.94368703787666
 11
1674.2174639057632
 21
238.94368703787666
  0
LINE
  8
1
  6
CONTINUOUS
 62
    2
 10
1602.2174639057632
 20
300.94368703787666
 11
1876.217463905763
 21
300.94368703787666
  0
LINE
  8
1
  6
CONTINUOUS
 62
    2
 10
1602.2174639057632
 20
366.94368703787666
 11
1876.217463905763
 21
366.94368703787666
  0
LINE
  8
1
  6
CONTINUOUS
 62
    2
 10
1602.2174639057632
 20
414.94368703787666
 11
1876.217463905763
 21
414.94368703787666
  0
LINE
  8
1
  6
CONTINUOUS
 62
    2
 10
1602.2174639057632
 20
414.94368703787666
 11
1602.2174639057632
 21
238.94368703787666
  0
TEXT
  8
1
 62
    7
 10
991.41939372332422
 20
1095.9887752628817
 40
15
 41
0.89
 50
0
  1
排気
  0
LINE
  8
1
  6
CONTINUOUS
 62
    3
 10
1019.9193937233242
 20
1079.0409340491822
 11
1019.9193937233242
 21
1074.0409340491822
  0
LINE
  8
1
  6
CONTINUOUS
 62
    3
 10
991.41939372332422
 20
1089.0409340491822
 11
991.41939372332422
 21
1079.0409340491822
  0
LINE
  8
1
  6
CONTINUOUS
 62
    3
 10
1019.9193937233242
 20
1089.0409340491822
 11
1019.9193937233242
 21
1094.0409340491819
  0
LINE
  8
1
  6
CONTINUOUS
 62
    3
 10
991.41939372332422
 20
1079.0409340491822
 11
1019.9193937233242
 21
1079.0409340491822
  0
LINE
  8
1
  6
CONTINUOUS
 62
    3
 10
991.41939372332422
 20
1089.0409340491822
 11
1019.9193937233242
 21
1089.0409340491822
  0
LINE
  8
1
  6
CONTINUOUS
 62
    3
 10
1019.9193937233242
 20
1094.0409340491819
 11
1029.9193937233242
 21
1084.0409340491822
  0
LINE
  8
1
  6
CONTINUOUS
 62
    3
 10
1019.9193937233242
 20
1074.0409340491822
 11
1029.9193937233242
 21
1084.0409340491822
  0
LINE
  8
1
  6
CONTINUOUS
 62
    3
 10
958.5368710046082
 20
612.90857420944781
 11
958.5368710046082
 21
607.90857420944781
  0
LINE
  8
1
  6
CONTINUOUS
 62
    3
 10
930.0368710046082
 20
622.90857420944781
 11
930.0368710046082
 21
612.90857420944781
  0
LINE
  8
1
  6
CONTINUOUS
 62
    3
 10
958.5368710046082
 20
622.90857420944781
 11
958.5368710046082
 21
627.90857420944792
  0
LINE
  8
1
  6
CONTINUOUS
 62
    3
 10
930.0368710046082
 20
612.90857420944781
 11
958.5368710046082
 21
612.90857420944781
  0
LINE
  8
1
  6
CONTINUOUS
 62
    3
 10
930.0368710046082
 20
622.90857420944781
 11
958.5368710046082
 21
622.90857420944781
  0
LINE
  8
1
  6
CONTINUOUS
 62
    3
 10
958.5368710046082
 20
627.90857420944792
 11
968.5368710046082
 21
617.90857420944792
  0
LINE
  8
1
  6
CONTINUOUS
 62
    3
 10
958.5368710046082
 20
607.90857420944781
 11
968.5368710046082
 21
617.90857420944792
  0
TEXT
  8
1
 62
    7
 10
1718.9845117990762
 20
325.76541798435335
 40
15
 41
0.89
 50
0
  1
本 体 外 形 図
  0
ARC
  8
_1-0_
  6
CONTINUOUS
 62
    7
 10
680.52500827076005
 20
581.26343862326371
 40
2
 50
270
 51
0
  0
LINE
  8
_1-0_
  6
CONTINUOUS
 62
    7
 10
673.52500827076005
 20
579.26343862326371
 11
680.52500827076005
 21
579.26343862326371
  0
ARC
  8
_1-0_
  6
CONTINUOUS
 62
    7
 10
673.52500827076005
 20
581.26343862326371
 40
2
 50
180
 51
270
  0
ARC
  8
_1-0_
  6
CONTINUOUS
 62
    7
 10
505.52500827076005
 20
581.26343862326371
 40
2
 50
180
 51
270
  0
LINE
  8
_1-0_
  6
CONTINUOUS
 62
    7
 10
512.52500827076005
 20
579.26343862326371
 11
505.52500827076005
 21
579.26343862326371
  0
ARC
  8
_1-0_
  6
CONTINUOUS
 62
    7
 10
512.52500827076005
 20
581.26343862326371
 40
2
 50
270
 51
0
  0
LINE
  8
_1-0_
  6
CONTINUOUS
 62
    7
 10
515.52500827076005
 20
581.26343862326371
 11
515.52500827076005
 21
581.76124984316402
  0
ARC
  8
_1-0_
  6
CONTINUOUS
 62
    7
 10
524.52500827076005
 20
581.26343862326371
 40
2
 50
270
 51
0
  0
ARC
  8
_1-0_
  6
CONTINUOUS
 62
    7
 10
529.52500827076005
 20
581.26343862326371
 40
2
 50
180
 51
270
  0
LINE
  8
_1-0_
  6
CONTINUOUS
 62
    7
 10
517.52500827076005
 20
579.26343862326371
 11
524.52500827076005
 21
579.26343862326371
  0
ARC
  8
_1-0_
  6
CONTINUOUS
 62
    7
 10
517.52500827076005
 20
581.26343862326371
 40
2
 50
180
 51
270
  0
LINE
  8
_1-0_
  6
CONTINUOUS
 62
    7
 10
536.52500827076005
 20
579.26343862326371
 11
529.52500827076005
 21
579.26343862326371
  0
ARC
  8
_1-0_
  6
CONTINUOUS
 62
    7
 10
536.52500827076005
 20
581.26343862326371
 40
2
 50
270
 51
0
  0
ARC
  8
_1-0_
  6
CONTINUOUS
 62
    7
 10
541.52500827076005
 20
581.26343862326371
 40
2
 50
180
 51
270
  0
LINE
  8
_1-0_
  6
CONTINUOUS
 62
    7
 10
548.52500827076005
 20
579.26343862326371
 11
541.52500827076005
 21
579.26343862326371
  0
ARC
  8
_1-0_
  6
CONTINUOUS
 62
    7
 10
548.52500827076005
 20
581.26343862326371
 40
2
 50
270
 51
0
  0
ARC
  8
_1-0_
  6
CONTINUOUS
 62
    7
 10
553.52500827076005
 20
581.26343862326371
 40
2
 50
180
 51
270
  0
LINE
  8
_1-0_
  6
CONTINUOUS
 62
    7
 10
560.52500827076005
 20
579.26343862326371
 11
553.52500827076005
 21
579.26343862326371
  0
ARC
  8
_1-0_
  6
CONTINUOUS
 62
    7
 10
560.52500827076005
 20
581.26343862326371
 40
2
 50
270
 51
0
  0
LINE
  8
_1-0_
  6
CONTINUOUS
 62
    7
 10
572.52500827076005
 20
579.26343862326371
 11
565.52500827076005
 21
579.26343862326371
  0
ARC
  8
_1-0_
  6
CONTINUOUS
 62
    7
 10
572.52500827076005
 20
581.26343862326371
 40
2
 50
270
 51
0
  0
ARC
  8
_1-0_
  6
CONTINUOUS
 62
    7
 10
577.52500827076005
 20
581.26343862326371
 40
2
 50
180
 51
270
  0
LINE
  8
_1-0_
  6
CONTINUOUS
 62
    7
 10
584.52500827076005
 20
579.26343862326371
 11
577.52500827076005
 21
579.26343862326371
  0
ARC
  8
_1-0_
  6
CONTINUOUS
 62
    7
 10
584.52500827076005
 20
581.26343862326371
 40
2
 50
270
 51
0
  0
ARC
  8
_1-0_
  6
CONTINUOUS
 62
    7
 10
589.52500827076005
 20
581.26343862326371
 40
2
 50
180
 51
270
  0
LINE
  8
_1-0_
  6
CONTINUOUS
 62
    7
 10
596.52500827076005
 20
579.26343862326371
 11
589.52500827076005
 21
579.26343862326371
  0
ARC
  8
_1-0_
  6
CONTINUOUS
 62
    7
 10
596.52500827076005
 20
581.26343862326371
 40
2
 50
270
 51
0
  0
ARC
  8
_1-0_
  6
CONTINUOUS
 62
    7
 10
601.52500827076005
 20
581.26343862326371
 40
2
 50
180
 51
270
  0
LINE
  8
_1-0_
  6
CONTINUOUS
 62
    7
 10
608.52500827076005
 20
579.26343862326371
 11
601.52500827076005
 21
579.26343862326371
  0
ARC
  8
_1-0_
  6
CONTINUOUS
 62
    7
 10
608.52500827076005
 20
581.26343862326371
 40
2
 50
270
 51
0
  0
LINE
  8
_1-0_
  6
CONTINUOUS
 62
    7
 10
613.52500827076005
 20
579.26343862326371
 11
619.18186197661498
 21
579.26343862326371
  0
ARC
  8
_1-0_
  6
CONTINUOUS
 62
    7
 10
613.52500827076005
 20
581.26343862326371
 40
2
 50
180
 51
270
  0
LINE
  8
_1-0_
  6
CONTINUOUS
 62
    7
 10
620.52500827076005
 20
579.26343862326371
 11
619.18186197661498
 21
579.26343862326371
  0
ARC
  8
_1-0_
  6
CONTINUOUS
 62
    7
 10
620.52500827076005
 20
581.26343862326371
 40
2
 50
270
 51
0
  0
ARC
  8
_1-0_
  6
CONTINUOUS
 62
    7
 10
625.52500827076005
 20
581.26343862326371
 40
2
 50
180
 51
270
  0
LINE
  8
_1-0_
  6
CONTINUOUS
 62
    7
 10
632.52500827076005
 20
579.26343862326371
 11
625.52500827076005
 21
579.26343862326371
  0
ARC
  8
_1-0_
  6
CONTINUOUS
 62
    7
 10
632.52500827076005
 20
581.26343862326371
 40
2
 50
270
 51
0
  0
ARC
  8
_1-0_
  6
CONTINUOUS
 62
    7
 10
637.52500827076005
 20
581.26343862326371
 40
2
 50
180
 51
270
  0
LINE
  8
_1-0_
  6
CONTINUOUS
 62
    7
 10
644.52500827076005
 20
579.26343862326371
 11
637.52500827076005
 21
579.26343862326371
  0
ARC
  8
_1-0_
  6
CONTINUOUS
 62
    7
 10
644.52500827076005
 20
581.26343862326371
 40
2
 50
270
 51
0
  0
ARC
  8
_1-0_
  6
CONTINUOUS
 62
    7
 10
649.52500827076005
 20
581.26343862326371
 40
2
 50
180
 51
270
  0
LINE
  8
_1-0_
  6
CONTINUOUS
 62
    7
 10
656.52500827076005
 20
579.26343862326371
 11
649.52500827076005
 21
579.26343862326371
  0
ARC
  8
_1-0_
  6
CONTINUOUS
 62
    7
 10
656.52500827076005
 20
581.26343862326371
 40
2
 50
270
 51
0
  0
ARC
  8
_1-0_
  6
CONTINUOUS
 62
    7
 10
661.52500827076005
 20
581.26343862326371
 40
2
 50
180
 51
270
  0
LINE
  8
_1-0_
  6
CONTINUOUS
 62
    7
 10
668.52500827076005
 20
579.26343862326371
 11
661.52500827076005
 21
579.26343862326371
  0
ARC
  8
_1-0_
  6
CONTINUOUS
 62
    7
 10
668.52500827076005
 20
581.26343862326371
 40
2
 50
270
 51
0
  0
LINE
  8
_1-0_
  6
CONTINUOUS
 62
    7
 10
682.52500827076005
 20
634.68875752849601
 11
671.52500827076005
 21
634.68875752849601
  0
LINE
  8
_1-0_
  6
CONTINUOUS
 62
    7
 10
682.52500827076005
 20
632.62830142496398
 11
671.52500827076005
 21
632.62830142496398
  0
LINE
  8
_1-0_
  6
CONTINUOUS
 62
    7
 10
670.52500827076005
 20
634.68875752849601
 11
659.52500827076005
 21
634.68875752849601
  0
LINE
  8
_1-0_
  6
CONTINUOUS
 62
    7
 10
670.52500827076005
 20
632.62830142496398
 11
659.52500827076005
 21
632.62830142496398
  0
LINE
  8
_1-0_
  6
CONTINUOUS
 62
    7
 10
658.52500827076005
 20
634.68875752849601
 11
647.52500827076005
 21
634.68875752849601
  0
LINE
  8
_1-0_
  6
CONTINUOUS
 62
    7
 10
658.52500827076005
 20
632.62830142496398
 11
647.52500827076005
 21
632.62830142496398
  0
LINE
  8
_1-0_
  6
CONTINUOUS
 62
    7
 10
646.52500827076005
 20
634.68875752849601
 11
635.52500827076005
 21
634.68875752849601
  0
LINE
  8
_1-0_
  6
CONTINUOUS
 62
    7
 10
646.52500827076005
 20
632.62830142496398
 11
635.52500827076005
 21
632.62830142496398
  0
LINE
  8
_1-0_
  6
CONTINUOUS
 62
    7
 10
634.52500827076005
 20
634.68875752849601
 11
623.52500827076005
 21
634.68875752849601
  0
LINE
  8
_1-0_
  6
CONTINUOUS
 62
    7
 10
634.52500827076005
 20
632.62830142496398
 11
623.52500827076005
 21
632.62830142496398
  0
LINE
  8
_1-0_
  6
CONTINUOUS
 62
    7
 10
622.52500827076005
 20
634.68875752849601
 11
611.52500827076005
 21
634.68875752849601
  0
LINE
  8
_1-0_
  6
CONTINUOUS
 62
    7
 10
622.52500827076005
 20
632.62830142496398
 11
611.52500827076005
 21
632.62830142496398
  0
LINE
  8
_1-0_
  6
CONTINUOUS
 62
    7
 10
610.52500827076005
 20
634.68875752849601
 11
599.52500827076005
 21
634.68875752849601
  0
LINE
  8
_1-0_
  6
CONTINUOUS
 62
    7
 10
610.52500827076005
 20
632.62830142496398
 11
599.52500827076005
 21
632.62830142496398
  0
LINE
  8
_1-0_
  6
CONTINUOUS
 62
    7
 10
598.52500827076005
 20
634.68875752849601
 11
587.52500827076005
 21
634.68875752849601
  0
LINE
  8
_1-0_
  6
CONTINUOUS
 62
    7
 10
598.52500827076005
 20
632.62830142496398
 11
587.52500827076005
 21
632.62830142496398
  0
LINE
  8
_1-0_
  6
CONTINUOUS
 62
    7
 10
586.52500827076005
 20
634.68875752849601
 11
575.52500827076005
 21
634.68875752849601
  0
LINE
  8
_1-0_
  6
CONTINUOUS
 62
    7
 10
586.52500827076005
 20
632.62830142496398
 11
575.52500827076005
 21
632.62830142496398
  0
LINE
  8
_1-0_
  6
CONTINUOUS
 62
    7
 10
574.52500827076005
 20
632.62830142496398
 11
563.52500827076005
 21
632.62830142496398
  0
LINE
  8
_1-0_
  6
CONTINUOUS
 62
    7
 10
574.52500827076005
 20
634.68875752849601
 11
563.52500827076005
 21
634.68875752849601
  0
LINE
  8
_1-0_
  6
CONTINUOUS
 62
    7
 10
562.52500827076005
 20
634.68875752849601
 11
551.52500827076005
 21
634.68875752849601
  0
LINE
  8
_1-0_
  6
CONTINUOUS
 62
    7
 10
562.52500827076005
 20
632.62830142496398
 11
551.52500827076005
 21
632.62830142496398
  0
LINE
  8
_1-0_
  6
CONTINUOUS
 62
    7
 10
550.52500827076005
 20
634.68875752849601
 11
539.52500827076005
 21
634.68875752849601
  0
LINE
  8
_1-0_
  6
CONTINUOUS
 62
    7
 10
550.52500827076005
 20
632.62830142496398
 11
539.52500827076005
 21
632.62830142496398
  0
LINE
  8
_1-0_
  6
CONTINUOUS
 62
    7
 10
538.52500827076005
 20
634.68875752849601
 11
527.52500827076005
 21
634.68875752849601
  0
LINE
  8
_1-0_
  6
CONTINUOUS
 62
    7
 10
538.52500827076005
 20
632.62830142496398
 11
527.52500827076005
 21
632.62830142496398
  0
LINE
  8
_1-0_
  6
CONTINUOUS
 62
    7
 10
526.52500827076005
 20
634.68875752849601
 11
515.52500827076005
 21
634.68875752849601
  0
LINE
  8
_1-0_
  6
CONTINUOUS
 62
    7
 10
526.52500827076005
 20
632.62830142496398
 11
515.52500827076005
 21
632.62830142496398
  0
LINE
  8
_1-0_
  6
CONTINUOUS
 62
    7
 10
514.52500827076005
 20
634.68875752849601
 11
503.52500827076005
 21
634.68875752849601
  0
LINE
  8
_1-0_
  6
CONTINUOUS
 62
    7
 10
514.52500827076005
 20
632.62830142496398
 11
503.52500827076005
 21
632.62830142496398
  0
LINE
  8
_1-0_
  6
CONTINUOUS
 62
    7
 10
514.52500827076005
 20
688.69062932129032
 11
503.52500827076005
 21
688.69062932129032
  0
LINE
  8
_1-0_
  6
CONTINUOUS
 62
    7
 10
514.52500827076005
 20
686.72314152476361
 11
503.52500827076005
 21
686.72314152476361
  0
LINE
  8
_1-0_
  6
CONTINUOUS
 62
    7
 10
526.52500827076005
 20
688.69062932129032
 11
515.52500827076005
 21
688.69062932129032
  0
LINE
  8
_1-0_
  6
CONTINUOUS
 62
    7
 10
538.52500827076005
 20
688.69062932129032
 11
527.52500827076005
 21
688.69062932129032
  0
LINE
  8
_1-0_
  6
CONTINUOUS
 62
    7
 10
550.52500827076005
 20
688.69062932129032
 11
539.52500827076005
 21
688.69062932129032
  0
LINE
  8
_1-0_
  6
CONTINUOUS
 62
    7
 10
562.52500827076005
 20
688.69062932129032
 11
551.52500827076005
 21
688.69062932129032
  0
LINE
  8
_1-0_
  6
CONTINUOUS
 62
    7
 10
526.52500827076005
 20
686.72314152476361
 11
515.52500827076005
 21
686.72314152476361
  0
LINE
  8
_1-0_
  6
CONTINUOUS
 62
    7
 10
538.52500827076005
 20
686.72314152476361
 11
527.52500827076005
 21
686.72314152476361
  0
LINE
  8
_1-0_
  6
CONTINUOUS
 62
    7
 10
550.52500827076005
 20
686.72314152476361
 11
539.52500827076005
 21
686.72314152476361
  0
LINE
  8
_1-0_
  6
CONTINUOUS
 62
    7
 10
562.52500827076005
 20
686.72314152476361
 11
551.52500827076005
 21
686.72314152476361
  0
LINE
  8
_1-0_
  6
CONTINUOUS
 62
    7
 10
574.52500827076005
 20
686.72314152476361
 11
563.52500827076005
 21
686.72314152476361
  0
LINE
  8
_1-0_
  6
CONTINUOUS
 62
    7
 10
574.52500827076005
 20
688.69062932129032
 11
563.52500827076005
 21
688.69062932129032
  0
LINE
  8
_1-0_
  6
CONTINUOUS
 62
    7
 10
586.52500827076005
 20
686.72314152476361
 11
575.52500827076005
 21
686.72314152476361
  0
LINE
  8
_1-0_
  6
CONTINUOUS
 62
    7
 10
586.52500827076005
 20
688.69062932129032
 11
575.52500827076005
 21
688.69062932129032
  0
LINE
  8
_1-0_
  6
CONTINUOUS
 62
    7
 10
598.52500827076005
 20
688.69062932129032
 11
587.52500827076005
 21
688.69062932129032
  0
LINE
  8
_1-0_
  6
CONTINUOUS
 62
    7
 10
610.52500827076005
 20
688.69062932129032
 11
599.52500827076005
 21
688.69062932129032
  0
LINE
  8
_1-0_
  6
CONTINUOUS
 62
    7
 10
622.52500827076005
 20
688.69062932129032
 11
611.52500827076005
 21
688.69062932129032
  0
LINE
  8
_1-0_
  6
CONTINUOUS
 62
    7
 10
598.52500827076005
 20
686.72314152476361
 11
587.52500827076005
 21
686.72314152476361
  0
LINE
  8
_1-0_
  6
CONTINUOUS
 62
    7
 10
610.52500827076005
 20
686.72314152476361
 11
599.52500827076005
 21
686.72314152476361
  0
LINE
  8
_1-0_
  6
CONTINUOUS
 62
    7
 10
622.52500827076005
 20
686.72314152476361
 11
611.52500827076005
 21
686.72314152476361
  0
LINE
  8
_1-0_
  6
CONTINUOUS
 62
    7
 10
634.52500827076005
 20
686.72314152476361
 11
623.52500827076005
 21
686.72314152476361
  0
LINE
  8
_1-0_
  6
CONTINUOUS
 62
    7
 10
646.52500827076005
 20
686.72314152476361
 11
635.52500827076005
 21
686.72314152476361
  0
LINE
  8
_1-0_
  6
CONTINUOUS
 62
    7
 10
646.52500827076005
 20
688.69062932129032
 11
635.52500827076005
 21
688.69062932129032
  0
LINE
  8
_1-0_
  6
CONTINUOUS
 62
    7
 10
634.52500827076005
 20
688.69062932129032
 11
623.52500827076005
 21
688.69062932129032
  0
LINE
  8
_1-0_
  6
CONTINUOUS
 62
    7
 10
658.52500827076005
 20
688.69062932129032
 11
647.52500827076005
 21
688.69062932129032
  0
LINE
  8
_1-0_
  6
CONTINUOUS
 62
    7
 10
658.52500827076005
 20
686.72314152476361
 11
647.52500827076005
 21
686.72314152476361
  0
LINE
  8
_1-0_
  6
CONTINUOUS
 62
    7
 10
670.52500827076005
 20
686.72314152476361
 11
659.52500827076005
 21
686.72314152476361
  0
LINE
  8
_1-0_
  6
CONTINUOUS
 62
    7
 10
670.52500827076005
 20
688.69062932129032
 11
659.52500827076005
 21
688.69062932129032
  0
LINE
  8
_1-0_
  6
CONTINUOUS
 62
    7
 10
682.52500827076005
 20
688.69062932129032
 11
671.52500827076005
 21
688.69062932129032
  0
LINE
  8
_1-0_
  6
CONTINUOUS
 62
    7
 10
682.52500827076005
 20
686.72314152476361
 11
671.52500827076005
 21
686.72314152476361
  0
LINE
  8
_1-0_
  6
CONTINUOUS
 62
    7
 10
514.52500827076005
 20
740.7249954071317
 11
503.52500827076005
 21
740.7249954071317
  0
LINE
  8
_1-0_
  6
CONTINUOUS
 62
    7
 10
526.52500827076005
 20
740.7249954071317
 11
515.52500827076005
 21
740.7249954071317
  0
LINE
  8
_1-0_
  6
CONTINUOUS
 62
    7
 10
538.52500827076005
 20
740.7249954071317
 11
527.52500827076005
 21
740.7249954071317
  0
LINE
  8
_1-0_
  6
CONTINUOUS
 62
    7
 10
550.52500827076005
 20
740.7249954071317
 11
539.52500827076005
 21
740.7249954071317
  0
LINE
  8
_1-0_
  6
CONTINUOUS
 62
    7
 10
503.52500827076005
 20
742.61032521563243
 11
514.52500827076005
 21
742.61032521563243
  0
LINE
  8
_1-0_
  6
CONTINUOUS
 62
    7
 10
515.52500827076005
 20
742.61032521563243
 11
526.52500827076005
 21
742.61032521563243
  0
LINE
  8
_1-0_
  6
CONTINUOUS
 62
    7
 10
527.52500827076005
 20
742.61032521563243
 11
538.52500827076005
 21
742.61032521563243
  0
LINE
  8
_1-0_
  6
CONTINUOUS
 62
    7
 10
539.52500827076005
 20
742.61032521563243
 11
550.52500827076005
 21
742.61032521563243
  0
LINE
  8
_1-0_
  6
CONTINUOUS
 62
    7
 10
551.52500827076005
 20
742.61032521563243
 11
562.52500827076005
 21
742.61032521563243
  0
LINE
  8
_1-0_
  6
CONTINUOUS
 62
    7
 10
562.52500827076005
 20
740.7249954071317
 11
551.52500827076005
 21
740.7249954071317
  0
LINE
  8
_1-0_
  6
CONTINUOUS
 62
    7
 10
563.52500827076005
 20
742.61032521563243
 11
574.52500827076005
 21
742.61032521563243
  0
LINE
  8
_1-0_
  6
CONTINUOUS
 62
    7
 10
574.52500827076005
 20
740.7249954071317
 11
563.52500827076005
 21
740.7249954071317
  0
LINE
  8
_1-0_
  6
CONTINUOUS
 62
    7
 10
575.52500827076005
 20
742.61032521563243
 11
586.52500827076005
 21
742.61032521563243
  0
LINE
  8
_1-0_
  6
CONTINUOUS
 62
    7
 10
586.52500827076005
 20
740.7249954071317
 11
575.52500827076005
 21
740.7249954071317
  0
LINE
  8
_1-0_
  6
CONTINUOUS
 62
    7
 10
587.52500827076005
 20
742.61032521563243
 11
598.52500827076005
 21
742.61032521563243
  0
LINE
  8
_1-0_
  6
CONTINUOUS
 62
    7
 10
598.52500827076005
 20
740.7249954071317
 11
587.52500827076005
 21
740.7249954071317
  0
LINE
  8
_1-0_
  6
CONTINUOUS
 62
    7
 10
599.52500827076005
 20
742.61032521563243
 11
610.52500827076005
 21
742.61032521563243
  0
LINE
  8
_1-0_
  6
CONTINUOUS
 62
    7
 10
610.52500827076005
 20
740.7249954071317
 11
599.52500827076005
 21
740.7249954071317
  0
LINE
  8
_1-0_
  6
CONTINUOUS
 62
    7
 10
611.52500827076005
 20
742.61032521563243
 11
622.52500827076005
 21
742.61032521563243
  0
LINE
  8
_1-0_
  6
CONTINUOUS
 62
    7
 10
622.52500827076005
 20
740.7249954071317
 11
611.52500827076005
 21
740.7249954071317
  0
LINE
  8
_1-0_
  6
CONTINUOUS
 62
    7
 10
623.52500827076005
 20
742.61032521563243
 11
634.52500827076005
 21
742.61032521563243
  0
LINE
  8
_1-0_
  6
CONTINUOUS
 62
    7
 10
634.52500827076005
 20
740.7249954071317
 11
623.52500827076005
 21
740.7249954071317
  0
LINE
  8
_1-0_
  6
CONTINUOUS
 62
    7
 10
635.52500827076005
 20
742.61032521563243
 11
646.52500827076005
 21
742.61032521563243
  0
LINE
  8
_1-0_
  6
CONTINUOUS
 62
    7
 10
646.52500827076005
 20
740.7249954071317
 11
635.52500827076005
 21
740.7249954071317
  0
LINE
  8
_1-0_
  6
CONTINUOUS
 62
    7
 10
647.52500827076005
 20
742.61032521563243
 11
658.52500827076005
 21
742.61032521563243
  0
LINE
  8
_1-0_
  6
CONTINUOUS
 62
    7
 10
658.52500827076005
 20
740.7249954071317
 11
647.52500827076005
 21
740.7249954071317
  0
LINE
  8
_1-0_
  6
CONTINUOUS
 62
    7
 10
659.52500827076005
 20
742.61032521563243
 11
670.52500827076005
 21
742.61032521563243
  0
LINE
  8
_1-0_
  6
CONTINUOUS
 62
    7
 10
670.52500827076005
 20
740.7249954071317
 11
659.52500827076005
 21
740.7249954071317
  0
LINE
  8
_1-0_
  6
CONTINUOUS
 62
    7
 10
671.52500827076005
 20
742.61032521563243
 11
682.52500827076005
 21
742.61032521563243
  0
LINE
  8
_1-0_
  6
CONTINUOUS
 62
    7
 10
682.52500827076005
 20
740.7249954071317
 11
671.52500827076005
 21
740.7249954071317
  0
ARC
  8
_1-0_
  6
CONTINUOUS
 62
    7
 10
505.52500827076005
 20
794.14919216284045
 40
2
 50
90
 51
180
  0
LINE
  8
_1-0_
  6
CONTINUOUS
 62
    7
 10
512.52500827076005
 20
796.14919216284045
 11
505.52500827076005
 21
796.14919216284045
  0
LINE
  8
_1-0_
  6
CONTINUOUS
 62
    7
 10
514.52500827076005
 20
794.14919216284045
 11
514.52500827076005
 21
581.26343862326371
  0
ARC
  8
_1-0_
  6
CONTINUOUS
 62
    7
 10
512.52500827076005
 20
794.14919216284045
 40
2
 50
0
 51
90
  0
LINE
  8
_1-0_
  6
CONTINUOUS
 62
    7
 10
515.52500827076005
 20
794.14919216284045
 11
515.52500827076005
 21
581.26343862326371
  0
ARC
  8
_1-0_
  6
CONTINUOUS
 62
    7
 10
517.52500827076005
 20
794.14919216284045
 40
2
 50
90
 51
180
  0
LINE
  8
_1-0_
  6
CONTINUOUS
 62
    7
 10
524.52500827076005
 20
796.14919216284045
 11
517.52500827076005
 21
796.14919216284045
  0
LINE
  8
_1-0_
  6
CONTINUOUS
 62
    7
 10
526.52500827076005
 20
794.14919216284045
 11
526.52500827076005
 21
581.26343862326371
  0
ARC
  8
_1-0_
  6
CONTINUOUS
 62
    7
 10
524.52500827076005
 20
794.14919216284045
 40
2
 50
0
 51
90
  0
LINE
  8
_1-0_
  6
CONTINUOUS
 62
    7
 10
527.52500827076005
 20
794.14919216284045
 11
527.52500827076005
 21
581.26343862326371
  0
ARC
  8
_1-0_
  6
CONTINUOUS
 62
    7
 10
529.52500827076005
 20
794.14919216284045
 40
2
 50
90
 51
180
  0
LINE
  8
_1-0_
  6
CONTINUOUS
 62
    7
 10
536.52500827076005
 20
796.14919216284045
 11
529.52500827076005
 21
796.14919216284045
  0
LINE
  8
_1-0_
  6
CONTINUOUS
 62
    7
 10
538.52500827076005
 20
794.14919216284045
 11
538.52500827076005
 21
581.26343862326371
  0
ARC
  8
_1-0_
  6
CONTINUOUS
 62
    7
 10
536.52500827076005
 20
794.14919216284045
 40
2
 50
0
 51
90
  0
LINE
  8
_1-0_
  6
CONTINUOUS
 62
    7
 10
539.52500827076005
 20
794.14919216284045
 11
539.52500827076005
 21
581.26343862326371
  0
ARC
  8
_1-0_
  6
CONTINUOUS
 62
    7
 10
541.52500827076005
 20
794.14919216284045
 40
2
 50
90
 51
180
  0
LINE
  8
_1-0_
  6
CONTINUOUS
 62
    7
 10
548.52500827076005
 20
796.14919216284045
 11
541.52500827076005
 21
796.14919216284045
  0
LINE
  8
_1-0_
  6
CONTINUOUS
 62
    7
 10
550.52500827076005
 20
794.14919216284045
 11
550.52500827076005
 21
581.26343862326371
  0
ARC
  8
_1-0_
  6
CONTINUOUS
 62
    7
 10
548.52500827076005
 20
794.14919216284045
 40
2
 50
0
 51
90
  0
LINE
  8
_1-0_
  6
CONTINUOUS
 62
    7
 10
551.52500827076005
 20
794.14919216284045
 11
551.52500827076005
 21
581.26343862326371
  0
ARC
  8
_1-0_
  6
CONTINUOUS
 62
    7
 10
553.52500827076005
 20
794.14919216284045
 40
2
 50
90
 51
180
  0
LINE
  8
_1-0_
  6
CONTINUOUS
 62
    7
 10
560.52500827076005
 20
796.14919216284045
 11
553.52500827076005
 21
796.14919216284045
  0
LINE
  8
_1-0_
  6
CONTINUOUS
 62
    7
 10
562.52500827076005
 20
794.14919216284045
 11
562.52500827076005
 21
581.26343862326371
  0
ARC
  8
_1-0_
  6
CONTINUOUS
 62
    7
 10
560.52500827076005
 20
794.14919216284045
 40
2
 50
0
 51
90
  0
LINE
  8
_1-0_
  6
CONTINUOUS
 62
    7
 10
563.52500827076005
 20
794.14919216284045
 11
563.52500827076005
 21
581.26343862326371
  0
ARC
  8
_1-0_
  6
CONTINUOUS
 62
    7
 10
565.52500827076005
 20
794.14919216284045
 40
2
 50
90
 51
180
  0
LINE
  8
_1-0_
  6
CONTINUOUS
 62
    7
 10
572.52500827076005
 20
796.14919216284045
 11
565.52500827076005
 21
796.14919216284045
  0
LINE
  8
_1-0_
  6
CONTINUOUS
 62
    7
 10
574.52500827076005
 20
794.14919216284045
 11
574.52500827076005
 21
581.26343862326371
  0
ARC
  8
_1-0_
  6
CONTINUOUS
 62
    7
 10
572.52500827076005
 20
794.14919216284045
 40
2
 50
0
 51
90
  0
LINE
  8
_1-0_
  6
CONTINUOUS
 62
    7
 10
575.52500827076005
 20
794.14919216284045
 11
575.52500827076005
 21
581.26343862326371
  0
ARC
  8
_1-0_
  6
CONTINUOUS
 62
    7
 10
577.52500827076005
 20
794.14919216284045
 40
2
 50
90
 51
180
  0
LINE
  8
_1-0_
  6
CONTINUOUS
 62
    7
 10
584.52500827076005
 20
796.14919216284045
 11
577.52500827076005
 21
796.14919216284045
  0
LINE
  8
_1-0_
  6
CONTINUOUS
 62
    7
 10
586.52500827076005
 20
794.14919216284045
 11
586.52500827076005
 21
581.26343862326371
  0
LINE
  8
_1-0_
  6
CONTINUOUS
 62
    7
 10
587.52500827076005
 20
794.14919216284045
 11
587.52500827076005
 21
581.26343862326371
  0
ARC
  8
_1-0_
  6
CONTINUOUS
 62
    7
 10
589.52500827076005
 20
794.14919216284045
 40
2
 50
90
 51
180
  0
LINE
  8
_1-0_
  6
CONTINUOUS
 62
    7
 10
598.52500827076005
 20
794.14919216284045
 11
598.52500827076005
 21
581.26343862326371
  0
LINE
  8
_1-0_
  6
CONTINUOUS
 62
    7
 10
596.52500827076005
 20
796.14919216284045
 11
589.52500827076005
 21
796.14919216284045
  0
ARC
  8
_1-0_
  6
CONTINUOUS
 62
    7
 10
596.52500827076005
 20
794.14919216284045
 40
2
 50
0
 51
90
  0
LINE
  8
_1-0_
  6
CONTINUOUS
 62
    7
 10
599.52500827076005
 20
794.14919216284045
 11
599.52500827076005
 21
581.26343862326371
  0
ARC
  8
_1-0_
  6
CONTINUOUS
 62
    7
 10
601.52500827076005
 20
794.14919216284045
 40
2
 50
90
 51
180
  0
LINE
  8
_1-0_
  6
CONTINUOUS
 62
    7
 10
610.52500827076005
 20
794.14919216284045
 11
610.52500827076005
 21
581.26343862326371
  0
LINE
  8
_1-0_
  6
CONTINUOUS
 62
    7
 10
608.52500827076005
 20
796.14919216284045
 11
601.52500827076005
 21
796.14919216284045
  0
ARC
  8
_1-0_
  6
CONTINUOUS
 62
    7
 10
608.52500827076005
 20
794.14919216284045
 40
2
 50
0
 51
90
  0
LINE
  8
_1-0_
  6
CONTINUOUS
 62
    7
 10
611.52500827076005
 20
794.14919216284045
 11
611.52500827076005
 21
581.26343862326371
  0
ARC
  8
_1-0_
  6
CONTINUOUS
 62
    7
 10
613.52500827076005
 20
794.14919216284045
 40
2
 50
90
 51
180
  0
LINE
  8
_1-0_
  6
CONTINUOUS
 62
    7
 10
620.52500827076005
 20
796.14919216284045
 11
613.52500827076005
 21
796.14919216284045
  0
LINE
  8
_1-0_
  6
CONTINUOUS
 62
    7
 10
622.52500827076005
 20
794.14919216284045
 11
622.52500827076005
 21
581.26343862326371
  0
ARC
  8
_1-0_
  6
CONTINUOUS
 62
    7
 10
620.52500827076005
 20
794.14919216284045
 40
2
 50
0
 51
90
  0
LINE
  8
_1-0_
  6
CONTINUOUS
 62
    7
 10
623.52500827076005
 20
794.14919216284045
 11
623.52500827076005
 21
581.26343862326371
  0
ARC
  8
_1-0_
  6
CONTINUOUS
 62
    7
 10
625.52500827076005
 20
794.14919216284045
 40
2
 50
90
 51
180
  0
LINE
  8
_1-0_
  6
CONTINUOUS
 62
    7
 10
632.52500827076005
 20
796.14919216284045
 11
625.52500827076005
 21
796.14919216284045
  0
LINE
  8
_1-0_
  6
CONTINUOUS
 62
    7
 10
634.52500827076005
 20
794.14919216284045
 11
634.52500827076005
 21
581.26343862326371
  0
ARC
  8
_1-0_
  6
CONTINUOUS
 62
    7
 10
632.52500827076005
 20
794.14919216284045
 40
2
 50
0
 51
90
  0
LINE
  8
_1-0_
  6
CONTINUOUS
 62
    7
 10
635.52500827076005
 20
794.14919216284045
 11
635.52500827076005
 21
581.26343862326371
  0
ARC
  8
_1-0_
  6
CONTINUOUS
 62
    7
 10
637.52500827076005
 20
794.14919216284045
 40
2
 50
90
 51
180
  0
LINE
  8
_1-0_
  6
CONTINUOUS
 62
    7
 10
644.52500827076005
 20
796.14919216284045
 11
637.52500827076005
 21
796.14919216284045
  0
LINE
  8
_1-0_
  6
CONTINUOUS
 62
    7
 10
646.52500827076005
 20
794.14919216284045
 11
646.52500827076005
 21
581.26343862326371
  0
ARC
  8
_1-0_
  6
CONTINUOUS
 62
    7
 10
644.52500827076005
 20
794.14919216284045
 40
2
 50
0
 51
90
  0
LINE
  8
_1-0_
  6
CONTINUOUS
 62
    7
 10
647.52500827076005
 20
794.14919216284045
 11
647.52500827076005
 21
581.26343862326371
  0
ARC
  8
_1-0_
  6
CONTINUOUS
 62
    7
 10
649.52500827076005
 20
794.14919216284045
 40
2
 50
90
 51
180
  0
LINE
  8
_1-0_
  6
CONTINUOUS
 62
    7
 10
656.52500827076005
 20
796.14919216284045
 11
649.52500827076005
 21
796.14919216284045
  0
LINE
  8
_1-0_
  6
CONTINUOUS
 62
    7
 10
658.52500827076005
 20
794.14919216284045
 11
658.52500827076005
 21
581.26343862326371
  0
LINE
  8
_1-0_
  6
CONTINUOUS
 62
    7
 10
659.52500827076005
 20
794.14919216284045
 11
659.52500827076005
 21
581.26343862326371
  0
ARC
  8
_1-0_
  6
CONTINUOUS
 62
    7
 10
661.52500827076005
 20
794.14919216284045
 40
2
 50
90
 51
180
  0
LINE
  8
_1-0_
  6
CONTINUOUS
 62
    7
 10
668.52500827076005
 20
796.14919216284045
 11
661.52500827076005
 21
796.14919216284045
  0
LINE
  8
_1-0_
  6
CONTINUOUS
 62
    7
 10
670.52500827076005
 20
794.14919216284045
 11
670.52500827076005
 21
581.26343862326371
  0
ARC
  8
_1-0_
  6
CONTINUOUS
 62
    7
 10
668.52500827076005
 20
794.14919216284045
 40
2
 50
0
 51
90
  0
LINE
  8
_1-0_
  6
CONTINUOUS
 62
    7
 10
671.52500827076005
 20
794.14919216284045
 11
671.52500827076005
 21
581.26343862326371
  0
ARC
  8
_1-0_
  6
CONTINUOUS
 62
    7
 10
673.52500827076005
 20
794.14919216284045
 40
2
 50
90
 51
180
  0
LINE
  8
_1-0_
  6
CONTINUOUS
 62
    7
 10
680.52500827076005
 20
796.14919216284045
 11
673.52500827076005
 21
796.14919216284045
  0
LINE
  8
_1-0_
  6
CONTINUOUS
 62
    7
 10
682.52500827076005
 20
794.14919216284045
 11
682.52500827076005
 21
581.26343862326371
  0
ARC
  8
_1-0_
  6
CONTINUOUS
 62
    7
 10
680.52500827076005
 20
794.14919216284045
 40
2
 50
0
 51
90
  0
LINE
  8
_1-0_
  6
CONTINUOUS
 62
    7
 10
503.52500827076005
 20
794.07841530620613
 11
503.52500827076005
 21
581.26343862326371
  0
LINE
  8
_1-0_
  6
CONTINUOUS
 62
    7
 10
502.44990664346358
 20
581.26343862326371
 11
502.44990664346358
 21
581.72234156464174
  0
ARC
  8
_1-0_
  6
CONTINUOUS
 62
    7
 10
500.44990664346358
 20
581.26343862326371
 40
2
 50
270
 51
0
  0
LINE
  8
_1-0_
  6
CONTINUOUS
 62
    7
 10
477.05246264056302
 20
579.26343862326371
 11
500.44990664346358
 21
579.26343862326371
  0
ARC
  8
_1-0_
  6
CONTINUOUS
 62
    7
 10
477.05246264056302
 20
582.26343862326371
 40
3
 50
180
 51
270
  0
LINE
  8
_1-0_
  6
CONTINUOUS
 62
    7
 10
474.05246264056302
 20
793.1503143126638
 11
474.05246264056302
 21
582.26343862326371
  0
ARC
  8
_1-0_
  6
CONTINUOUS
 62
    7
 10
477.05246264056302
 20
793.1503143126638
 40
3
 50
90
 51
180
  0
LINE
  8
_1-0_
  6
CONTINUOUS
 62
    7
 10
500.44990664346358
 20
796.1503143126638
 11
477.05246264056302
 21
796.1503143126638
  0
LINE
  8
_1-0_
  6
CONTINUOUS
 62
    7
 10
502.44990664346358
 20
794.1503143126638
 11
502.44990664346358
 21
581.72234156464174
  0
ARC
  8
_1-0_
  6
CONTINUOUS
 62
    7
 10
500.44990664346358
 20
794.1503143126638
 40
2
 50
0
 51
90
  0
ARC
  8
_1-0_
  6
CONTINUOUS
 62
    7
 10
486.89287012674095
 20
710.82812826605209
 40
2
 50
90
 51
180
  0
LINE
  8
_1-0_
  6
CONTINUOUS
 62
    7
 10
484.89287012674095
 20
664.82177905970286
 11
484.89287012674095
 21
710.82812826605209
  0
ARC
  8
_1-0_
  6
CONTINUOUS
 62
    7
 10
486.89287012674095
 20
664.82177905970286
 40
2
 50
180
 51
270
  0
LINE
  8
_1-0_
  6
CONTINUOUS
 62
    7
 10
489.03844528215222
 20
662.82177905970286
 11
486.89287012674095
 21
662.82177905970286
  0
LINE
  8
_1-0_
  6
CONTINUOUS
 62
    7
 10
489.03844528215222
 20
712.82812826605209
 11
486.89287012674095
 21
712.82812826605209
  0
ARC
  8
_1-0_
  6
CONTINUOUS
 62
    7
 10
489.03844528215222
 20
710.82812826605209
 40
2
 50
0
 51
90
  0
LINE
  8
_1-0_
  6
CONTINUOUS
 62
    7
 10
491.03844528215222
 20
710.82812826605209
 11
491.03844528215222
 21
713.55169893254208
  0
LINE
  8
_1-0_
  6
CONTINUOUS
 62
    7
 10
498.01429269335995
 20
709.52419155185555
 11
491.03844528215222
 21
713.55169893254208
  0
LINE
  8
_1-0_
  6
CONTINUOUS
 62
    7
 10
498.16302746750256
 20
666.1741600120838
 11
491.03844528215222
 21
662.0607805695081
  0
ARC
  8
_1-0_
  6
CONTINUOUS
 62
    7
 10
489.03844528215222
 20
664.82177905970286
 40
2
 50
270
 51
346.23535292029345
  0
ARC
  8
_1-0_
  6
CONTINUOUS
 62
    7
 10
489.03844528215222
 20
664.82177905970286
 40
2
 50
346.23535292029345
 51
0
  0
LINE
  8
_1-0_
  6
CONTINUOUS
 62
    7
 10
491.03844528215222
 20
664.82177905970286
 11
491.03844528215222
 21
662.0607805695081
  0
LINE
  8
_1-0_
  6
CONTINUOUS
 62
    7
 10
491.03844528215222
 20
710.82812826605209
 11
491.03844528215222
 21
662.0607805695081
  0
LINE
  8
_1-0_
  6
CONTINUOUS
 62
    7
 10
498.01429269335995
 20
579.26343862326371
 11
498.01429269335995
 21
796.1503143126638
  0
LINE
  8
_1-0_
  6
CONTINUOUS
 62
    7
 10
481.92228399646012
 20
579.26343862326371
 11
481.92228399646012
 21
796.1503143126638
  0
ARC
  8
_1-0_
  6
CONTINUOUS
 62
    7
 10
735.1880238404583
 20
791.26500647674368
 40
2
 50
90
 51
180
  0
LINE
  8
_1-0_
  6
CONTINUOUS
 62
    7
 10
742.78802384045821
 20
793.26500647674368
 11
735.1880238404583
 21
793.26500647674368
  0
ARC
  8
_1-0_
  6
CONTINUOUS
 62
    7
 10
742.78802384045821
 20
791.26500647674368
 40
2
 50
0
 51
90
  0
ARC
  8
_1-0_
  6
CONTINUOUS
 62
    7
 10
734.15761630230622
 20
792.16080513796373
 40
4
 50
90
 51
180
  0
LINE
  8
_1-0_
  6
CONTINUOUS
 62
    7
 10
835.94622474239623
 20
796.16080513796373
 11
734.15761630230622
 21
796.16080513796373
  0
ARC
  8
_1-0_
  6
CONTINUOUS
 62
    7
 10
835.94622474239623
 20
792.16080513796373
 40
4
 50
0
 51
90
  0
LINE
  8
_1-0_
  6
CONTINUOUS
 62
    7
 10
730.15761630230622
 20
583.25294779796354
 11
730.15761630230622
 21
792.16080513796373
  0
ARC
  8
_1-0_
  6
CONTINUOUS
 62
    7
 10
734.15761630230622
 20
583.25294779796354
 40
4
 50
180
 51
270
  0
LINE
  8
_1-0_
  6
CONTINUOUS
 62
    7
 10
839.94622474239623
 20
583.25294779796354
 11
839.94622474239623
 21
792.16080513796373
  0
LINE
  8
_1-0_
  6
CONTINUOUS
 62
    7
 10
835.94622474239623
 20
579.25294779796354
 11
734.15761630230622
 21
579.25294779796354
  0
ARC
  8
_1-0_
  6
CONTINUOUS
 62
    7
 10
835.94622474239623
 20
583.25294779796354
 40
4
 50
270
 51
0
  0
ARC
  8
_1-0_
  6
CONTINUOUS
 62
    7
 10
834.78802384045821
 20
584.14874646448357
 40
2
 50
270
 51
0
  0
LINE
  8
_1-0_
  6
CONTINUOUS
 62
    7
 10
827.1880238404583
 20
582.14874646448357
 11
834.78802384045821
 21
582.14874646448357
  0
ARC
  8
_1-0_
  6
CONTINUOUS
 62
    7
 10
827.1880238404583
 20
584.14874646448357
 40
2
 50
180
 51
270
  0
ARC
  8
_1-0_
  6
CONTINUOUS
 62
    7
 10
821.78802384045821
 20
584.14874646448357
 40
2
 50
270
 51
0
  0
LINE
  8
_1-0_
  6
CONTINUOUS
 62
    7
 10
814.1880238404583
 20
582.14874646448357
 11
821.78802384045821
 21
582.14874646448357
  0
ARC
  8
_1-0_
  6
CONTINUOUS
 62
    7
 10
814.1880238404583
 20
584.14874646448357
 40
2
 50
180
 51
270
  0
LINE
  8
_1-0_
  6
CONTINUOUS
 62
    7
 10
733.1880238404583
 20
584.14874646448357
 11
733.1880238404583
 21
791.26500647674368
  0
ARC
  8
_1-0_
  6
CONTINUOUS
 62
    7
 10
735.1880238404583
 20
584.14874646448357
 40
2
 50
180
 51
270
  0
LINE
  8
_1-0_
  6
CONTINUOUS
 62
    7
 10
744.78802384045821
 20
584.14874646448357
 11
744.78802384045821
 21
791.26500647674368
  0
LINE
  8
_1-0_
  6
CONTINUOUS
 62
    7
 10
742.78802384045821
 20
582.14874646448357
 11
735.1880238404583
 21
582.14874646448357
  0
ARC
  8
_1-0_
  6
CONTINUOUS
 62
    7
 10
742.78802384045821
 20
584.14874646448357
 40
2
 50
270
 51
0
  0
ARC
  8
_1-0_
  6
CONTINUOUS
 62
    7
 10
748.1880238404583
 20
584.14874646448357
 40
2
 50
180
 51
270
  0
LINE
  8
_1-0_
  6
CONTINUOUS
 62
    7
 10
755.78802384045821
 20
582.14874646448357
 11
748.1880238404583
 21
582.14874646448357
  0
ARC
  8
_1-0_
  6
CONTINUOUS
 62
    7
 10
755.78802384045821
 20
584.14874646448357
 40
2
 50
270
 51
0
  0
ARC
  8
_1-0_
  6
CONTINUOUS
 62
    7
 10
761.1880238404583
 20
584.14874646448357
 40
2
 50
180
 51
270
  0
LINE
  8
_1-0_
  6
CONTINUOUS
 62
    7
 10
768.78802384045821
 20
582.14874646448357
 11
761.1880238404583
 21
582.14874646448357
  0
ARC
  8
_1-0_
  6
CONTINUOUS
 62
    7
 10
768.78802384045821
 20
584.14874646448357
 40
2
 50
270
 51
0
  0
ARC
  8
_1-0_
  6
CONTINUOUS
 62
    7
 10
774.1880238404583
 20
584.14874646448357
 40
2
 50
180
 51
270
  0
LINE
  8
_1-0_
  6
CONTINUOUS
 62
    7
 10
781.78802384045821
 20
582.14874646448357
 11
774.1880238404583
 21
582.14874646448357
  0
ARC
  8
_1-0_
  6
CONTINUOUS
 62
    7
 10
781.78802384045821
 20
584.14874646448357
 40
2
 50
270
 51
0
  0
ARC
  8
_1-0_
  6
CONTINUOUS
 62
    7
 10
788.1880238404583
 20
584.14874646448357
 40
2
 50
180
 51
270
  0
LINE
  8
_1-0_
  6
CONTINUOUS
 62
    7
 10
795.78802384045821
 20
582.14874646448357
 11
788.1880238404583
 21
582.14874646448357
  0
ARC
  8
_1-0_
  6
CONTINUOUS
 62
    7
 10
795.78802384045821
 20
584.14874646448357
 40
2
 50
270
 51
0
  0
ARC
  8
_1-0_
  6
CONTINUOUS
 62
    7
 10
801.1880238404583
 20
584.14874646448357
 40
2
 50
180
 51
270
  0
LINE
  8
_1-0_
  6
CONTINUOUS
 62
    7
 10
808.78802384045821
 20
582.14874646448357
 11
801.1880238404583
 21
582.14874646448357
  0
ARC
  8
_1-0_
  6
CONTINUOUS
 62
    7
 10
808.78802384045821
 20
584.14874646448357
 40
2
 50
270
 51
0
  0
LINE
  8
_1-0_
  6
CONTINUOUS
 62
    7
 10
746.1880238404583
 20
791.26500647674368
 11
746.1880238404583
 21
584.14874646448357
  0
ARC
  8
_1-0_
  6
CONTINUOUS
 62
    7
 10
748.1880238404583
 20
791.26500647674368
 40
2
 50
90
 51
180
  0
LINE
  8
_1-0_
  6
CONTINUOUS
 62
    7
 10
755.78802384045821
 20
793.26500647674368
 11
748.1880238404583
 21
793.26500647674368
  0
LINE
  8
_1-0_
  6
CONTINUOUS
 62
    7
 10
757.78802384045821
 20
791.26500647674368
 11
757.78802384045821
 21
584.14874646448357
  0
ARC
  8
_1-0_
  6
CONTINUOUS
 62
    7
 10
755.78802384045821
 20
791.26500647674368
 40
2
 50
0
 51
90
  0
LINE
  8
_1-0_
  6
CONTINUOUS
 62
    7
 10
759.1880238404583
 20
791.26500647674368
 11
759.1880238404583
 21
584.14874646448357
  0
ARC
  8
_1-0_
  6
CONTINUOUS
 62
    7
 10
761.1880238404583
 20
791.26500647674368
 40
2
 50
90
 51
180
  0
LINE
  8
_1-0_
  6
CONTINUOUS
 62
    7
 10
768.78802384045821
 20
793.26500647674368
 11
761.1880238404583
 21
793.26500647674368
  0
LINE
  8
_1-0_
  6
CONTINUOUS
 62
    7
 10
770.78802384045821
 20
791.26500647674368
 11
770.78802384045821
 21
584.14874646448357
  0
ARC
  8
_1-0_
  6
CONTINUOUS
 62
    7
 10
768.78802384045821
 20
791.26500647674368
 40
2
 50
0
 51
90
  0
ARC
  8
_1-0_
  6
CONTINUOUS
 62
    7
 10
774.1880238404583
 20
791.26500647674368
 40
2
 50
90
 51
180
  0
LINE
  8
_1-0_
  6
CONTINUOUS
 62
    7
 10
781.78802384045821
 20
793.26500647674368
 11
774.1880238404583
 21
793.26500647674368
  0
ARC
  8
_1-0_
  6
CONTINUOUS
 62
    7
 10
781.78802384045821
 20
791.26500647674368
 40
2
 50
0
 51
90
  0
LINE
  8
_1-0_
  6
CONTINUOUS
 62
    7
 10
786.1880238404583
 20
791.26500647674368
 11
786.1880238404583
 21
584.14874646448357
  0
ARC
  8
_1-0_
  6
CONTINUOUS
 62
    7
 10
788.1880238404583
 20
791.26500647674368
 40
2
 50
90
 51
180
  0
LINE
  8
_1-0_
  6
CONTINUOUS
 62
    7
 10
795.78802384045821
 20
793.26500647674368
 11
788.1880238404583
 21
793.26500647674368
  0
LINE
  8
_1-0_
  6
CONTINUOUS
 62
    7
 10
797.78802384045821
 20
791.26500647674368
 11
797.78802384045821
 21
584.14874646448357
  0
ARC
  8
_1-0_
  6
CONTINUOUS
 62
    7
 10
795.78802384045821
 20
791.26500647674368
 40
2
 50
0
 51
90
  0
ARC
  8
_1-0_
  6
CONTINUOUS
 62
    7
 10
801.1880238404583
 20
791.26500647674368
 40
2
 50
90
 51
180
  0
LINE
  8
_1-0_
  6
CONTINUOUS
 62
    7
 10
808.78802384045821
 20
793.26500647674368
 11
801.1880238404583
 21
793.26500647674368
  0
LINE
  8
_1-0_
  6
CONTINUOUS
 62
    7
 10
810.78802384045821
 20
791.26500647674368
 11
810.78802384045821
 21
584.14874646448357
  0
ARC
  8
_1-0_
  6
CONTINUOUS
 62
    7
 10
808.78802384045821
 20
791.26500647674368
 40
2
 50
0
 51
90
  0
LINE
  8
_1-0_
  6
CONTINUOUS
 62
    7
 10
812.1880238404583
 20
791.26500647674368
 11
812.1880238404583
 21
584.14874646448357
  0
ARC
  8
_1-0_
  6
CONTINUOUS
 62
    7
 10
814.1880238404583
 20
791.26500647674368
 40
2
 50
90
 51
180
  0
LINE
  8
_1-0_
  6
CONTINUOUS
 62
    7
 10
821.78802384045821
 20
793.26500647674368
 11
814.1880238404583
 21
793.26500647674368
  0
LINE
  8
_1-0_
  6
CONTINUOUS
 62
    7
 10
823.78802384045821
 20
791.26500647674368
 11
823.78802384045821
 21
584.14874646448357
  0
ARC
  8
_1-0_
  6
CONTINUOUS
 62
    7
 10
821.78802384045821
 20
791.26500647674368
 40
2
 50
0
 51
90
  0
ARC
  8
_1-0_
  6
CONTINUOUS
 62
    7
 10
827.1880238404583
 20
791.26500647674368
 40
2
 50
90
 51
180
  0
LINE
  8
_1-0_
  6
CONTINUOUS
 62
    7
 10
834.78802384045821
 20
793.26500647674368
 11
827.1880238404583
 21
793.26500647674368
  0
ARC
  8
_1-0_
  6
CONTINUOUS
 62
    7
 10
834.78802384045821
 20
791.26500647674368
 40
2
 50
0
 51
90
  0
LINE
  8
_1-0_
  6
CONTINUOUS
 62
    7
 10
836.78802384045821
 20
791.26500647674368
 11
836.78802384045821
 21
614.38914706014498
  0
LINE
  8
_1-0_
  6
CONTINUOUS
 62
    7
 10
836.78802384045821
 20
614.38914706014498
 11
836.78802384045821
 21
584.14874646448357
  0
LINE
  8
_1-0_
  6
CONTINUOUS
 62
    7
 10
836.78802384045821
 20
614.75187099496372
 11
834.85902272560179
 21
614.75187099496372
  0
LINE
  8
_1-0_
  6
CONTINUOUS
 62
    7
 10
836.78802384045821
 20
589.49200022906348
 11
825.1880238404583
 21
589.49200022906348
  0
LINE
  8
_1-0_
  6
CONTINUOUS
 62
    7
 10
823.78802384045821
 20
589.49200022906348
 11
812.1880238404583
 21
589.49200022906348
  0
LINE
  8
_1-0_
  6
CONTINUOUS
 62
    7
 10
810.78802384045821
 20
589.49200022906348
 11
799.1880238404583
 21
589.49200022906348
  0
LINE
  8
_1-0_
  6
CONTINUOUS
 62
    7
 10
797.78802384045821
 20
589.49200022906348
 11
786.1880238404583
 21
589.49200022906348
  0
LINE
  8
_1-0_
  6
CONTINUOUS
 62
    7
 10
797.78802384045821
 20
597.87559249436379
 11
786.1880238404583
 21
597.87559249436379
  0
LINE
  8
_1-0_
  6
CONTINUOUS
 62
    7
 10
797.78802384045821
 20
596.56833052576383
 11
786.1880238404583
 21
596.56833052576383
  0
LINE
  8
_1-0_
  6
CONTINUOUS
 62
    7
 10
797.78802384045821
 20
593.20687646796353
 11
786.1880238404583
 21
593.20687646796353
  0
LINE
  8
_1-0_
  6
CONTINUOUS
 62
    7
 10
810.78802384045821
 20
597.87559249436379
 11
799.1880238404583
 21
597.87559249436379
  0
LINE
  8
_1-0_
  6
CONTINUOUS
 62
    7
 10
810.78802384045821
 20
596.56833052576383
 11
799.1880238404583
 21
596.56833052576383
  0
LINE
  8
_1-0_
  6
CONTINUOUS
 62
    7
 10
810.78802384045821
 20
593.20687646796353
 11
799.1880238404583
 21
593.20687646796353
  0
LINE
  8
_1-0_
  6
CONTINUOUS
 62
    7
 10
836.78802384045821
 20
597.87559249436379
 11
825.1880238404583
 21
597.87559249436379
  0
LINE
  8
_1-0_
  6
CONTINUOUS
 62
    7
 10
823.78802384045821
 20
597.87559249436379
 11
812.1880238404583
 21
597.87559249436379
  0
LINE
  8
_1-0_
  6
CONTINUOUS
 62
    7
 10
836.78802384045821
 20
596.56833052576383
 11
825.1880238404583
 21
596.56833052576383
  0
LINE
  8
_1-0_
  6
CONTINUOUS
 62
    7
 10
823.78802384045821
 20
596.56833052576383
 11
812.1880238404583
 21
596.56833052576383
  0
LINE
  8
_1-0_
  6
CONTINUOUS
 62
    7
 10
836.78802384045821
 20
593.20687646796353
 11
825.1880238404583
 21
593.20687646796353
  0
LINE
  8
_1-0_
  6
CONTINUOUS
 62
    7
 10
823.78802384045821
 20
593.20687646796353
 11
812.1880238404583
 21
593.20687646796353
  0
LINE
  8
_1-0_
  6
CONTINUOUS
 62
    7
 10
797.78802384045821
 20
610.20687646796353
 11
786.1880238404583
 21
610.20687646796353
  0
LINE
  8
_1-0_
  6
CONTINUOUS
 62
    7
 10
797.78802384045821
 20
614.75187099496372
 11
786.1880238404583
 21
614.75187099496372
  0
LINE
  8
_1-0_
  6
CONTINUOUS
 62
    7
 10
797.78802384045821
 20
616.01234095696373
 11
786.1880238404583
 21
616.01234095696373
  0
LINE
  8
_1-0_
  6
CONTINUOUS
 62
    7
 10
810.78802384045821
 20
616.01234095696373
 11
799.1880238404583
 21
616.01234095696373
  0
LINE
  8
_1-0_
  6
CONTINUOUS
 62
    7
 10
810.78802384045821
 20
614.75187099496372
 11
799.1880238404583
 21
614.75187099496372
  0
LINE
  8
_1-0_
  6
CONTINUOUS
 62
    7
 10
810.78802384045821
 20
610.20687646796353
 11
799.1880238404583
 21
610.20687646796353
  0
LINE
  8
_1-0_
  6
CONTINUOUS
 62
    7
 10
836.78802384045821
 20
610.20687646796353
 11
825.1880238404583
 21
610.20687646796353
  0
LINE
  8
_1-0_
  6
CONTINUOUS
 62
    7
 10
823.78802384045821
 20
610.20687646796353
 11
812.1880238404583
 21
610.20687646796353
  0
LINE
  8
_1-0_
  6
CONTINUOUS
 62
    7
 10
836.78802384045821
 20
614.75187099496372
 11
825.1880238404583
 21
614.75187099496372
  0
LINE
  8
_1-0_
  6
CONTINUOUS
 62
    7
 10
823.78802384045821
 20
614.75187099496372
 11
812.1880238404583
 21
614.75187099496372
  0
LINE
  8
_1-0_
  6
CONTINUOUS
 62
    7
 10
836.78802384045821
 20
616.01234095696373
 11
825.1880238404583
 21
616.01234095696373
  0
LINE
  8
_1-0_
  6
CONTINUOUS
 62
    7
 10
823.78802384045821
 20
616.01234095696373
 11
812.1880238404583
 21
616.01234095696373
  0
LINE
  8
_1-0_
  6
CONTINUOUS
 62
    7
 10
836.78802384045821
 20
628.20687646796353
 11
825.1880238404583
 21
628.20687646796353
  0
LINE
  8
_1-0_
  6
CONTINUOUS
 62
    7
 10
823.78802384045821
 20
628.20687646796353
 11
812.1880238404583
 21
628.20687646796353
  0
LINE
  8
_1-0_
  6
CONTINUOUS
 62
    7
 10
810.78802384045821
 20
628.20687646796353
 11
799.1880238404583
 21
628.20687646796353
  0
LINE
  8
_1-0_
  6
CONTINUOUS
 62
    7
 10
797.78802384045821
 20
628.20687646796353
 11
786.1880238404583
 21
628.20687646796353
  0
LINE
  8
_1-0_
  6
CONTINUOUS
 62
    7
 10
744.78802384045821
 20
589.49200022906348
 11
733.1880238404583
 21
589.49200022906348
  0
LINE
  8
_1-0_
  6
CONTINUOUS
 62
    7
 10
744.78802384045821
 20
593.20687646796353
 11
733.1880238404583
 21
593.20687646796353
  0
LINE
  8
_1-0_
  6
CONTINUOUS
 62
    7
 10
744.78802384045821
 20
596.56833052576383
 11
733.1880238404583
 21
596.56833052576383
  0
LINE
  8
_1-0_
  6
CONTINUOUS
 62
    7
 10
744.78802384045821
 20
597.87559249436379
 11
733.1880238404583
 21
597.87559249436379
  0
LINE
  8
_1-0_
  6
CONTINUOUS
 62
    7
 10
757.78802384045821
 20
589.49200022906348
 11
746.1880238404583
 21
589.49200022906348
  0
LINE
  8
_1-0_
  6
CONTINUOUS
 62
    7
 10
757.78802384045821
 20
593.20687646796353
 11
746.1880238404583
 21
593.20687646796353
  0
LINE
  8
_1-0_
  6
CONTINUOUS
 62
    7
 10
757.78802384045821
 20
596.56833052576383
 11
746.1880238404583
 21
596.56833052576383
  0
LINE
  8
_1-0_
  6
CONTINUOUS
 62
    7
 10
757.78802384045821
 20
597.87559249436379
 11
746.1880238404583
 21
597.87559249436379
  0
LINE
  8
_1-0_
  6
CONTINUOUS
 62
    7
 10
783.78802384045821
 20
597.87559249436379
 11
772.1880238404583
 21
597.87559249436379
  0
LINE
  8
_1-0_
  6
CONTINUOUS
 62
    7
 10
770.78802384045821
 20
597.87559249436379
 11
759.1880238404583
 21
597.87559249436379
  0
LINE
  8
_1-0_
  6
CONTINUOUS
 62
    7
 10
783.78802384045821
 20
596.56833052576383
 11
772.1880238404583
 21
596.56833052576383
  0
LINE
  8
_1-0_
  6
CONTINUOUS
 62
    7
 10
770.78802384045821
 20
596.56833052576383
 11
759.1880238404583
 21
596.56833052576383
  0
LINE
  8
_1-0_
  6
CONTINUOUS
 62
    7
 10
783.78802384045821
 20
593.20687646796353
 11
772.1880238404583
 21
593.20687646796353
  0
LINE
  8
_1-0_
  6
CONTINUOUS
 62
    7
 10
770.78802384045821
 20
593.20687646796353
 11
759.1880238404583
 21
593.20687646796353
  0
LINE
  8
_1-0_
  6
CONTINUOUS
 62
    7
 10
783.78802384045821
 20
589.49200022906348
 11
772.1880238404583
 21
589.49200022906348
  0
LINE
  8
_1-0_
  6
CONTINUOUS
 62
    7
 10
770.78802384045821
 20
589.49200022906348
 11
759.1880238404583
 21
589.49200022906348
  0
LINE
  8
_1-0_
  6
CONTINUOUS
 62
    7
 10
744.78802384045821
 20
610.20687646796353
 11
733.1880238404583
 21
610.20687646796353
  0
LINE
  8
_1-0_
  6
CONTINUOUS
 62
    7
 10
744.78802384045821
 20
616.01234095696373
 11
733.1880238404583
 21
616.01234095696373
  0
LINE
  8
_1-0_
  6
CONTINUOUS
 62
    7
 10
757.78802384045821
 20
614.75187099496372
 11
746.1880238404583
 21
614.75187099496372
  0
LINE
  8
_1-0_
  6
CONTINUOUS
 62
    7
 10
757.78802384045821
 20
616.01234095696373
 11
746.1880238404583
 21
616.01234095696373
  0
LINE
  8
_1-0_
  6
CONTINUOUS
 62
    7
 10
757.78802384045821
 20
610.20687646796353
 11
746.1880238404583
 21
610.20687646796353
  0
LINE
  8
_1-0_
  6
CONTINUOUS
 62
    7
 10
783.78802384045821
 20
610.20687646796353
 11
772.1880238404583
 21
610.20687646796353
  0
LINE
  8
_1-0_
  6
CONTINUOUS
 62
    7
 10
770.78802384045821
 20
610.20687646796353
 11
759.1880238404583
 21
610.20687646796353
  0
LINE
  8
_1-0_
  6
CONTINUOUS
 62
    7
 10
783.78802384045821
 20
614.75187099496372
 11
772.1880238404583
 21
614.75187099496372
  0
LINE
  8
_1-0_
  6
CONTINUOUS
 62
    7
 10
770.78802384045821
 20
614.75187099496372
 11
759.1880238404583
 21
614.75187099496372
  0
LINE
  8
_1-0_
  6
CONTINUOUS
 62
    7
 10
783.78802384045821
 20
616.01234095696373
 11
772.1880238404583
 21
616.01234095696373
  0
LINE
  8
_1-0_
  6
CONTINUOUS
 62
    7
 10
770.78802384045821
 20
616.01234095696373
 11
759.1880238404583
 21
616.01234095696373
  0
LINE
  8
_1-0_
  6
CONTINUOUS
 62
    7
 10
744.78802384045821
 20
628.20687646796353
 11
733.1880238404583
 21
628.20687646796353
  0
LINE
  8
_1-0_
  6
CONTINUOUS
 62
    7
 10
744.78802384045821
 20
632.89425224946376
 11
733.1880238404583
 21
632.89425224946376
  0
LINE
  8
_1-0_
  6
CONTINUOUS
 62
    7
 10
744.78802384045821
 20
634.11821676536363
 11
733.1880238404583
 21
634.11821676536363
  0
LINE
  8
_1-0_
  6
CONTINUOUS
 62
    7
 10
744.78802384045821
 20
646.20687646796375
 11
733.1880238404583
 21
646.20687646796375
  0
LINE
  8
_1-0_
  6
CONTINUOUS
 62
    7
 10
744.78802384045821
 20
650.99573464616367
 11
733.1880238404583
 21
650.99573464616367
  0
LINE
  8
_1-0_
  6
CONTINUOUS
 62
    7
 10
744.78802384045821
 20
652.19338370416369
 11
733.1880238404583
 21
652.19338370416369
  0
LINE
  8
_1-0_
  6
CONTINUOUS
 62
    7
 10
744.78802384045821
 20
664.20687646796364
 11
733.1880238404583
 21
664.20687646796364
  0
LINE
  8
_1-0_
  6
CONTINUOUS
 62
    7
 10
744.78802384045821
 20
669.05657322296372
 11
733.1880238404583
 21
669.05657322296372
  0
LINE
  8
_1-0_
  6
CONTINUOUS
 62
    7
 10
744.78802384045821
 20
670.23800240646381
 11
733.1880238404583
 21
670.23800240646381
  0
LINE
  8
_1-0_
  6
CONTINUOUS
 62
    7
 10
744.78802384045821
 20
682.20687646796364
 11
733.1880238404583
 21
682.20687646796364
  0
LINE
  8
_1-0_
  6
CONTINUOUS
 62
    7
 10
757.78802384045821
 20
628.20687646796353
 11
746.1880238404583
 21
628.20687646796353
  0
LINE
  8
_1-0_
  6
CONTINUOUS
 62
    7
 10
757.78802384045821
 20
632.89425224946376
 11
746.1880238404583
 21
632.89425224946376
  0
LINE
  8
_1-0_
  6
CONTINUOUS
 62
    7
 10
757.78802384045821
 20
634.11821676536363
 11
746.1880238404583
 21
634.11821676536363
  0
LINE
  8
_1-0_
  6
CONTINUOUS
 62
    7
 10
757.78802384045821
 20
646.20687646796375
 11
746.1880238404583
 21
646.20687646796375
  0
LINE
  8
_1-0_
  6
CONTINUOUS
 62
    7
 10
757.78802384045821
 20
650.99573464616367
 11
746.1880238404583
 21
650.99573464616367
  0
LINE
  8
_1-0_
  6
CONTINUOUS
 62
    7
 10
757.78802384045821
 20
652.19338370416369
 11
746.1880238404583
 21
652.19338370416369
  0
LINE
  8
_1-0_
  6
CONTINUOUS
 62
    7
 10
757.78802384045821
 20
664.20687646796364
 11
746.1880238404583
 21
664.20687646796364
  0
LINE
  8
_1-0_
  6
CONTINUOUS
 62
    7
 10
757.78802384045821
 20
669.05657322296372
 11
746.1880238404583
 21
669.05657322296372
  0
LINE
  8
_1-0_
  6
CONTINUOUS
 62
    7
 10
757.78802384045821
 20
670.23800240646381
 11
746.1880238404583
 21
670.23800240646381
  0
LINE
  8
_1-0_
  6
CONTINUOUS
 62
    7
 10
757.78802384045821
 20
682.20687646796364
 11
746.1880238404583
 21
682.20687646796364
  0
LINE
  8
_1-0_
  6
CONTINUOUS
 62
    7
 10
783.78802384045821
 20
628.20687646796353
 11
772.1880238404583
 21
628.20687646796353
  0
LINE
  8
_1-0_
  6
CONTINUOUS
 62
    7
 10
770.78802384045821
 20
628.20687646796353
 11
759.1880238404583
 21
628.20687646796353
  0
LINE
  8
_1-0_
  6
CONTINUOUS
 62
    7
 10
770.78802384045821
 20
634.11821676536363
 11
759.1880238404583
 21
634.11821676536363
  0
LINE
  8
_1-0_
  6
CONTINUOUS
 62
    7
 10
770.78802384045821
 20
632.89425224946376
 11
759.1880238404583
 21
632.89425224946376
  0
LINE
  8
_1-0_
  6
CONTINUOUS
 62
    7
 10
770.78802384045821
 20
646.20687646796375
 11
759.1880238404583
 21
646.20687646796375
  0
LINE
  8
_1-0_
  6
CONTINUOUS
 62
    7
 10
770.78802384045821
 20
650.99573464616367
 11
759.1880238404583
 21
650.99573464616367
  0
LINE
  8
_1-0_
  6
CONTINUOUS
 62
    7
 10
770.78802384045821
 20
652.19338370416369
 11
759.1880238404583
 21
652.19338370416369
  0
LINE
  8
_1-0_
  6
CONTINUOUS
 62
    7
 10
770.78802384045821
 20
664.20687646796364
 11
759.1880238404583
 21
664.20687646796364
  0
LINE
  8
_1-0_
  6
CONTINUOUS
 62
    7
 10
770.78802384045821
 20
669.05657322296372
 11
759.1880238404583
 21
669.05657322296372
  0
LINE
  8
_1-0_
  6
CONTINUOUS
 62
    7
 10
770.78802384045821
 20
670.23800240646381
 11
759.1880238404583
 21
670.23800240646381
  0
LINE
  8
_1-0_
  6
CONTINUOUS
 62
    7
 10
770.78802384045821
 20
682.20687646796364
 11
759.1880238404583
 21
682.20687646796364
  0
LINE
  8
_1-0_
  6
CONTINUOUS
 62
    7
 10
783.78802384045821
 20
632.89425224946376
 11
772.1880238404583
 21
632.89425224946376
  0
LINE
  8
_1-0_
  6
CONTINUOUS
 62
    7
 10
783.78802384045821
 20
634.11821676536363
 11
772.1880238404583
 21
634.11821676536363
  0
LINE
  8
_1-0_
  6
CONTINUOUS
 62
    7
 10
783.78802384045821
 20
646.20687646796375
 11
772.1880238404583
 21
646.20687646796375
  0
LINE
  8
_1-0_
  6
CONTINUOUS
 62
    7
 10
783.78802384045821
 20
650.99573464616367
 11
772.1880238404583
 21
650.99573464616367
  0
LINE
  8
_1-0_
  6
CONTINUOUS
 62
    7
 10
783.78802384045821
 20
652.19338370416369
 11
772.1880238404583
 21
652.19338370416369
  0
LINE
  8
_1-0_
  6
CONTINUOUS
 62
    7
 10
783.78802384045821
 20
664.20687646796364
 11
772.1880238404583
 21
664.20687646796364
  0
LINE
  8
_1-0_
  6
CONTINUOUS
 62
    7
 10
783.78802384045821
 20
669.05657322296372
 11
772.1880238404583
 21
669.05657322296372
  0
LINE
  8
_1-0_
  6
CONTINUOUS
 62
    7
 10
783.78802384045821
 20
670.23800240646381
 11
772.1880238404583
 21
670.23800240646381
  0
LINE
  8
_1-0_
  6
CONTINUOUS
 62
    7
 10
783.78802384045821
 20
682.20687646796364
 11
772.1880238404583
 21
682.20687646796364
  0
LINE
  8
_1-0_
  6
CONTINUOUS
 62
    7
 10
797.78802384045821
 20
632.89425224946376
 11
786.1880238404583
 21
632.89425224946376
  0
LINE
  8
_1-0_
  6
CONTINUOUS
 62
    7
 10
797.78802384045821
 20
634.11821676536363
 11
786.1880238404583
 21
634.11821676536363
  0
LINE
  8
_1-0_
  6
CONTINUOUS
 62
    7
 10
797.78802384045821
 20
646.20687646796375
 11
786.1880238404583
 21
646.20687646796375
  0
LINE
  8
_1-0_
  6
CONTINUOUS
 62
    7
 10
797.78802384045821
 20
650.99573464616367
 11
786.1880238404583
 21
650.99573464616367
  0
LINE
  8
_1-0_
  6
CONTINUOUS
 62
    7
 10
797.78802384045821
 20
652.19338370416369
 11
786.1880238404583
 21
652.19338370416369
  0
LINE
  8
_1-0_
  6
CONTINUOUS
 62
    7
 10
797.78802384045821
 20
664.20687646796364
 11
786.1880238404583
 21
664.20687646796364
  0
LINE
  8
_1-0_
  6
CONTINUOUS
 62
    7
 10
797.78802384045821
 20
669.05657322296372
 11
786.1880238404583
 21
669.05657322296372
  0
LINE
  8
_1-0_
  6
CONTINUOUS
 62
    7
 10
797.78802384045821
 20
670.23800240646381
 11
786.1880238404583
 21
670.23800240646381
  0
LINE
  8
_1-0_
  6
CONTINUOUS
 62
    7
 10
797.78802384045821
 20
682.20687646796364
 11
786.1880238404583
 21
682.20687646796364
  0
LINE
  8
_1-0_
  6
CONTINUOUS
 62
    7
 10
810.78802384045821
 20
632.89425224946376
 11
799.1880238404583
 21
632.89425224946376
  0
LINE
  8
_1-0_
  6
CONTINUOUS
 62
    7
 10
810.78802384045821
 20
634.11821676536363
 11
799.1880238404583
 21
634.11821676536363
  0
LINE
  8
_1-0_
  6
CONTINUOUS
 62
    7
 10
810.78802384045821
 20
646.20687646796375
 11
799.1880238404583
 21
646.20687646796375
  0
LINE
  8
_1-0_
  6
CONTINUOUS
 62
    7
 10
810.78802384045821
 20
650.99573464616367
 11
799.1880238404583
 21
650.99573464616367
  0
LINE
  8
_1-0_
  6
CONTINUOUS
 62
    7
 10
810.78802384045821
 20
652.19338370416369
 11
799.1880238404583
 21
652.19338370416369
  0
LINE
  8
_1-0_
  6
CONTINUOUS
 62
    7
 10
810.78802384045821
 20
664.20687646796364
 11
799.1880238404583
 21
664.20687646796364
  0
LINE
  8
_1-0_
  6
CONTINUOUS
 62
    7
 10
810.78802384045821
 20
669.05657322296372
 11
799.1880238404583
 21
669.05657322296372
  0
LINE
  8
_1-0_
  6
CONTINUOUS
 62
    7
 10
810.78802384045821
 20
670.23800240646381
 11
799.1880238404583
 21
670.23800240646381
  0
LINE
  8
_1-0_
  6
CONTINUOUS
 62
    7
 10
810.78802384045821
 20
682.20687646796364
 11
799.1880238404583
 21
682.20687646796364
  0
LINE
  8
_1-0_
  6
CONTINUOUS
 62
    7
 10
836.78802384045821
 20
632.89425224946376
 11
825.1880238404583
 21
632.89425224946376
  0
LINE
  8
_1-0_
  6
CONTINUOUS
 62
    7
 10
823.78802384045821
 20
632.89425224946376
 11
812.1880238404583
 21
632.89425224946376
  0
LINE
  8
_1-0_
  6
CONTINUOUS
 62
    7
 10
836.78802384045821
 20
634.11821676536363
 11
825.1880238404583
 21
634.11821676536363
  0
LINE
  8
_1-0_
  6
CONTINUOUS
 62
    7
 10
823.78802384045821
 20
634.11821676536363
 11
812.1880238404583
 21
634.11821676536363
  0
LINE
  8
_1-0_
  6
CONTINUOUS
 62
    7
 10
836.78802384045821
 20
646.20687646796375
 11
825.1880238404583
 21
646.20687646796375
  0
LINE
  8
_1-0_
  6
CONTINUOUS
 62
    7
 10
823.78802384045821
 20
646.20687646796375
 11
812.1880238404583
 21
646.20687646796375
  0
LINE
  8
_1-0_
  6
CONTINUOUS
 62
    7
 10
836.78802384045821
 20
650.99573464616367
 11
825.1880238404583
 21
650.99573464616367
  0
LINE
  8
_1-0_
  6
CONTINUOUS
 62
    7
 10
823.78802384045821
 20
650.99573464616367
 11
812.1880238404583
 21
650.99573464616367
  0
LINE
  8
_1-0_
  6
CONTINUOUS
 62
    7
 10
836.78802384045821
 20
652.19338370416369
 11
825.1880238404583
 21
652.19338370416369
  0
LINE
  8
_1-0_
  6
CONTINUOUS
 62
    7
 10
823.78802384045821
 20
652.19338370416369
 11
812.1880238404583
 21
652.19338370416369
  0
LINE
  8
_1-0_
  6
CONTINUOUS
 62
    7
 10
836.78802384045821
 20
664.20687646796364
 11
825.1880238404583
 21
664.20687646796364
  0
LINE
  8
_1-0_
  6
CONTINUOUS
 62
    7
 10
823.78802384045821
 20
664.20687646796364
 11
812.1880238404583
 21
664.20687646796364
  0
LINE
  8
_1-0_
  6
CONTINUOUS
 62
    7
 10
836.78802384045821
 20
669.05657322296372
 11
825.1880238404583
 21
669.05657322296372
  0
LINE
  8
_1-0_
  6
CONTINUOUS
 62
    7
 10
823.78802384045821
 20
669.05657322296372
 11
812.1880238404583
 21
669.05657322296372
  0
LINE
  8
_1-0_
  6
CONTINUOUS
 62
    7
 10
836.78802384045821
 20
670.23800240646381
 11
825.1880238404583
 21
670.23800240646381
  0
LINE
  8
_1-0_
  6
CONTINUOUS
 62
    7
 10
823.78802384045821
 20
670.23800240646381
 11
812.1880238404583
 21
670.23800240646381
  0
LINE
  8
_1-0_
  6
CONTINUOUS
 62
    7
 10
836.78802384045821
 20
682.20687646796364
 11
825.1880238404583
 21
682.20687646796364
  0
LINE
  8
_1-0_
  6
CONTINUOUS
 62
    7
 10
823.78802384045821
 20
682.20687646796364
 11
812.1880238404583
 21
682.20687646796364
  0
LINE
  8
_1-0_
  6
CONTINUOUS
 62
    7
 10
744.78802384045821
 20
687.07701763756347
 11
733.1880238404583
 21
687.07701763756347
  0
LINE
  8
_1-0_
  6
CONTINUOUS
 62
    7
 10
744.78802384045821
 20
688.25223019786358
 11
733.1880238404583
 21
688.25223019786358
  0
LINE
  8
_1-0_
  6
CONTINUOUS
 62
    7
 10
744.78802384045821
 20
700.20687646796364
 11
733.1880238404583
 21
700.20687646796364
  0
LINE
  8
_1-0_
  6
CONTINUOUS
 62
    7
 10
744.78802384045821
 20
705.05731171466391
 11
733.1880238404583
 21
705.05731171466391
  0
LINE
  8
_1-0_
  6
CONTINUOUS
 62
    7
 10
744.78802384045821
 20
706.2362207999638
 11
733.1880238404583
 21
706.2362207999638
  0
LINE
  8
_1-0_
  6
CONTINUOUS
 62
    7
 10
744.78802384045821
 20
718.20687646796364
 11
733.1880238404583
 21
718.20687646796364
  0
LINE
  8
_1-0_
  6
CONTINUOUS
 62
    7
 10
757.78802384045821
 20
700.20687646796364
 11
746.1880238404583
 21
700.20687646796364
  0
LINE
  8
_1-0_
  6
CONTINUOUS
 62
    7
 10
757.78802384045821
 20
688.25223019786358
 11
746.1880238404583
 21
688.25223019786358
  0
LINE
  8
_1-0_
  6
CONTINUOUS
 62
    7
 10
757.78802384045821
 20
687.07701763756347
 11
746.1880238404583
 21
687.07701763756347
  0
LINE
  8
_1-0_
  6
CONTINUOUS
 62
    7
 10
770.78802384045821
 20
687.07701763756347
 11
759.1880238404583
 21
687.07701763756347
  0
LINE
  8
_1-0_
  6
CONTINUOUS
 62
    7
 10
770.78802384045821
 20
688.25223019786358
 11
759.1880238404583
 21
688.25223019786358
  0
LINE
  8
_1-0_
  6
CONTINUOUS
 62
    7
 10
783.78802384045821
 20
687.07701763756347
 11
772.1880238404583
 21
687.07701763756347
  0
LINE
  8
_1-0_
  6
CONTINUOUS
 62
    7
 10
783.78802384045821
 20
688.25223019786358
 11
772.1880238404583
 21
688.25223019786358
  0
LINE
  8
_1-0_
  6
CONTINUOUS
 62
    7
 10
797.78802384045821
 20
687.07701763756347
 11
786.1880238404583
 21
687.07701763756347
  0
LINE
  8
_1-0_
  6
CONTINUOUS
 62
    7
 10
797.78802384045821
 20
688.25223019786358
 11
786.1880238404583
 21
688.25223019786358
  0
LINE
  8
_1-0_
  6
CONTINUOUS
 62
    7
 10
810.78802384045821
 20
687.07701763756347
 11
799.1880238404583
 21
687.07701763756347
  0
LINE
  8
_1-0_
  6
CONTINUOUS
 62
    7
 10
810.78802384045821
 20
688.25223019786358
 11
799.1880238404583
 21
688.25223019786358
  0
LINE
  8
_1-0_
  6
CONTINUOUS
 62
    7
 10
836.78802384045821
 20
687.07701763756347
 11
825.1880238404583
 21
687.07701763756347
  0
LINE
  8
_1-0_
  6
CONTINUOUS
 62
    7
 10
823.78802384045821
 20
687.07701763756347
 11
812.1880238404583
 21
687.07701763756347
  0
LINE
  8
_1-0_
  6
CONTINUOUS
 62
    7
 10
836.78802384045821
 20
688.25223019786358
 11
825.1880238404583
 21
688.25223019786358
  0
LINE
  8
_1-0_
  6
CONTINUOUS
 62
    7
 10
823.78802384045821
 20
688.25223019786358
 11
812.1880238404583
 21
688.25223019786358
  0
LINE
  8
_1-0_
  6
CONTINUOUS
 62
    7
 10
836.78802384045821
 20
700.20687646796364
 11
825.1880238404583
 21
700.20687646796364
  0
LINE
  8
_1-0_
  6
CONTINUOUS
 62
    7
 10
836.78802384045821
 20
705.05731171466391
 11
825.1880238404583
 21
705.05731171466391
  0
LINE
  8
_1-0_
  6
CONTINUOUS
 62
    7
 10
836.78802384045821
 20
706.2362207999638
 11
825.1880238404583
 21
706.2362207999638
  0
LINE
  8
_1-0_
  6
CONTINUOUS
 62
    7
 10
836.78802384045821
 20
718.20687646796364
 11
825.1880238404583
 21
718.20687646796364
  0
LINE
  8
_1-0_
  6
CONTINUOUS
 62
    7
 10
836.78802384045821
 20
722.99769465686347
 11
825.1880238404583
 21
722.99769465686347
  0
LINE
  8
_1-0_
  6
CONTINUOUS
 62
    7
 10
836.78802384045821
 20
724.19012518616364
 11
825.1880238404583
 21
724.19012518616364
  0
LINE
  8
_1-0_
  6
CONTINUOUS
 62
    7
 10
836.78802384045821
 20
736.20687646796364
 11
825.1880238404583
 21
736.20687646796364
  0
LINE
  8
_1-0_
  6
CONTINUOUS
 62
    7
 10
836.78802384045821
 20
740.89840009336365
 11
825.1880238404583
 21
740.89840009336365
  0
LINE
  8
_1-0_
  6
CONTINUOUS
 62
    7
 10
836.78802384045821
 20
742.11409081656359
 11
825.1880238404583
 21
742.11409081656359
  0
LINE
  8
_1-0_
  6
CONTINUOUS
 62
    7
 10
823.78802384045821
 20
742.11409081656359
 11
812.1880238404583
 21
742.11409081656359
  0
LINE
  8
_1-0_
  6
CONTINUOUS
 62
    7
 10
823.78802384045821
 20
740.89840009336365
 11
812.1880238404583
 21
740.89840009336365
  0
LINE
  8
_1-0_
  6
CONTINUOUS
 62
    7
 10
823.78802384045821
 20
736.20687646796364
 11
812.1880238404583
 21
736.20687646796364
  0
LINE
  8
_1-0_
  6
CONTINUOUS
 62
    7
 10
823.78802384045821
 20
724.19012518616364
 11
812.1880238404583
 21
724.19012518616364
  0
LINE
  8
_1-0_
  6
CONTINUOUS
 62
    7
 10
823.78802384045821
 20
722.99769465686347
 11
812.1880238404583
 21
722.99769465686347
  0
LINE
  8
_1-0_
  6
CONTINUOUS
 62
    7
 10
823.78802384045821
 20
718.20687646796364
 11
812.1880238404583
 21
718.20687646796364
  0
LINE
  8
_1-0_
  6
CONTINUOUS
 62
    7
 10
823.78802384045821
 20
706.2362207999638
 11
812.1880238404583
 21
706.2362207999638
  0
LINE
  8
_1-0_
  6
CONTINUOUS
 62
    7
 10
823.78802384045821
 20
705.05731171466391
 11
812.1880238404583
 21
705.05731171466391
  0
LINE
  8
_1-0_
  6
CONTINUOUS
 62
    7
 10
823.78802384045821
 20
700.20687646796364
 11
812.1880238404583
 21
700.20687646796364
  0
LINE
  8
_1-0_
  6
CONTINUOUS
 62
    7
 10
810.78802384045821
 20
700.20687646796364
 11
799.1880238404583
 21
700.20687646796364
  0
LINE
  8
_1-0_
  6
CONTINUOUS
 62
    7
 10
810.78802384045821
 20
705.05731171466391
 11
799.1880238404583
 21
705.05731171466391
  0
LINE
  8
_1-0_
  6
CONTINUOUS
 62
    7
 10
810.78802384045821
 20
706.2362207999638
 11
799.1880238404583
 21
706.2362207999638
  0
LINE
  8
_1-0_
  6
CONTINUOUS
 62
    7
 10
797.78802384045821
 20
700.20687646796364
 11
786.1880238404583
 21
700.20687646796364
  0
LINE
  8
_1-0_
  6
CONTINUOUS
 62
    7
 10
797.78802384045821
 20
705.05731171466391
 11
786.1880238404583
 21
705.05731171466391
  0
LINE
  8
_1-0_
  6
CONTINUOUS
 62
    7
 10
797.78802384045821
 20
706.2362207999638
 11
786.1880238404583
 21
706.2362207999638
  0
LINE
  8
_1-0_
  6
CONTINUOUS
 62
    7
 10
810.78802384045821
 20
718.20687646796364
 11
799.1880238404583
 21
718.20687646796364
  0
LINE
  8
_1-0_
  6
CONTINUOUS
 62
    7
 10
797.78802384045821
 20
718.20687646796364
 11
786.1880238404583
 21
718.20687646796364
  0
LINE
  8
_1-0_
  6
CONTINUOUS
 62
    7
 10
810.78802384045821
 20
722.99769465686347
 11
799.1880238404583
 21
722.99769465686347
  0
LINE
  8
_1-0_
  6
CONTINUOUS
 62
    7
 10
810.78802384045821
 20
724.19012518616364
 11
799.1880238404583
 21
724.19012518616364
  0
LINE
  8
_1-0_
  6
CONTINUOUS
 62
    7
 10
810.78802384045821
 20
736.20687646796364
 11
799.1880238404583
 21
736.20687646796364
  0
LINE
  8
_1-0_
  6
CONTINUOUS
 62
    7
 10
810.78802384045821
 20
740.89840009336365
 11
799.1880238404583
 21
740.89840009336365
  0
LINE
  8
_1-0_
  6
CONTINUOUS
 62
    7
 10
810.78802384045821
 20
742.11409081656359
 11
799.1880238404583
 21
742.11409081656359
  0
LINE
  8
_1-0_
  6
CONTINUOUS
 62
    7
 10
797.78802384045821
 20
742.11409081656359
 11
786.1880238404583
 21
742.11409081656359
  0
LINE
  8
_1-0_
  6
CONTINUOUS
 62
    7
 10
797.78802384045821
 20
740.89840009336365
 11
786.1880238404583
 21
740.89840009336365
  0
LINE
  8
_1-0_
  6
CONTINUOUS
 62
    7
 10
797.78802384045821
 20
736.20687646796364
 11
786.1880238404583
 21
736.20687646796364
  0
LINE
  8
_1-0_
  6
CONTINUOUS
 62
    7
 10
797.78802384045821
 20
724.19012518616364
 11
786.1880238404583
 21
724.19012518616364
  0
LINE
  8
_1-0_
  6
CONTINUOUS
 62
    7
 10
797.78802384045821
 20
722.99769465686347
 11
786.1880238404583
 21
722.99769465686347
  0
LINE
  8
_1-0_
  6
CONTINUOUS
 62
    7
 10
783.78802384045821
 20
700.20687646796364
 11
772.1880238404583
 21
700.20687646796364
  0
LINE
  8
_1-0_
  6
CONTINUOUS
 62
    7
 10
770.78802384045821
 20
700.20687646796364
 11
759.1880238404583
 21
700.20687646796364
  0
LINE
  8
_1-0_
  6
CONTINUOUS
 62
    7
 10
783.78802384045821
 20
705.05731171466391
 11
772.1880238404583
 21
705.05731171466391
  0
LINE
  8
_1-0_
  6
CONTINUOUS
 62
    7
 10
783.78802384045821
 20
706.2362207999638
 11
772.1880238404583
 21
706.2362207999638
  0
LINE
  8
_1-0_
  6
CONTINUOUS
 62
    7
 10
783.78802384045821
 20
718.20687646796364
 11
772.1880238404583
 21
718.20687646796364
  0
LINE
  8
_1-0_
  6
CONTINUOUS
 62
    7
 10
783.78802384045821
 20
722.99769465686347
 11
772.1880238404583
 21
722.99769465686347
  0
LINE
  8
_1-0_
  6
CONTINUOUS
 62
    7
 10
770.78802384045821
 20
722.99769465686347
 11
759.1880238404583
 21
722.99769465686347
  0
LINE
  8
_1-0_
  6
CONTINUOUS
 62
    7
 10
757.78802384045821
 20
722.99769465686347
 11
746.1880238404583
 21
722.99769465686347
  0
LINE
  8
_1-0_
  6
CONTINUOUS
 62
    7
 10
783.78802384045821
 20
724.19012518616364
 11
772.1880238404583
 21
724.19012518616364
  0
LINE
  8
_1-0_
  6
CONTINUOUS
 62
    7
 10
770.78802384045821
 20
724.19012518616364
 11
759.1880238404583
 21
724.19012518616364
  0
LINE
  8
_1-0_
  6
CONTINUOUS
 62
    7
 10
757.78802384045821
 20
724.19012518616364
 11
746.1880238404583
 21
724.19012518616364
  0
LINE
  8
_1-0_
  6
CONTINUOUS
 62
    7
 10
757.78802384045821
 20
736.20687646796364
 11
746.1880238404583
 21
736.20687646796364
  0
LINE
  8
_1-0_
  6
CONTINUOUS
 62
    7
 10
783.78802384045821
 20
736.20687646796364
 11
772.1880238404583
 21
736.20687646796364
  0
LINE
  8
_1-0_
  6
CONTINUOUS
 62
    7
 10
770.78802384045821
 20
736.20687646796364
 11
759.1880238404583
 21
736.20687646796364
  0
LINE
  8
_1-0_
  6
CONTINUOUS
 62
    7
 10
783.78802384045821
 20
740.89840009336365
 11
772.1880238404583
 21
740.89840009336365
  0
LINE
  8
_1-0_
  6
CONTINUOUS
 62
    7
 10
783.78802384045821
 20
742.11409081656359
 11
772.1880238404583
 21
742.11409081656359
  0
LINE
  8
_1-0_
  6
CONTINUOUS
 62
    7
 10
770.78802384045821
 20
740.89840009336365
 11
759.1880238404583
 21
740.89840009336365
  0
LINE
  8
_1-0_
  6
CONTINUOUS
 62
    7
 10
757.78802384045821
 20
740.89840009336365
 11
746.1880238404583
 21
740.89840009336365
  0
LINE
  8
_1-0_
  6
CONTINUOUS
 62
    7
 10
770.78802384045821
 20
742.11409081656359
 11
759.1880238404583
 21
742.11409081656359
  0
LINE
  8
_1-0_
  6
CONTINUOUS
 62
    7
 10
757.78802384045821
 20
742.11409081656359
 11
746.1880238404583
 21
742.11409081656359
  0
LINE
  8
_1-0_
  6
CONTINUOUS
 62
    7
 10
770.78802384045821
 20
718.20687646796364
 11
759.1880238404583
 21
718.20687646796364
  0
LINE
  8
_1-0_
  6
CONTINUOUS
 62
    7
 10
757.78802384045821
 20
718.20687646796364
 11
746.1880238404583
 21
718.20687646796364
  0
LINE
  8
_1-0_
  6
CONTINUOUS
 62
    7
 10
770.78802384045821
 20
706.2362207999638
 11
759.1880238404583
 21
706.2362207999638
  0
LINE
  8
_1-0_
  6
CONTINUOUS
 62
    7
 10
757.78802384045821
 20
706.2362207999638
 11
746.1880238404583
 21
706.2362207999638
  0
LINE
  8
_1-0_
  6
CONTINUOUS
 62
    7
 10
770.78802384045821
 20
705.05731171466391
 11
759.1880238404583
 21
705.05731171466391
  0
LINE
  8
_1-0_
  6
CONTINUOUS
 62
    7
 10
757.78802384045821
 20
705.05731171466391
 11
746.1880238404583
 21
705.05731171466391
  0
LINE
  8
_1-0_
  6
CONTINUOUS
 62
    7
 10
744.78802384045821
 20
722.99769465686347
 11
733.1880238404583
 21
722.99769465686347
  0
LINE
  8
_1-0_
  6
CONTINUOUS
 62
    7
 10
744.78802384045821
 20
724.19012518616364
 11
733.1880238404583
 21
724.19012518616364
  0
LINE
  8
_1-0_
  6
CONTINUOUS
 62
    7
 10
744.78802384045821
 20
736.20687646796364
 11
733.1880238404583
 21
736.20687646796364
  0
LINE
  8
_1-0_
  6
CONTINUOUS
 62
    7
 10
744.78802384045821
 20
740.89840009336365
 11
733.1880238404583
 21
740.89840009336365
  0
LINE
  8
_1-0_
  6
CONTINUOUS
 62
    7
 10
744.78802384045821
 20
742.11409081656359
 11
733.1880238404583
 21
742.11409081656359
  0
LINE
  8
_1-0_
  6
CONTINUOUS
 62
    7
 10
744.78802384045821
 20
754.20687646796364
 11
733.1880238404583
 21
754.20687646796364
  0
LINE
  8
_1-0_
  6
CONTINUOUS
 62
    7
 10
744.78802384045821
 20
758.75965671056383
 11
733.1880238404583
 21
758.75965671056383
  0
LINE
  8
_1-0_
  6
CONTINUOUS
 62
    7
 10
744.78802384045821
 20
760.00826215536347
 11
733.1880238404583
 21
760.00826215536347
  0
LINE
  8
_1-0_
  6
CONTINUOUS
 62
    7
 10
744.78802384045821
 20
772.20687646796364
 11
733.1880238404583
 21
772.20687646796364
  0
LINE
  8
_1-0_
  6
CONTINUOUS
 62
    7
 10
744.78802384045821
 20
777.8727808482638
 11
733.1880238404583
 21
777.8727808482638
  0
LINE
  8
_1-0_
  6
CONTINUOUS
 62
    7
 10
744.78802384045821
 20
785.92175270686391
 11
733.1880238404583
 21
785.92175270686391
  0
LINE
  8
_1-0_
  6
CONTINUOUS
 62
    7
 10
757.78802384045821
 20
785.92175270686391
 11
746.1880238404583
 21
785.92175270686391
  0
LINE
  8
_1-0_
  6
CONTINUOUS
 62
    7
 10
757.78802384045821
 20
777.8727808482638
 11
746.1880238404583
 21
777.8727808482638
  0
LINE
  8
_1-0_
  6
CONTINUOUS
 62
    7
 10
757.78802384045821
 20
772.20687646796364
 11
746.1880238404583
 21
772.20687646796364
  0
LINE
  8
_1-0_
  6
CONTINUOUS
 62
    7
 10
757.78802384045821
 20
760.00826215536347
 11
746.1880238404583
 21
760.00826215536347
  0
LINE
  8
_1-0_
  6
CONTINUOUS
 62
    7
 10
757.78802384045821
 20
758.75965671056383
 11
746.1880238404583
 21
758.75965671056383
  0
LINE
  8
_1-0_
  6
CONTINUOUS
 62
    7
 10
757.78802384045821
 20
754.20687646796364
 11
746.1880238404583
 21
754.20687646796364
  0
LINE
  8
_1-0_
  6
CONTINUOUS
 62
    7
 10
770.78802384045821
 20
754.20687646796364
 11
759.1880238404583
 21
754.20687646796364
  0
LINE
  8
_1-0_
  6
CONTINUOUS
 62
    7
 10
770.78802384045821
 20
758.75965671056383
 11
759.1880238404583
 21
758.75965671056383
  0
LINE
  8
_1-0_
  6
CONTINUOUS
 62
    7
 10
770.78802384045821
 20
760.00826215536347
 11
759.1880238404583
 21
760.00826215536347
  0
LINE
  8
_1-0_
  6
CONTINUOUS
 62
    7
 10
770.78802384045821
 20
772.20687646796364
 11
759.1880238404583
 21
772.20687646796364
  0
LINE
  8
_1-0_
  6
CONTINUOUS
 62
    7
 10
770.78802384045821
 20
777.8727808482638
 11
759.1880238404583
 21
777.8727808482638
  0
LINE
  8
_1-0_
  6
CONTINUOUS
 62
    7
 10
770.78802384045821
 20
785.92175270686391
 11
759.1880238404583
 21
785.92175270686391
  0
LINE
  8
_1-0_
  6
CONTINUOUS
 62
    7
 10
783.78802384045821
 20
785.92175270686391
 11
772.1880238404583
 21
785.92175270686391
  0
LINE
  8
_1-0_
  6
CONTINUOUS
 62
    7
 10
783.78802384045821
 20
777.8727808482638
 11
772.1880238404583
 21
777.8727808482638
  0
LINE
  8
_1-0_
  6
CONTINUOUS
 62
    7
 10
783.78802384045821
 20
772.20687646796364
 11
772.1880238404583
 21
772.20687646796364
  0
LINE
  8
_1-0_
  6
CONTINUOUS
 62
    7
 10
783.78802384045821
 20
760.00826215536347
 11
772.1880238404583
 21
760.00826215536347
  0
LINE
  8
_1-0_
  6
CONTINUOUS
 62
    7
 10
783.78802384045821
 20
758.75965671056383
 11
772.1880238404583
 21
758.75965671056383
  0
LINE
  8
_1-0_
  6
CONTINUOUS
 62
    7
 10
783.78802384045821
 20
754.20687646796364
 11
772.1880238404583
 21
754.20687646796364
  0
LINE
  8
_1-0_
  6
CONTINUOUS
 62
    7
 10
797.78802384045821
 20
754.20687646796364
 11
786.1880238404583
 21
754.20687646796364
  0
LINE
  8
_1-0_
  6
CONTINUOUS
 62
    7
 10
797.78802384045821
 20
772.20687646796364
 11
786.1880238404583
 21
772.20687646796364
  0
LINE
  8
_1-0_
  6
CONTINUOUS
 62
    7
 10
797.78802384045821
 20
777.8727808482638
 11
786.1880238404583
 21
777.8727808482638
  0
LINE
  8
_1-0_
  6
CONTINUOUS
 62
    7
 10
797.78802384045821
 20
785.92175270686391
 11
786.1880238404583
 21
785.92175270686391
  0
LINE
  8
_1-0_
  6
CONTINUOUS
 62
    7
 10
797.78802384045821
 20
760.00826215536347
 11
786.1880238404583
 21
760.00826215536347
  0
LINE
  8
_1-0_
  6
CONTINUOUS
 62
    7
 10
797.78802384045821
 20
758.75965671056383
 11
786.1880238404583
 21
758.75965671056383
  0
LINE
  8
_1-0_
  6
CONTINUOUS
 62
    7
 10
810.78802384045821
 20
754.20687646796364
 11
799.1880238404583
 21
754.20687646796364
  0
LINE
  8
_1-0_
  6
CONTINUOUS
 62
    7
 10
810.78802384045821
 20
758.75965671056383
 11
799.1880238404583
 21
758.75965671056383
  0
LINE
  8
_1-0_
  6
CONTINUOUS
 62
    7
 10
810.78802384045821
 20
760.00826215536347
 11
799.1880238404583
 21
760.00826215536347
  0
LINE
  8
_1-0_
  6
CONTINUOUS
 62
    7
 10
836.78802384045821
 20
758.75965671056383
 11
825.1880238404583
 21
758.75965671056383
  0
LINE
  8
_1-0_
  6
CONTINUOUS
 62
    7
 10
823.78802384045821
 20
758.75965671056383
 11
812.1880238404583
 21
758.75965671056383
  0
LINE
  8
_1-0_
  6
CONTINUOUS
 62
    7
 10
836.78802384045821
 20
760.00826215536347
 11
825.1880238404583
 21
760.00826215536347
  0
LINE
  8
_1-0_
  6
CONTINUOUS
 62
    7
 10
823.78802384045821
 20
760.00826215536347
 11
812.1880238404583
 21
760.00826215536347
  0
LINE
  8
_1-0_
  6
CONTINUOUS
 62
    7
 10
836.78802384045821
 20
754.20687646796364
 11
825.1880238404583
 21
754.20687646796364
  0
LINE
  8
_1-0_
  6
CONTINUOUS
 62
    7
 10
823.78802384045821
 20
754.20687646796364
 11
812.1880238404583
 21
754.20687646796364
  0
LINE
  8
_1-0_
  6
CONTINUOUS
 62
    7
 10
810.78802384045821
 20
772.20687646796364
 11
799.1880238404583
 21
772.20687646796364
  0
LINE
  8
_1-0_
  6
CONTINUOUS
 62
    7
 10
836.78802384045821
 20
772.20687646796364
 11
825.1880238404583
 21
772.20687646796364
  0
LINE
  8
_1-0_
  6
CONTINUOUS
 62
    7
 10
823.78802384045821
 20
772.20687646796364
 11
812.1880238404583
 21
772.20687646796364
  0
LINE
  8
_1-0_
  6
CONTINUOUS
 62
    7
 10
810.78802384045821
 20
777.8727808482638
 11
799.1880238404583
 21
777.8727808482638
  0
LINE
  8
_1-0_
  6
CONTINUOUS
 62
    7
 10
836.78802384045821
 20
777.8727808482638
 11
825.1880238404583
 21
777.8727808482638
  0
LINE
  8
_1-0_
  6
CONTINUOUS
 62
    7
 10
823.78802384045821
 20
777.8727808482638
 11
812.1880238404583
 21
777.8727808482638
  0
LINE
  8
_1-0_
  6
CONTINUOUS
 62
    7
 10
810.78802384045821
 20
785.92175270686391
 11
799.1880238404583
 21
785.92175270686391
  0
LINE
  8
_1-0_
  6
CONTINUOUS
 62
    7
 10
836.78802384045821
 20
785.92175270686391
 11
825.1880238404583
 21
785.92175270686391
  0
LINE
  8
_1-0_
  6
CONTINUOUS
 62
    7
 10
823.78802384045821
 20
785.92175270686391
 11
812.1880238404583
 21
785.92175270686391
  0
ARC
  8
_1-0_
  6
CONTINUOUS
 62
    7
 10
857.53875044335814
 20
581.30619701781472
 40
2
 50
180
 51
270
  0
LINE
  8
_1-0_
  6
CONTINUOUS
 62
    7
 10
888.49067918210812
 20
579.30619701781472
 11
857.53875044335814
 21
579.30619701781472
  0
ARC
  8
_1-0_
  6
CONTINUOUS
 62
    7
 10
888.49067918210812
 20
581.30619701781472
 40
2
 50
270
 51
0
  0
LINE
  8
_1-0_
  6
CONTINUOUS
 62
    7
 10
890.49067918210812
 20
794.09425473695853
 11
890.49067918210812
 21
581.30619701781472
  0
ARC
  8
_1-0_
  6
CONTINUOUS
 62
    7
 10
888.49067918210812
 20
794.09425473695853
 40
2
 50
0
 51
90
  0
LINE
  8
_1-0_
  6
CONTINUOUS
 62
    7
 10
855.53875044335814
 20
794.09425473695853
 11
855.53875044335814
 21
581.30619701781472
  0
LINE
  8
_1-0_
  6
CONTINUOUS
 62
    7
 10
857.53875044335814
 20
796.09425473695853
 11
888.49067918210812
 21
796.09425473695853
  0
ARC
  8
_1-0_
  6
CONTINUOUS
 62
    7
 10
857.53875044335814
 20
794.09425473695853
 40
2
 50
90
 51
180
  0
ARC
  8
_1-0_
  6
CONTINUOUS
 62
    7
 10
866.89744840305821
 20
781.62755441220816
 40
0.5
 50
270
 51
0
  0
LINE
  8
_1-0_
  6
CONTINUOUS
 62
    7
 10
867.39744840305821
 20
782.69808796906364
 11
867.39744840305821
 21
781.62755441220816
  0
ARC
  8
_1-0_
  6
CONTINUOUS
 62
    7
 10
866.89744840305821
 20
782.69808796906364
 40
0.5
 50
0
 51
90
  0
ARC
  8
_1-0_
  6
CONTINUOUS
 62
    7
 10
866.89744840305821
 20
592.71529183858217
 40
0.5
 50
270
 51
0
  0
LINE
  8
_1-0_
  6
CONTINUOUS
 62
    7
 10
867.39744840305821
 20
593.76326005758165
 11
867.39744840305821
 21
592.71529183858217
  0
ARC
  8
_1-0_
  6
CONTINUOUS
 62
    7
 10
866.89744840305821
 20
593.76326005758165
 40
0.5
 50
0
 51
90
  0
ARC
  8
_1-0_
  6
CONTINUOUS
 62
    7
 10
866.89744840305821
 20
606.06094877230043
 40
0.5
 50
270
 51
0
  0
LINE
  8
_1-0_
  6
CONTINUOUS
 62
    7
 10
867.39744840305821
 20
607.29610296935778
 11
867.39744840305821
 21
606.06094877230043
  0
ARC
  8
_1-0_
  6
CONTINUOUS
 62
    7
 10
866.89744840305821
 20
607.29610296935778
 40
0.5
 50
0
 51
90
  0
ARC
  8
_1-0_
  6
CONTINUOUS
 62
    7
 10
866.89744840305821
 20
619.65633790546508
 40
0.5
 50
270
 51
0
  0
LINE
  8
_1-0_
  6
CONTINUOUS
 62
    7
 10
867.39744840305821
 20
620.70572929028719
 11
867.39744840305821
 21
619.65633790546508
  0
ARC
  8
_1-0_
  6
CONTINUOUS
 62
    7
 10
866.89744840305821
 20
620.70572929028719
 40
0.5
 50
0
 51
90
  0
ARC
  8
_1-0_
  6
CONTINUOUS
 62
    7
 10
860.67903021994016
 20
589.79778658555733
 40
0.5
 50
270
 51
0
  0
LINE
  8
_1-0_
  6
CONTINUOUS
 62
    7
 10
860.67903021994016
 20
589.29778658555733
 11
855.53875044335814
 21
589.29778658555733
  0
LINE
  8
_1-0_
  6
CONTINUOUS
 62
    7
 10
886.04384345075914
 20
579.84680939226359
 11
855.53875044335814
 21
588.02062442863291
  0
LINE
  8
_1-0_
  6
CONTINUOUS
 62
    7
 10
890.34419702235823
 20
581.89316456937013
 11
861.15657043885005
 21
589.71396554140233
  0
LINE
  8
_1-0_
  6
CONTINUOUS
 62
    7
 10
866.89744840305821
 20
592.21529183858217
 11
855.53875044335814
 21
592.21529183858217
  0
LINE
  8
_1-0_
  6
CONTINUOUS
 62
    7
 10
866.89744840305821
 20
594.26326005758165
 11
855.53875044335814
 21
594.26326005758165
  0
LINE
  8
_1-0_
  6
CONTINUOUS
 62
    7
 10
866.89744840305821
 20
605.56094877230043
 11
855.53875044335814
 21
605.56094877230043
  0
LINE
  8
_1-0_
  6
CONTINUOUS
 62
    7
 10
866.89744840305821
 20
607.79610296935778
 11
855.53875044335814
 21
607.79610296935778
  0
LINE
  8
_1-0_
  6
CONTINUOUS
 62
    7
 10
866.89744840305821
 20
619.15633790546508
 11
855.53875044335814
 21
619.15633790546508
  0
LINE
  8
_1-0_
  6
CONTINUOUS
 62
    7
 10
866.89744840305821
 20
621.20572929028719
 11
855.53875044335814
 21
621.20572929028719
  0
LINE
  8
_1-0_
  6
CONTINUOUS
 62
    7
 10
861.17903021994016
 20
589.79778658555733
 11
861.17903021994016
 21
592.21529183858217
  0
LINE
  8
_1-0_
  6
CONTINUOUS
 62
    7
 10
861.17903021994016
 20
594.26326005758165
 11
861.17903021994016
 21
605.56094877230043
  0
LINE
  8
_1-0_
  6
CONTINUOUS
 62
    7
 10
861.17903021994016
 20
607.79610296935778
 11
861.17903021994016
 21
619.15633790546508
  0
ARC
  8
_1-0_
  6
CONTINUOUS
 62
    7
 10
866.89744840305821
 20
646.24092542581161
 40
0.5
 50
270
 51
0
  0
LINE
  8
_1-0_
  6
CONTINUOUS
 62
    7
 10
867.39744840305821
 20
648.34498186320138
 11
867.39744840305821
 21
646.24092542581161
  0
ARC
  8
_1-0_
  6
CONTINUOUS
 62
    7
 10
866.89744840305821
 20
648.34498186320138
 40
0.5
 50
0
 51
90
  0
ARC
  8
_1-0_
  6
CONTINUOUS
 62
    7
 10
866.89744840305821
 20
659.88325346813986
 40
0.5
 50
270
 51
0
  0
LINE
  8
_1-0_
  6
CONTINUOUS
 62
    7
 10
867.39744840305821
 20
661.73898539053846
 11
867.39744840305821
 21
659.88325346813986
  0
ARC
  8
_1-0_
  6
CONTINUOUS
 62
    7
 10
866.89744840305821
 20
661.73898539053846
 40
0.5
 50
0
 51
90
  0
ARC
  8
_1-0_
  6
CONTINUOUS
 62
    7
 10
880.56073174360017
 20
634.68713353868645
 40
0.5
 50
0
 51
90
  0
LINE
  8
_1-0_
  6
CONTINUOUS
 62
    7
 10
881.06073174360017
 20
632.76932048753997
 11
881.06073174360017
 21
634.68713353868645
  0
ARC
  8
_1-0_
  6
CONTINUOUS
 62
    7
 10
880.56073174360017
 20
632.76932048753997
 40
0.5
 50
270
 51
0
  0
LINE
  8
_1-0_
  6
CONTINUOUS
 62
    7
 10
866.89744840305821
 20
662.23898539053846
 11
855.53875044335814
 21
662.23898539053846
  0
LINE
  8
_1-0_
  6
CONTINUOUS
 62
    7
 10
866.89744840305821
 20
659.38325346813986
 11
855.53875044335814
 21
659.38325346813986
  0
LINE
  8
_1-0_
  6
CONTINUOUS
 62
    7
 10
866.89744840305821
 20
648.84498186320138
 11
855.53875044335814
 21
648.84498186320138
  0
LINE
  8
_1-0_
  6
CONTINUOUS
 62
    7
 10
866.89744840305821
 20
645.74092542581161
 11
855.53875044335814
 21
645.74092542581161
  0
LINE
  8
_1-0_
  6
CONTINUOUS
 62
    7
 10
880.56073174360017
 20
635.18713353868645
 11
855.53875044335814
 21
635.18713353868645
  0
LINE
  8
_1-0_
  6
CONTINUOUS
 62
    7
 10
880.56073174360017
 20
632.26932048753997
 11
855.53875044335814
 21
632.26932048753997
  0
LINE
  8
_1-0_
  6
CONTINUOUS
 62
    7
 10
861.17903021994016
 20
621.20572929028719
 11
861.17903021994016
 21
632.26932048753997
  0
LINE
  8
_1-0_
  6
CONTINUOUS
 62
    7
 10
861.17903021994016
 20
635.18713353868645
 11
861.17903021994016
 21
645.74092542581161
  0
LINE
  8
_1-0_
  6
CONTINUOUS
 62
    7
 10
861.17903021994016
 20
648.84498186320138
 11
861.17903021994016
 21
659.38325346813986
  0
ARC
  8
_1-0_
  6
CONTINUOUS
 62
    7
 10
866.89744840305821
 20
673.60318292140266
 40
0.5
 50
270
 51
0
  0
LINE
  8
_1-0_
  6
CONTINUOUS
 62
    7
 10
867.39744840305821
 20
674.96226581381882
 11
867.39744840305821
 21
673.60318292140266
  0
ARC
  8
_1-0_
  6
CONTINUOUS
 62
    7
 10
866.89744840305821
 20
674.96226581381882
 40
0.5
 50
0
 51
90
  0
ARC
  8
_1-0_
  6
CONTINUOUS
 62
    7
 10
880.56073174360017
 20
686.77990249812206
 40
0.5
 50
270
 51
0
  0
ARC
  8
_1-0_
  6
CONTINUOUS
 62
    7
 10
880.56073174360017
 20
688.57390269419227
 40
0.5
 50
0
 51
90
  0
ARC
  8
_1-0_
  6
CONTINUOUS
 62
    7
 10
866.89744840305821
 20
700.68521034084415
 40
0.5
 50
270
 51
0
  0
LINE
  8
_1-0_
  6
CONTINUOUS
 62
    7
 10
867.39744840305821
 20
701.7349180954127
 11
867.39744840305821
 21
700.68521034084415
  0
ARC
  8
_1-0_
  6
CONTINUOUS
 62
    7
 10
866.89744840305821
 20
701.7349180954127
 40
0.5
 50
0
 51
90
  0
ARC
  8
_1-0_
  6
CONTINUOUS
 62
    7
 10
866.89744840305821
 20
714.0958083933632
 40
0.5
 50
270
 51
0
  0
LINE
  8
_1-0_
  6
CONTINUOUS
 62
    7
 10
867.39744840305821
 20
715.33202696538831
 11
867.39744840305821
 21
714.0958083933632
  0
ARC
  8
_1-0_
  6
CONTINUOUS
 62
    7
 10
866.89744840305821
 20
715.33202696538831
 40
0.5
 50
0
 51
90
  0
ARC
  8
_1-0_
  6
CONTINUOUS
 62
    7
 10
866.89744840305821
 20
727.76728949230323
 40
0.5
 50
270
 51
0
  0
LINE
  8
_1-0_
  6
CONTINUOUS
 62
    7
 10
867.39744840305821
 20
728.81046034575661
 11
867.39744840305821
 21
727.76728949230323
  0
ARC
  8
_1-0_
  6
CONTINUOUS
 62
    7
 10
866.89744840305821
 20
728.81046034575661
 40
0.5
 50
0
 51
90
  0
LINE
  8
_1-0_
  6
CONTINUOUS
 62
    7
 10
866.89744840305821
 20
702.2349180954127
 11
855.53875044335814
 21
702.2349180954127
  0
LINE
  8
_1-0_
  6
CONTINUOUS
 62
    7
 10
866.89744840305821
 20
700.18521034084415
 11
855.53875044335814
 21
700.18521034084415
  0
LINE
  8
_1-0_
  6
CONTINUOUS
 62
    7
 10
880.56073174360017
 20
689.07390269419227
 11
855.53875044335814
 21
689.07390269419227
  0
LINE
  8
_1-0_
  6
CONTINUOUS
 62
    7
 10
880.56073174360017
 20
686.27990249812206
 11
855.53875044335814
 21
686.27990249812206
  0
LINE
  8
_1-0_
  6
CONTINUOUS
 62
    7
 10
866.89744840305821
 20
675.46226581381882
 11
855.53875044335814
 21
675.46226581381882
  0
LINE
  8
_1-0_
  6
CONTINUOUS
 62
    7
 10
866.89744840305821
 20
673.10318292140266
 11
855.53875044335814
 21
673.10318292140266
  0
LINE
  8
_1-0_
  6
CONTINUOUS
 62
    7
 10
861.17903021994016
 20
662.23898539053846
 11
861.17903021994016
 21
673.10318292140266
  0
LINE
  8
_1-0_
  6
CONTINUOUS
 62
    7
 10
861.17903021994016
 20
675.46226581381882
 11
861.17903021994016
 21
686.27990249812206
  0
LINE
  8
_1-0_
  6
CONTINUOUS
 62
    7
 10
861.17903021994016
 20
689.07390269419227
 11
861.17903021994016
 21
700.18521034084415
  0
LINE
  8
_1-0_
  6
CONTINUOUS
 62
    7
 10
866.89744840305821
 20
729.31046034575661
 11
855.53875044335814
 21
729.31046034575661
  0
LINE
  8
_1-0_
  6
CONTINUOUS
 62
    7
 10
866.89744840305821
 20
727.26728949230323
 11
855.53875044335814
 21
727.26728949230323
  0
LINE
  8
_1-0_
  6
CONTINUOUS
 62
    7
 10
866.89744840305821
 20
715.83202696538831
 11
855.53875044335814
 21
715.83202696538831
  0
LINE
  8
_1-0_
  6
CONTINUOUS
 62
    7
 10
866.89744840305821
 20
713.5958083933632
 11
855.53875044335814
 21
713.5958083933632
  0
LINE
  8
_1-0_
  6
CONTINUOUS
 62
    7
 10
861.17903021994016
 20
702.2349180954127
 11
861.17903021994016
 21
713.5958083933632
  0
LINE
  8
_1-0_
  6
CONTINUOUS
 62
    7
 10
861.17903021994016
 20
715.83202696538831
 11
861.17903021994016
 21
727.26728949230323
  0
LINE
  8
_1-0_
  6
CONTINUOUS
 62
    7
 10
861.17903021994016
 20
729.31046034575661
 11
861.17903021994016
 21
740.60885448373961
  0
LINE
  8
_1-0_
  6
CONTINUOUS
 62
    7
 10
861.17903021994016
 20
742.71951036226778
 11
861.17903021994016
 21
754.01748538732886
  0
LINE
  8
_1-0_
  6
CONTINUOUS
 62
    7
 10
880.56073174360017
 20
742.71951036226778
 11
855.53875044335814
 21
742.71951036226778
  0
ARC
  8
_1-0_
  6
CONTINUOUS
 62
    7
 10
880.56073174360017
 20
742.21951036226778
 40
0.5
 50
0
 51
90
  0
LINE
  8
_1-0_
  6
CONTINUOUS
 62
    7
 10
880.56073174360017
 20
740.60885448373961
 11
855.53875044335814
 21
740.60885448373961
  0
LINE
  8
_1-0_
  6
CONTINUOUS
 62
    7
 10
881.06073174360017
 20
741.10885448373961
 11
881.06073174360017
 21
742.21951036226778
  0
ARC
  8
_1-0_
  6
CONTINUOUS
 62
    7
 10
880.56073174360017
 20
741.10885448373961
 40
0.5
 50
270
 51
0
  0
LINE
  8
_1-0_
  6
CONTINUOUS
 62
    7
 10
866.89744840305821
 20
754.01748538732886
 11
855.53875044335814
 21
754.01748538732886
  0
ARC
  8
_1-0_
  6
CONTINUOUS
 62
    7
 10
866.89744840305821
 20
754.51748538732886
 40
0.5
 50
270
 51
0
  0
LINE
  8
_1-0_
  6
CONTINUOUS
 62
    7
 10
866.89744840305821
 20
756.25425541281072
 11
855.53875044335814
 21
756.25425541281072
  0
LINE
  8
_1-0_
  6
CONTINUOUS
 62
    7
 10
867.39744840305821
 20
755.75425541281072
 11
867.39744840305821
 21
754.51748538732886
  0
ARC
  8
_1-0_
  6
CONTINUOUS
 62
    7
 10
866.89744840305821
 20
755.75425541281072
 40
0.5
 50
0
 51
90
  0
LINE
  8
_1-0_
  6
CONTINUOUS
 62
    7
 10
866.89744840305821
 20
769.744909701697
 11
855.53875044335814
 21
769.744909701697
  0
ARC
  8
_1-0_
  6
CONTINUOUS
 62
    7
 10
866.89744840305821
 20
769.244909701697
 40
0.5
 50
0
 51
90
  0
LINE
  8
_1-0_
  6
CONTINUOUS
 62
    7
 10
866.89744840305821
 20
767.50901269405938
 11
855.53875044335814
 21
767.50901269405938
  0
LINE
  8
_1-0_
  6
CONTINUOUS
 62
    7
 10
867.39744840305821
 20
768.00901269405938
 11
867.39744840305821
 21
769.244909701697
  0
ARC
  8
_1-0_
  6
CONTINUOUS
 62
    7
 10
866.89744840305821
 20
768.00901269405938
 40
0.5
 50
270
 51
0
  0
ARC
  8
_1-0_
  6
CONTINUOUS
 62
    7
 10
860.67903021994016
 20
785.84995379964118
 40
0.5
 50
0
 51
90
  0
LINE
  8
_1-0_
  6
CONTINUOUS
 62
    7
 10
866.89744840305821
 20
783.19808796906364
 11
855.53875044335814
 21
783.19808796906364
  0
LINE
  8
_1-0_
  6
CONTINUOUS
 62
    7
 10
866.89744840305821
 20
781.12755441220816
 11
855.53875044335814
 21
781.12755441220816
  0
LINE
  8
_1-0_
  6
CONTINUOUS
 62
    7
 10
890.49067918210812
 20
793.52239635531657
 11
861.22442774808064
 21
785.6805279180827
  0
LINE
  8
_1-0_
  6
CONTINUOUS
 62
    7
 10
886.04384347645828
 20
795.5669435436638
 11
855.53875044335814
 21
787.39312850040835
  0
LINE
  8
_1-0_
  6
CONTINUOUS
 62
    7
 10
860.67903021994016
 20
786.34995379964118
 11
855.53875044335814
 21
786.34995379964118
  0
LINE
  8
_1-0_
  6
CONTINUOUS
 62
    7
 10
861.17903021994016
 20
767.50901269405938
 11
861.17903021994016
 21
756.25425541281072
  0
LINE
  8
_1-0_
  6
CONTINUOUS
 62
    7
 10
861.17903021994016
 20
785.84995379964118
 11
861.17903021994016
 21
783.19808796906364
  0
LINE
  8
_1-0_
  6
CONTINUOUS
 62
    7
 10
861.17903021994016
 20
781.12755441220816
 11
861.17903021994016
 21
769.744909701697
  0
CIRCLE
  8
_1-0_
  6
CONTINUOUS
 62
    7
 10
870.98802384045825
 20
821.70687646796364
 40
6.1150434895444556
  0
CIRCLE
  8
_1-0_
  6
CONTINUOUS
 62
    7
 10
870.98802384045825
 20
553.70687646796364
 40
6.1150434895444556
  0
CIRCLE
  8
_1-0_
  6
CONTINUOUS
 62
    7
 10
477.98802384045871
 20
548.70687646796341
 40
6.1150434895444556
  0
CIRCLE
  8
_1-0_
  6
CONTINUOUS
 62
    7
 10
477.98802384045871
 20
826.70687646796364
 40
6.1150434895444556
  0
LINE
  8
_1-0_
  6
CONTINUOUS
 62
    7
 10
442.64015814322454
 20
844.95671551458952
 11
906.47273524270213
 21
844.95671551458952
  0
LINE
  8
_1-0_
  6
CONTINUOUS
 62
    7
 10
906.22443538999119
 20
530.44719545081557
 11
442.77490857416171
 21
530.44719545081557
  0
LINE
  8
_1-0_
  6
CONTINUOUS
 62
    7
 10
442.82617624395766
 20
530.44200969511019
 11
442.82617624395766
 21
844.93998994582557
  0
LINE
  8
_1-0_
  6
CONTINUOUS
 62
    7
 10
906.46990679774217
 20
845.02085268214216
 11
906.46990679774217
 21
530.45583791018623
  0
LINE
  8
_1-0_
  6
CONTINUOUS
 62
    7
 10
907.48802384045734
 20
516.70413553746391
 11
905.49076477095923
 21
514.70687646796341
  0
LINE
  8
_1-0_
  6
CONTINUOUS
 62
    7
 10
906.41427470014128
 20
530.46718185150166
 11
907.53605978985627
 21
517.28597014351544
  0
LINE
  8
_1-0_
  6
CONTINUOUS
 62
    7
 10
906.34824913162015
 20
844.95537111828696
 11
907.46476349355987
 21
858.36890665145199
  0
LINE
  8
_1-0_
  6
CONTINUOUS
 62
    7
 10
905.49076477095923
 20
860.70687646796353
 11
904.57799100678733
 21
856.50647278901818
  0
LINE
  8
_1-0_
  6
CONTINUOUS
 62
    7
 10
443.54925569662555
 20
860.64294499283164
 11
444.32402275281919
 21
854.16582023169917
  0
LINE
  8
_1-0_
  6
CONTINUOUS
 62
    7
 10
441.67915892583949
 20
859.24346831644539
 11
442.77490857630949
 21
844.96826724782738
  0
LINE
  8
_1-0_
  6
CONTINUOUS
 62
    7
 10
441.48802384045871
 20
516.70413553746391
 11
444.50246142359265
 21
514.88830329690654
  0
LINE
  8
_1-0_
  6
CONTINUOUS
 62
    7
 10
442.82617624395766
 20
530.44719545081557
 11
444.50246142359265
 21
514.88830329690654
  0
LINE
  8
_1-0_
  6
CONTINUOUS
 62
    7
 10
441.6674953962804
 20
516.70413553746391
 11
441.6674953962804
 21
860.68576244835879
  0
LINE
  8
_1-0_
  6
CONTINUOUS
 62
    7
 10
443.54925569662555
 20
860.64294499283164
 11
441.6674953962804
 21
859.38919564173079
  0
LINE
  8
_1-0_
  6
CONTINUOUS
 62
    7
 10
444.50246142359265
 20
860.68576244835879
 11
444.50246142359265
 21
514.88830329690654
  0
LINE
  8
_1-0_
  6
CONTINUOUS
 62
    7
 10
904.62153368956524
 20
859.1314152900635
 11
444.50246142359265
 21
859.1314152900635
  0
LINE
  8
_1-0_
  6
CONTINUOUS
 62
    7
 10
907.46170714461732
 20
860.68576244835879
 11
441.6674953962804
 21
860.68576244835879
  0
LINE
  8
_1-0_
  6
CONTINUOUS
 62
    7
 10
924.61221410765916
 20
695.50711546596744
 11
924.61221410765916
 21
602.7429105426213
  0
LINE
  8
_1-0_
  6
CONTINUOUS
 62
    7
 10
907.48802384045734
 20
599.90973361086367
 11
924.61221410765916
 21
602.7429105426213
  0
LINE
  8
_1-0_
  6
CONTINUOUS
 62
    7
 10
907.48802384045734
 20
698.50401932506384
 11
924.61221410765916
 21
695.50711546596744
  0
CIRCLE
  8
_1-0_
  6
CONTINUOUS
 62
    7
 10
1268.0521801907973
 20
1062.0990992442514
 40
54.962678114081683
  0
CIRCLE
  8
_1-0_
  6
CONTINUOUS
 62
    7
 10
1268.0521801907973
 20
1062.0990992442514
 40
52.291225848647336
  0
CIRCLE
  8
_1-0_
  6
CONTINUOUS
 62
    7
 10
1268.0521801907973
 20
1062.0990992442514
 40
45.428508019901571
  0
LINE
  8
_1-0_
  6
CONTINUOUS
 62
    7
 10
1293.2585449608455
 20
1024.3050717267515
 11
1242.8458154207492
 21
1024.3050717267515
  0
LINE
  8
_1-0_
  6
CONTINUOUS
 62
    7
 10
1289.9544481307678
 20
1022.2990992442514
 11
1246.1499122508269
 21
1022.2990992442514
  0
LINE
  8
_1-0_
  6
CONTINUOUS
 62
    7
 10
1223.5420995755983
 20
1068.4300352985513
 11
1312.5622608058982
 21
1068.4300352985513
  0
LINE
  8
_1-0_
  6
CONTINUOUS
 62
    7
 10
1223.3886303976972
 20
1067.2525769545514
 11
1312.7157299838982
 21
1067.2525769545514
  0
LINE
  8
_1-0_
  6
CONTINUOUS
 62
    7
 10
1223.8062696244983
 20
1070.0698922519514
 11
1312.2928816987971
 21
1070.0698922519514
  0
LINE
  8
_1-0_
  6
CONTINUOUS
 62
    7
 10
1241.8505362126673
 20
1079.1656879762099
 11
1294.7445948408872
 21
1079.1656879762099
  0
LINE
  8
_1-0_
  6
CONTINUOUS
 62
    7
 10
1245.4019258592973
 20
1080.8990992442514
 11
1290.9953155072972
 21
1080.8990992442514
  0
ARC
  8
_1-0_
  6
CONTINUOUS
 62
    7
 10
1268.231508960705
 20
1008.2203434037917
 40
75.766971675429488
 50
69.374324628954156
 51
110.44319311672399
  0
CIRCLE
  8
_1-0_
  6
CONTINUOUS
 62
    7
 10
1229.5066995075076
 20
1109.0164724215879
 40
3.9542316547664855
  0
CIRCLE
  8
_1-0_
  6
CONTINUOUS
 62
    7
 10
1306.5416201424282
 20
1109.0475129859617
 40
3.8570321323365593
  0
CIRCLE
  8
_1-0_
  6
CONTINUOUS
 62
    7
 10
1220.0897682905763
 20
1012.1582713633868
 40
3.9091397848210487
  0
CIRCLE
  8
_1-0_
  6
CONTINUOUS
 62
    7
 10
1239.893648361123
 20
994.40306854151731
 40
2.3761749705713053
  0
CIRCLE
  8
_1-0_
  6
CONTINUOUS
 62
    7
 10
1295.9839481847559
 20
994.45738952917156
 40
2.3045398024800949
  0
CIRCLE
  8
_1-0_
  6
CONTINUOUS
 62
    7
 10
1316.0361527702939
 20
1012.2746734797889
 40
3.8913529088984564
  0
CIRCLE
  8
_1-0_
  6
CONTINUOUS
 62
    7
 10
1328.5260998602412
 20
1032.2453965838454
 40
2.2909639890211633
  0
CIRCLE
  8
_1-0_
  6
CONTINUOUS
 62
    7
 10
1207.328216262358
 20
1032.1871955256443
 40
2.3354801819060746
  0
LINE
  8
_1-0_
  6
CONTINUOUS
 62
    7
 10
1223.1317026852973
 20
1060.2410119164513
 11
1312.9726576961973
 21
1060.2410119164513
  0
ARC
  8
_1-0_
  6
CONTINUOUS
 62
    7
 10
1220.0521801907973
 20
1007.0990992442516
 40
10
 50
180
 51
270
  0
LINE
  8
_1-0_
  6
CONTINUOUS
 62
    7
 10
1316.0521801907983
 20
997.09909924425165
 11
1220.0521801907973
 21
997.09909924425165
  0
ARC
  8
_1-0_
  6
CONTINUOUS
 62
    7
 10
1316.0521801907983
 20
1007.0990992442516
 40
10
 50
270
 51
0
  0
LINE
  8
_1-0_
  6
CONTINUOUS
 62
    7
 10
1326.0521801907983
 20
1108.0990992442516
 11
1326.0521801907983
 21
1007.0990992442516
  0
ARC
  8
_1-0_
  6
CONTINUOUS
 62
    7
 10
1316.0521801907983
 20
1108.0990992442516
 40
10
 50
0
 51
90
  0
LINE
  8
_1-0_
  6
CONTINUOUS
 62
    7
 10
1220.0521801907973
 20
1118.0990992442516
 11
1316.0521801907983
 21
1118.0990992442516
  0
LINE
  8
_1-0_
  6
CONTINUOUS
 62
    7
 10
1210.0521801907973
 20
1108.0990992442516
 11
1210.0521801907973
 21
1007.0990992442516
  0
ARC
  8
_1-0_
  6
CONTINUOUS
 62
    7
 10
1220.0521801907973
 20
1108.0990992442516
 40
10
 50
90
 51
180
  0
LINE
  8
_1-0_
  6
CONTINUOUS
 62
    7
 10
1358.9372627116975
 20
1118.6165489925515
 11
1364.0537648008983
 21
972.09909924425142
  0
LINE
  8
_1-0_
  6
CONTINUOUS
 62
    7
 10
1095.0505955805982
 20
972.09909924425142
 11
1100.1670976698001
 21
1118.6165489926025
  0
LINE
  8
_1-0_
  6
CONTINUOUS
 62
    7
 10
1100.6667930832973
 20
1119.0990992442514
 11
1358.4375672981973
 21
1119.0990992442514
  0
LINE
  8
_1-0_
  6
CONTINUOUS
 62
    7
 10
1356.5521801907973
 20
1120.0990992442514
 11
1356.5521801907973
 21
1118.9182328239654
  0
LINE
  8
_1-0_
  6
CONTINUOUS
 62
    7
 10
1356.5521801907973
 20
1120.0990992442514
 11
1102.5521801907973
 21
1120.0990992442514
  0
LINE
  8
_1-0_
  6
CONTINUOUS
 62
    7
 10
1109.7611971850972
 20
1122.5990992442516
 11
1116.1431631963983
 21
1122.5990992442516
  0
LINE
  8
_1-0_
  6
CONTINUOUS
 62
    7
 10
1108.9521801907983
 20
1121.5990992442514
 11
1109.3139835896045
 21
1122.3227060419663
  0
LINE
  8
_1-0_
  6
CONTINUOUS
 62
    7
 10
1109.3139835896045
 20
1122.3227060419663
 11
1109.7611971850972
 21
1122.5990992442516
  0
LINE
  8
_1-0_
  6
CONTINUOUS
 62
    7
 10
1116.9521801907983
 20
1121.5990992442514
 11
1116.5903767918658
 21
1122.3227060420163
  0
LINE
  8
_1-0_
  6
CONTINUOUS
 62
    7
 10
1116.5903767918658
 20
1122.3227060420163
 11
1116.1431631963983
 21
1122.5990992442516
  0
LINE
  8
_1-0_
  6
CONTINUOUS
 62
    7
 10
1345.0521801907973
 20
1121.5990992442514
 11
1345.4139835895771
 21
1122.3227060419613
  0
LINE
  8
_1-0_
  6
CONTINUOUS
 62
    7
 10
1345.8611971850971
 20
1122.5990992442516
 11
1345.4139835895799
 21
1122.3227060419667
  0
LINE
  8
_1-0_
  6
CONTINUOUS
 62
    7
 10
1353.0521801907973
 20
1121.5990992442514
 11
1352.6903767918659
 21
1122.3227060420159
  0
LINE
  8
_1-0_
  6
CONTINUOUS
 62
    7
 10
1352.6903767918659
 20
1122.3227060420159
 11
1352.2431631963982
 21
1122.5990992442514
  0
LINE
  8
_1-0_
  6
CONTINUOUS
 62
    7
 10
1057.2521801907983
 20
952.09909924425142
 11
1401.8521801907984
 21
952.09909924425142
  0
LINE
  8
_1-0_
  6
CONTINUOUS
 62
    7
 10
1369.2379890220973
 20
972.09909924425142
 11
1369.5521801907973
 21
952.09909924425153
  0
LINE
  8
_1-0_
  6
CONTINUOUS
 62
    7
 10
1367.0525594994983
 20
952.09909924425142
 11
1366.7383697841983
 21
972.09909924425142
  0
LINE
  8
_1-0_
  6
CONTINUOUS
 62
    7
 10
1089.5521801907973
 20
952.09909924425153
 11
1089.5521801907973
 21
972.09909924425142
  0
LINE
  8
_1-0_
  6
CONTINUOUS
 62
    7
 10
1092.0518008576973
 20
952.09909924425142
 11
1092.0518008576973
 21
972.09909924425142
  0
ARC
  8
_1-0_
  6
CONTINUOUS
 62
    7
 10
1229.5521801907935
 20
4826.0990992442639
 40
3900.0000000000123
 50
267.68836751750001
 51
272.3110726193006
  0
ARC
  8
_1-0_
  6
CONTINUOUS
 62
    7
 10
1386.0996653649147
 20
944.2525046576842
 40
14.86557199186573
 50
272.8949095797002
 51
348.93989310773065
  0
ARC
  8
_1-0_
  6
CONTINUOUS
 62
    7
 10
1384.1913867350645
 20
949.53004499396036
 40
18.391889878806637
 50
333.76803590036837
 51
3.3322753412280677
  0
ARC
  8
_1-0_
  6
CONTINUOUS
 62
    7
 10
1072.4243631275531
 20
944.16710441125701
 40
14.562333460753868
 50
190.95993772395519
 51
269.3643338046395
  0
ARC
  8
_1-0_
  6
CONTINUOUS
 62
    7
 10
1096.6092955111885
 20
953.55202955384846
 40
40.165809903504289
 50
184.21610389045642
 51
197.62213509214374
  0
LINE
  8
_1-0_
  6
CONTINUOUS
 62
    7
 10
1056.5521801907973
 20
950.59909924425165
 11
1057.2521801907983
 21
950.59909924425165
  0
LINE
  8
_1-0_
  6
CONTINUOUS
 62
    7
 10
1057.2521801907983
 20
950.59909924425165
 11
1057.2521801907983
 21
952.09909924425142
  0
LINE
  8
_1-0_
  6
CONTINUOUS
 62
    7
 10
1402.5521801907973
 20
950.5990992442521
 11
1401.8521801907973
 21
950.5990992442521
  0
LINE
  8
_1-0_
  6
CONTINUOUS
 62
    7
 10
1401.8521801907973
 20
950.59909924425165
 11
1401.8521801907973
 21
952.09909924425142
  0
LINE
  8
_1-0_
  6
CONTINUOUS
 62
    7
 10
1369.2379890220973
 20
972.09909924425142
 11
1359.463470457476
 21
972.09909924425142
  0
LINE
  8
_1-0_
  6
CONTINUOUS
 62
    7
 10
1354.7290947269973
 20
952.09909924425165
 11
1359.463470457476
 21
972.09909924425142
  0
LINE
  8
_1-0_
  6
CONTINUOUS
 62
    7
 10
1104.3752656544982
 20
952.09909924425165
 11
1099.580685250211
 21
972.09909924425142
  0
LINE
  8
_1-0_
  6
CONTINUOUS
 62
    7
 10
1089.5521801907973
 20
972.09909924425142
 11
1099.580685250211
 21
972.09909924425142
  0
LINE
  8
_1-0_
  6
CONTINUOUS
 62
    7
 10
1100.6667930832973
 20
1119.0990992442514
 11
1100.1670976698001
 21
1118.6165489926025
  0
LINE
  8
_1-0_
  6
CONTINUOUS
 62
    7
 10
1102.5521801907973
 20
1120.0990992442514
 11
1102.5521801907973
 21
1119.0990992442514
  0
LINE
  8
_1-0_
  6
CONTINUOUS
 62
    7
 10
1108.9521801907983
 20
1120.0990992442514
 11
1108.9521801907983
 21
1121.5990992442514
  0
LINE
  8
_1-0_
  6
CONTINUOUS
 62
    7
 10
1116.9521801907983
 20
1120.0990992442514
 11
1116.9521801907983
 21
1121.5990992442514
  0
LINE
  8
_1-0_
  6
CONTINUOUS
 62
    7
 10
1116.9521801907983
 20
1121.5990992442514
 11
1108.9521801907983
 21
1121.5990992442514
  0
LINE
  8
_1-0_
  6
CONTINUOUS
 62
    7
 10
1353.0521801907973
 20
1121.5990992442514
 11
1345.0521801907973
 21
1121.5990992442514
  0
LINE
  8
_1-0_
  6
CONTINUOUS
 62
    7
 10
1345.0521801907973
 20
1120.0990992442514
 11
1345.0521801907973
 21
1121.5990992442514
  0
LINE
  8
_1-0_
  6
CONTINUOUS
 62
    7
 10
1353.0521801907973
 20
1120.0990992442514
 11
1353.0521801907973
 21
1121.5990992442514
  0
LINE
  8
_1-0_
  6
CONTINUOUS
 62
    7
 10
1345.8611971850971
 20
1122.5990992442516
 11
1352.2431631963982
 21
1122.5990992442516
  0
CIRCLE
  8
_1-0_
  6
CONTINUOUS
 62
    7
 10
1276.3312664533091
 20
531.70687646796353
 40
2.5414174962044447
  0
LINE
  8
_1-0_
  6
CONTINUOUS
 62
    7
 10
904.62153368956524
 20
859.1314152900635
 11
904.62153368956524
 21
514.88830329690654
  0
LINE
  8
_1-0_
  6
CONTINUOUS
 62
    7
 10
444.50246142359265
 20
514.88830329690654
 11
905.49076477095923
 21
514.88830329690654
  0
LINE
  8
_1-0_
  6
CONTINUOUS
 62
    7
 10
907.46170714461732
 20
516.70413553746391
 11
907.46170714461732
 21
860.68576244835879
  0
LINE
  8
_1-0_
  6
CONTINUOUS
 62
    7
 10
444.50246142359265
 20
516.29003051771019
 11
907.07391882070408
 21
516.29003051771019
  0
LINE
  8
_1-0_
  6
CONTINUOUS
 62
    7
 10
1658.8312664533091
 20
517.20687646796387
 11
1658.8312664533091
 21
676.59544789653364
  0
ARC
  8
_1-0_
  6
CONTINUOUS
 62
    7
 10
1658.3312664533091
 20
517.20687646796387
 40
0.5
 50
270
 51
0
  0
LINE
  8
_1-0_
  6
CONTINUOUS
 62
    7
 10
1197.3312664533091
 20
516.70687646796387
 11
1658.3312664533091
 21
516.70687646796387
  0
ARC
  8
_1-0_
  6
CONTINUOUS
 62
    7
 10
1197.3312664533091
 20
517.20687646796387
 40
0.5
 50
180
 51
270
  0
LINE
  8
_1-0_
  6
CONTINUOUS
 62
    7
 10
1196.8312664533091
 20
858.20687646796387
 11
1196.8312664533091
 21
517.20687646796387
  0
ARC
  8
_1-0_
  6
CONTINUOUS
 62
    7
 10
1197.3312664533091
 20
858.20687646796387
 40
0.5
 50
90
 51
180
  0
LINE
  8
_1-0_
  6
CONTINUOUS
 62
    7
 10
1658.3312664533091
 20
858.70687646796387
 11
1197.3312664533091
 21
858.70687646796387
  0
LINE
  8
_1-0_
  6
CONTINUOUS
 62
    7
 10
1658.8312664533091
 20
858.20687646796387
 11
1658.8312664533091
 21
775.81830503939364
  0
ARC
  8
_1-0_
  6
CONTINUOUS
 62
    7
 10
1658.3312664533091
 20
858.20687646796387
 40
0.5
 50
0
 51
90
  0
LINE
  8
_1-0_
  6
CONTINUOUS
 62
    7
 10
1660.1312664533093
 20
858.00687646796348
 11
1660.1312664533093
 21
775.61401932510796
  0
ARC
  8
_1-0_
  6
CONTINUOUS
 62
    7
 10
1658.1312664533093
 20
858.00687646796348
 40
2
 50
0
 51
90
  0
LINE
  8
_1-0_
  6
CONTINUOUS
 62
    7
 10
1197.5312664533092
 20
860.00687646796348
 11
1658.1312664533093
 21
860.00687646796348
  0
ARC
  8
_1-0_
  6
CONTINUOUS
 62
    7
 10
1197.5312664533092
 20
858.00687646796348
 40
2
 50
90
 51
180
  0
LINE
  8
_1-0_
  6
CONTINUOUS
 62
    7
 10
1195.5312664533092
 20
517.40687646796334
 11
1195.5312664533092
 21
858.00687646796348
  0
ARC
  8
_1-0_
  6
CONTINUOUS
 62
    7
 10
1197.5312664533092
 20
517.40687646796334
 40
2
 50
180
 51
270
  0
LINE
  8
_1-0_
  6
CONTINUOUS
 62
    7
 10
1658.1312664533093
 20
515.40687646796334
 11
1197.5312664533092
 21
515.40687646796334
  0
LINE
  8
_1-0_
  6
CONTINUOUS
 62
    7
 10
1660.1312664533093
 20
517.40687646796334
 11
1660.1312664533093
 21
676.79973361081932
  0
ARC
  8
_1-0_
  6
CONTINUOUS
 62
    7
 10
1658.1312664533093
 20
517.40687646796334
 40
2
 50
270
 51
0
  0
LINE
  8
_1-0_
  6
CONTINUOUS
 62
    7
 10
1660.8312664533091
 20
516.70687646796398
 11
1660.8312664533091
 21
676.90973361081922
  0
ARC
  8
_1-0_
  6
CONTINUOUS
 62
    7
 10
1658.8312664533091
 20
516.70687646796398
 40
2
 50
270
 51
0
  0
LINE
  8
_1-0_
  6
CONTINUOUS
 62
    7
 10
1660.8312664533091
 20
858.70687646796387
 11
1660.8312664533091
 21
775.50401932510806
  0
ARC
  8
_1-0_
  6
CONTINUOUS
 62
    7
 10
1658.8312664533091
 20
858.70687646796387
 40
2
 50
0
 51
90
  0
LINE
  8
_1-0_
  6
CONTINUOUS
 62
    7
 10
1196.8312664533091
 20
860.70687646796387
 11
1658.8312664533091
 21
860.70687646796387
  0
ARC
  8
_1-0_
  6
CONTINUOUS
 62
    7
 10
1196.8312664533091
 20
858.70687646796387
 40
2
 50
90
 51
180
  0
LINE
  8
_1-0_
  6
CONTINUOUS
 62
    7
 10
1196.8312664533091
 20
514.70687646796398
 11
1658.8312664533091
 21
514.70687646796398
  0
LINE
  8
_1-0_
  6
CONTINUOUS
 62
    7
 10
1194.8312664533091
 20
516.70687646796398
 11
1194.8312664533091
 21
858.70687646796387
  0
ARC
  8
_1-0_
  6
CONTINUOUS
 62
    7
 10
1196.8312664533091
 20
516.70687646796398
 40
2
 50
180
 51
270
  0
ARC
  8
_1-0_
  6
CONTINUOUS
 62
    7
 10
1220.0760166119092
 20
539.75162662656362
 40
20
 50
180
 51
270
  0
ARC
  8
_1-0_
  6
CONTINUOUS
 62
    7
 10
1220.0760166119092
 20
835.66212630936377
 40
20
 50
90
 51
180
  0
LINE
  8
_1-0_
  6
CONTINUOUS
 62
    7
 10
1635.5865162947082
 20
855.66212630936377
 11
1220.0760166119092
 21
855.66212630936377
  0
ARC
  8
_1-0_
  6
CONTINUOUS
 62
    7
 10
1635.5865162947082
 20
835.66212630936377
 40
20
 50
0
 51
90
  0
LINE
  8
_1-0_
  6
CONTINUOUS
 62
    7
 10
1635.5865162947082
 20
519.75162662656362
 11
1220.0760166119092
 21
519.75162662656362
  0
ARC
  8
_1-0_
  6
CONTINUOUS
 62
    7
 10
1635.5865162947082
 20
539.75162662656362
 40
20
 50
270
 51
0
  0
CIRCLE
  8
_1-0_
  6
CONTINUOUS
 62
    7
 10
1427.8312664533091
 20
531.70687646796353
 40
2.5
  0
CIRCLE
  8
_1-0_
  6
CONTINUOUS
 62
    7
 10
1579.3312664533091
 20
531.70687646796353
 40
2.5
  0
CIRCLE
  8
_1-0_
  6
CONTINUOUS
 62
    7
 10
1579.3312664533091
 20
843.70687646796364
 40
2.5
  0
CIRCLE
  8
_1-0_
  6
CONTINUOUS
 62
    7
 10
1427.8312664533091
 20
843.70687646796364
 40
2.5
  0
CIRCLE
  8
_1-0_
  6
CONTINUOUS
 62
    7
 10
1276.3312664533091
 20
843.70687646796364
 40
2.5
  0
LINE
  8
_1-0_
  6
CONTINUOUS
 62
    7
 10
1200.0760166119092
 20
622.4068764679638
 11
1200.0760166119092
 21
539.75162662656362
  0
LINE
  8
_1-0_
  6
CONTINUOUS
 62
    7
 10
1200.0760166119092
 20
835.66212630936377
 11
1200.0760166119092
 21
653.40687646796368
  0
ARC
  8
_1-0_
  6
CONTINUOUS
 62
    7
 10
1199.4107164119373
 20
651.70622815071056
 40
1.7754300031582682
 50
106.68859495192882
 51
177.37905148912614
  0
ARC
  8
_1-0_
  6
CONTINUOUS
 62
    7
 10
1199.3710949438919
 20
624.05415903968151
 40
1.7341744746507848
 50
180.9192410258118
 51
251.22628511692812
  0
LINE
  8
_1-0_
  6
CONTINUOUS
 62
    7
 10
1241.6778972193101
 20
653.40687646796391
 11
1241.6778972193101
 21
622.4068764679638
  0
LINE
  8
_1-0_
  6
CONTINUOUS
 62
    7
 10
1241.2948749973093
 20
622.4068764679638
 11
1241.2948749973093
 21
653.40687646796391
  0
LINE
  8
_1-0_
  6
CONTINUOUS
 62
    7
 10
1197.6371436552433
 20
623.9681824576769
 11
1197.6371436552433
 21
651.7874154208173
  0
LINE
  8
_1-0_
  6
CONTINUOUS
 62
    7
 10
1253.1312664533082
 20
653.40687646796391
 11
1198.9008664368093
 21
653.40687646796391
  0
LINE
  8
_1-0_
  6
CONTINUOUS
 62
    7
 10
1254.122874431619
 20
622.4068764679638
 11
1198.8129831886033
 21
622.4068764679638
  0
LINE
  8
_1-0_
  6
CONTINUOUS
 62
    7
 10
1257.1312664533082
 20
622.69444090266347
 11
1254.1312664533082
 21
622.69444090266347
  0
CIRCLE
  8
_1-0_
  6
CONTINUOUS
 62
    7
 10
1248.6312664533082
 20
647.90687646796368
 40
1
  0
CIRCLE
  8
_1-0_
  6
CONTINUOUS
 62
    7
 10
1248.6312664533082
 20
647.90687646796368
 40
1.5
  0
CIRCLE
  8
_1-0_
  6
CONTINUOUS
 62
    7
 10
1248.6312664533082
 20
647.90687646796368
 40
1.75
  0
CIRCLE
  8
_1-0_
  6
CONTINUOUS
 62
    7
 10
1248.6312664533082
 20
637.90687646796357
 40
3.1909830055999464
  0
CIRCLE
  8
_1-0_
  6
CONTINUOUS
 62
    7
 10
1248.6312664533082
 20
637.90687646796357
 40
3.6381966010999349
  0
CIRCLE
  8
_1-0_
  6
CONTINUOUS
 62
    7
 10
1248.6312664533082
 20
637.90687646796357
 40
4
  0
CIRCLE
  8
_1-0_
  6
CONTINUOUS
 62
    7
 10
1248.6312664533082
 20
627.90687646796357
 40
1
  0
CIRCLE
  8
_1-0_
  6
CONTINUOUS
 62
    7
 10
1248.6312664533082
 20
627.90687646796357
 40
1.5
  0
CIRCLE
  8
_1-0_
  6
CONTINUOUS
 62
    7
 10
1248.6312664533082
 20
627.90687646796357
 40
1.75
  0
LINE
  8
_1-0_
  6
CONTINUOUS
 62
    7
 10
1248.1312664533082
 20
635.90687646796357
 11
1249.1312664533082
 21
635.90687646796357
  0
LINE
  8
_1-0_
  6
CONTINUOUS
 62
    7
 10
1248.1312664533082
 20
639.90687646796368
 11
1249.1312664533082
 21
639.90687646796368
  0
LINE
  8
_1-0_
  6
CONTINUOUS
 62
    7
 10
1250.6312664533082
 20
638.40687646796357
 11
1249.1312664533082
 21
638.40687646796357
  0
LINE
  8
_1-0_
  6
CONTINUOUS
 62
    7
 10
1248.1312664533082
 20
638.40687646796357
 11
1248.1312664533082
 21
639.90687646796368
  0
LINE
  8
_1-0_
  6
CONTINUOUS
 62
    7
 10
1249.1312664533082
 20
638.40687646796357
 11
1249.1312664533082
 21
639.90687646796368
  0
LINE
  8
_1-0_
  6
CONTINUOUS
 62
    7
 10
1248.1312664533082
 20
638.40687646796357
 11
1246.6312664533082
 21
638.40687646796357
  0
LINE
  8
_1-0_
  6
CONTINUOUS
 62
    7
 10
1246.6312664533082
 20
638.40687646796357
 11
1246.6312664533082
 21
637.40687646796368
  0
LINE
  8
_1-0_
  6
CONTINUOUS
 62
    7
 10
1246.6312664533082
 20
637.40687646796368
 11
1248.1312664533082
 21
637.40687646796368
  0
LINE
  8
_1-0_
  6
CONTINUOUS
 62
    7
 10
1249.1312664533082
 20
637.40687646796368
 11
1250.6312664533082
 21
637.40687646796368
  0
LINE
  8
_1-0_
  6
CONTINUOUS
 62
    7
 10
1249.1312664533082
 20
637.40687646796368
 11
1249.1312664533082
 21
635.90687646796357
  0
LINE
  8
_1-0_
  6
CONTINUOUS
 62
    7
 10
1248.1312664533082
 20
637.40687646796368
 11
1248.1312664533082
 21
635.90687646796357
  0
LINE
  8
_1-0_
  6
CONTINUOUS
 62
    7
 10
1250.6312664533082
 20
637.40687646796368
 11
1250.6312664533082
 21
638.40687646796357
  0
LINE
  8
_1-0_
  6
CONTINUOUS
 62
    7
 10
1244.6312664533082
 20
630.40687646796357
 11
1253.6312664533082
 21
630.40687646796357
  0
ARC
  8
_1-0_
  6
CONTINUOUS
 62
    7
 10
1244.6312664533082
 20
631.40687646796357
 40
1
 50
180
 51
270
  0
LINE
  8
_1-0_
  6
CONTINUOUS
 62
    7
 10
1244.6312664533082
 20
645.40687646796368
 11
1253.1312664533082
 21
645.40687646796368
  0
LINE
  8
_1-0_
  6
CONTINUOUS
 62
    7
 10
1243.6312664533082
 20
644.40687646796368
 11
1243.6312664533082
 21
631.40687646796357
  0
ARC
  8
_1-0_
  6
CONTINUOUS
 62
    7
 10
1244.6312664533082
 20
644.40687646796368
 40
1
 50
90
 51
180
  0
LINE
  8
_1-0_
  6
CONTINUOUS
 62
    7
 10
1229.3485691902092
 20
564.60051429256373
 11
1232.1310567873531
 21
564.60051429256373
  0
LINE
  8
_1-0_
  6
CONTINUOUS
 62
    7
 10
1247.2249042779092
 20
549.50687646796337
 11
1247.2249042779092
 21
546.77005560454063
  0
LINE
  8
_1-0_
  6
CONTINUOUS
 62
    7
 10
1232.1310567873531
 20
550.50687646796337
 11
1232.1310567873531
 21
564.60051429256373
  0
LINE
  8
_1-0_
  6
CONTINUOUS
 62
    7
 10
1233.1310567873531
 20
549.50687646796337
 11
1247.2249042779092
 21
549.50687646796337
  0
ARC
  8
_1-0_
  6
CONTINUOUS
 62
    7
 10
1233.1310567873531
 20
550.50687646796337
 40
1
 50
180
 51
270
  0
LINE
  8
_1-0_
  6
CONTINUOUS
 62
    7
 10
1229.4402971208492
 20
549.77005560454063
 11
1229.4402971208492
 21
564.47076905962945
  0
LINE
  8
_1-0_
  6
CONTINUOUS
 62
    7
 10
1232.4402971208492
 20
546.77005560454063
 11
1247.1600404567102
 21
546.77005560454063
  0
ARC
  8
_1-0_
  6
CONTINUOUS
 62
    7
 10
1232.4402971208492
 20
549.77005560454063
 40
3
 50
180
 51
270
  0
LINE
  8
_1-0_
  6
CONTINUOUS
 62
    7
 10
1416.1171205531093
 20
549.50687646796337
 11
1421.8312664533091
 21
549.50687646796337
  0
LINE
  8
_1-0_
  6
CONTINUOUS
 62
    7
 10
1421.8312664533091
 20
549.50687646796337
 11
1421.8312664533091
 21
551.83232581866366
  0
LINE
  8
_1-0_
  6
CONTINUOUS
 62
    7
 10
1421.8312664533091
 20
551.83232581866366
 11
1423.8312664533091
 21
551.83232581866366
  0
LINE
  8
_1-0_
  6
CONTINUOUS
 62
    7
 10
1423.8312664533091
 20
551.83232581866366
 11
1423.8312664533091
 21
549.50687646796337
  0
LINE
  8
_1-0_
  6
CONTINUOUS
 62
    7
 10
1423.8312664533091
 20
549.50687646796337
 11
1431.8312664533091
 21
549.50687646796337
  0
LINE
  8
_1-0_
  6
CONTINUOUS
 62
    7
 10
1431.8312664533091
 20
549.50687646796337
 11
1431.8312664533091
 21
551.83232581866366
  0
LINE
  8
_1-0_
  6
CONTINUOUS
 62
    7
 10
1431.8312664533091
 20
551.83232581866366
 11
1433.8312664533091
 21
551.83232581866366
  0
LINE
  8
_1-0_
  6
CONTINUOUS
 62
    7
 10
1433.8312664533091
 20
551.83232581866366
 11
1433.8312664533091
 21
549.50687646796337
  0
LINE
  8
_1-0_
  6
CONTINUOUS
 62
    7
 10
1433.8312664533091
 20
549.50687646796337
 11
1439.5454123536092
 21
549.50687646796337
  0
LINE
  8
_1-0_
  6
CONTINUOUS
 62
    7
 10
1439.5454123536092
 20
549.50687646796337
 11
1439.5454123536092
 21
547.70687646796353
  0
LINE
  8
_1-0_
  6
CONTINUOUS
 62
    7
 10
1439.5454123536092
 20
547.70687646796353
 11
1416.1171205531093
 21
547.70687646796353
  0
LINE
  8
_1-0_
  6
CONTINUOUS
 62
    7
 10
1416.1171205531093
 20
547.70687646796353
 11
1416.1171205531093
 21
549.50683058811774
  0
LINE
  8
_1-0_
  6
CONTINUOUS
 62
    7
 10
1626.3139637164081
 20
564.60051429256373
 11
1623.5314490568139
 21
564.60051429256373
  0
LINE
  8
_1-0_
  6
CONTINUOUS
 62
    7
 10
1608.4376286287093
 20
549.50687646796337
 11
1608.4376286287093
 21
546.74711895900623
  0
LINE
  8
_1-0_
  6
CONTINUOUS
 62
    7
 10
1623.3139637164081
 20
546.72417920486373
 11
1608.4376286287093
 21
546.72417920486373
  0
LINE
  8
_1-0_
  6
CONTINUOUS
 62
    7
 10
1626.3139637164081
 20
549.72417920486373
 11
1626.3139637164081
 21
564.60051429256373
  0
ARC
  8
_1-0_
  6
CONTINUOUS
 62
    7
 10
1623.3139637164081
 20
549.72417920486373
 40
3
 50
270
 51
0
  0
LINE
  8
_1-0_
  6
CONTINUOUS
 62
    7
 10
1623.5312664533094
 20
550.50677722842534
 11
1623.5312664533094
 21
564.60051429256373
  0
LINE
  8
_1-0_
  6
CONTINUOUS
 62
    7
 10
1622.5312664533094
 20
549.50677722842534
 11
1608.5565312358021
 21
549.50677722842534
  0
ARC
  8
_1-0_
  6
CONTINUOUS
 62
    7
 10
1622.5312664533094
 20
550.50677722842534
 40
1
 50
270
 51
0
  0
LINE
  8
_1-0_
  6
CONTINUOUS
 62
    7
 10
1230.3312664533091
 20
699.42102236826383
 11
1230.3312664533091
 21
675.99273056776372
  0
LINE
  8
_1-0_
  6
CONTINUOUS
 62
    7
 10
1230.3312664533091
 20
675.99273056776372
 11
1232.1312664533082
 21
675.99273056776372
  0
LINE
  8
_1-0_
  6
CONTINUOUS
 62
    7
 10
1232.1312664533082
 20
675.99273056776372
 11
1232.1312664533082
 21
682.04313381946338
  0
LINE
  8
_1-0_
  6
CONTINUOUS
 62
    7
 10
1232.1312664533082
 20
682.04313381946338
 11
1233.9567158040081
 21
682.04313381946338
  0
LINE
  8
_1-0_
  6
CONTINUOUS
 62
    7
 10
1233.9567158040081
 20
682.04313381946338
 11
1233.9567158040081
 21
684.04313381946338
  0
LINE
  8
_1-0_
  6
CONTINUOUS
 62
    7
 10
1233.9567158040081
 20
684.04313381946338
 11
1232.1312664533082
 21
684.04313381946338
  0
LINE
  8
_1-0_
  6
CONTINUOUS
 62
    7
 10
1232.1312664533082
 20
684.04313381946338
 11
1232.1312664533082
 21
692.04313381946338
  0
LINE
  8
_1-0_
  6
CONTINUOUS
 62
    7
 10
1232.1312664533082
 20
692.04313381946338
 11
1233.9567158040081
 21
692.04313381946338
  0
LINE
  8
_1-0_
  6
CONTINUOUS
 62
    7
 10
1233.9567158040081
 20
692.04313381946338
 11
1233.9567158040081
 21
694.04313381946338
  0
LINE
  8
_1-0_
  6
CONTINUOUS
 62
    7
 10
1233.9567158040081
 20
694.04313381946338
 11
1232.1312664533082
 21
694.04313381946338
  0
LINE
  8
_1-0_
  6
CONTINUOUS
 62
    7
 10
1232.1312664533082
 20
694.04313381946338
 11
1232.1312664533082
 21
699.42102236826383
  0
LINE
  8
_1-0_
  6
CONTINUOUS
 62
    7
 10
1232.1312664533082
 20
699.42102236826383
 11
1230.3312664533091
 21
699.42102236826383
  0
LINE
  8
_1-0_
  6
CONTINUOUS
 62
    7
 10
1232.1312664533082
 20
810.81323864336355
 11
1229.3485691902092
 21
810.81323864336355
  0
LINE
  8
_1-0_
  6
CONTINUOUS
 62
    7
 10
1247.2086890097412
 20
828.67810365970843
 11
1247.2086890097412
 21
825.90687646796368
  0
LINE
  8
_1-0_
  6
CONTINUOUS
 62
    7
 10
1233.1312664533082
 20
825.90687646796368
 11
1247.2249042779092
 21
825.90687646796368
  0
LINE
  8
_1-0_
  6
CONTINUOUS
 62
    7
 10
1232.1312664533082
 20
824.90687646796368
 11
1232.1312664533082
 21
810.81323864336355
  0
ARC
  8
_1-0_
  6
CONTINUOUS
 62
    7
 10
1233.1312664533082
 20
824.90687646796368
 40
1
 50
90
 51
180
  0
LINE
  8
_1-0_
  6
CONTINUOUS
 62
    7
 10
1232.3485691902092
 20
828.68957373106355
 11
1247.2249042779092
 21
828.68957373106355
  0
LINE
  8
_1-0_
  6
CONTINUOUS
 62
    7
 10
1229.3485691902092
 20
825.68957373106355
 11
1229.3485691902092
 21
810.81323864336355
  0
ARC
  8
_1-0_
  6
CONTINUOUS
 62
    7
 10
1232.3485691902092
 20
825.68957373106355
 40
3
 50
90
 51
180
  0
LINE
  8
_1-0_
  6
CONTINUOUS
 62
    7
 10
1416.1171205531093
 20
827.70687646796364
 11
1439.5454123536092
 21
827.70687646796364
  0
LINE
  8
_1-0_
  6
CONTINUOUS
 62
    7
 10
1416.1171205531093
 20
827.70687646796364
 11
1416.1171205531093
 21
825.90690223851266
  0
LINE
  8
_1-0_
  6
CONTINUOUS
 62
    7
 10
1439.5454123536092
 20
827.70687646796364
 11
1439.5454123536092
 21
825.90687646796368
  0
LINE
  8
_1-0_
  6
CONTINUOUS
 62
    7
 10
1433.8312664533091
 20
825.90687646796368
 11
1433.8312664533091
 21
823.5814271172635
  0
LINE
  8
_1-0_
  6
CONTINUOUS
 62
    7
 10
1433.8312664533091
 20
823.5814271172635
 11
1431.8312664533091
 21
823.5814271172635
  0
LINE
  8
_1-0_
  6
CONTINUOUS
 62
    7
 10
1431.8312664533091
 20
823.5814271172635
 11
1431.8312664533091
 21
825.90687646796368
  0
LINE
  8
_1-0_
  6
CONTINUOUS
 62
    7
 10
1421.8312664533091
 20
825.90687646796368
 11
1421.8312664533091
 21
823.5814271172635
  0
LINE
  8
_1-0_
  6
CONTINUOUS
 62
    7
 10
1423.8312664533091
 20
823.5814271172635
 11
1423.8312664533091
 21
825.90687646796368
  0
LINE
  8
_1-0_
  6
CONTINUOUS
 62
    7
 10
1423.8312664533091
 20
823.5814271172635
 11
1421.8312664533091
 21
823.5814271172635
  0
LINE
  8
_1-0_
  6
CONTINUOUS
 62
    7
 10
1439.4859610422582
 20
825.90692234783103
 11
1433.8312664533091
 21
825.90692234783103
  0
LINE
  8
_1-0_
  6
CONTINUOUS
 62
    7
 10
1431.8312664533091
 20
825.90692234783103
 11
1423.8312664533091
 21
825.90692234783103
  0
LINE
  8
_1-0_
  6
CONTINUOUS
 62
    7
 10
1421.8312664533091
 20
825.90692234783103
 11
1416.1171205531093
 21
825.90692234783103
  0
LINE
  8
_1-0_
  6
CONTINUOUS
 62
    7
 10
1608.4376286287093
 20
825.90687646796368
 11
1608.4376286287093
 21
828.59784580050393
  0
LINE
  8
_1-0_
  6
CONTINUOUS
 62
    7
 10
1623.5312664533094
 20
810.81323864336355
 11
1626.3139637164081
 21
810.81323864336355
  0
LINE
  8
_1-0_
  6
CONTINUOUS
 62
    7
 10
1623.3139637164081
 20
828.68957373106355
 11
1608.4376286287093
 21
828.68957373106355
  0
LINE
  8
_1-0_
  6
CONTINUOUS
 62
    7
 10
1626.3139637164081
 20
825.68957373106355
 11
1626.3139637164081
 21
810.81323864336355
  0
ARC
  8
_1-0_
  6
CONTINUOUS
 62
    7
 10
1623.3139637164081
 20
825.68957373106355
 40
3
 50
0
 51
90
  0
LINE
  8
_1-0_
  6
CONTINUOUS
 62
    7
 10
1622.5312664533094
 20
825.90687646796368
 11
1608.4376286287093
 21
825.90687646796368
  0
LINE
  8
_1-0_
  6
CONTINUOUS
 62
    7
 10
1623.5312664533094
 20
824.90687646796368
 11
1623.5312664533094
 21
810.81323864336355
  0
ARC
  8
_1-0_
  6
CONTINUOUS
 62
    7
 10
1622.5312664533094
 20
824.90687646796368
 40
1
 50
0
 51
90
  0
LINE
  8
_1-0_
  6
CONTINUOUS
 62
    7
 10
1617.3562664533083
 20
855.66212630936366
 11
1617.3562664533083
 21
850.40687646796368
  0
LINE
  8
_1-0_
  6
CONTINUOUS
 62
    7
 10
1617.3562664533083
 20
850.40687646796368
 11
1610.3562664533083
 21
850.40687646796368
  0
LINE
  8
_1-0_
  6
CONTINUOUS
 62
    7
 10
1610.3562664533083
 20
850.40687646796368
 11
1610.3562664533083
 21
855.66212630936366
  0
LINE
  8
_1-0_
  6
CONTINUOUS
 62
    7
 10
1462.2062664533091
 20
855.66212630936366
 11
1462.2062664533091
 21
850.40687646796368
  0
LINE
  8
_1-0_
  6
CONTINUOUS
 62
    7
 10
1462.2062664533091
 20
850.40687646796368
 11
1469.2062664533091
 21
850.40687646796368
  0
LINE
  8
_1-0_
  6
CONTINUOUS
 62
    7
 10
1469.2062664533091
 20
850.40687646796368
 11
1469.2062664533091
 21
855.66212630936366
  0
LINE
  8
_1-0_
  6
CONTINUOUS
 62
    7
 10
1462.2062664533091
 20
519.75162662656362
 11
1462.2062664533091
 21
525.00687646796359
  0
LINE
  8
_1-0_
  6
CONTINUOUS
 62
    7
 10
1462.2062664533091
 20
525.00687646796359
 11
1469.2062664533091
 21
525.00687646796359
  0
LINE
  8
_1-0_
  6
CONTINUOUS
 62
    7
 10
1469.2062664533091
 20
525.00687646796359
 11
1469.2062664533091
 21
519.75162662656362
  0
LINE
  8
_1-0_
  6
CONTINUOUS
 62
    7
 10
1617.3562664533083
 20
519.75162662656362
 11
1617.3562664533083
 21
525.00687646796359
  0
LINE
  8
_1-0_
  6
CONTINUOUS
 62
    7
 10
1617.3562664533083
 20
525.00687646796359
 11
1610.3562664533083
 21
525.00687646796359
  0
LINE
  8
_1-0_
  6
CONTINUOUS
 62
    7
 10
1610.3562664533083
 20
525.00687646796359
 11
1610.3562664533083
 21
519.75162662656362
  0
LINE
  8
_1-0_
  6
CONTINUOUS
 62
    7
 10
1646.1312664533093
 20
589.70687646796353
 11
1652.7561888128093
 21
589.70687646796353
  0
LINE
  8
_1-0_
  6
CONTINUOUS
 62
    7
 10
1652.7561888128093
 20
600.70687646796364
 11
1646.1312664533093
 21
600.70687646796364
  0
LINE
  8
_1-0_
  6
CONTINUOUS
 62
    7
 10
1646.1312664533093
 20
600.70687646796364
 11
1646.1312664533093
 21
589.70687646796353
  0
LINE
  8
_1-0_
  6
CONTINUOUS
 62
    7
 10
1652.7561888128093
 20
589.70687646796353
 11
1655.5865162947082
 21
588.29171272705378
  0
LINE
  8
_1-0_
  6
CONTINUOUS
 62
    7
 10
1652.7561888128093
 20
600.70687646796364
 11
1655.5865162947082
 21
602.12204020895285
  0
LINE
  8
_1-0_
  6
CONTINUOUS
 62
    7
 10
1655.5865162947082
 20
539.75162662656362
 11
1655.5865162947082
 21
676.1665946673636
  0
LINE
  8
_1-0_
  6
CONTINUOUS
 62
    7
 10
1655.5865162947082
 20
776.32819435003057
 11
1655.5865162947082
 21
835.66212630936377
  0
LINE
  8
_1-0_
  6
CONTINUOUS
 62
    7
 10
1643.6312664533093
 20
778.20687646796364
 11
1643.6312664533093
 21
674.20687646796364
  0
LINE
  8
_1-0_
  6
CONTINUOUS
 62
    7
 10
1643.6312664533093
 20
674.20687646796364
 11
1677.9554567205105
 21
679.60067779566384
  0
LINE
  8
_1-0_
  6
CONTINUOUS
 62
    7
 10
1643.6312664533093
 20
778.20687646796364
 11
1677.9554567205139
 21
772.81307514028526
  0
LINE
  8
_1-0_
  6
CONTINUOUS
 62
    7
 10
1677.9554567205105
 20
772.81307514026366
 11
1677.9554567205105
 21
679.60067779566452
  0
ARC
  8
_1-0_
  6
CONTINUOUS
 62
    7
 10
1677.8235448535545
 20
772.0161704777247
 40
0.8077485882501475
 50
0.4683710843273873
 51
80.601038816299607
  0
ARC
  8
_1-0_
  6
CONTINUOUS
 62
    7
 10
1677.8329322238023
 20
680.3895550477672
 40
0.7983355003878664
 50
278.82835874678636
 51
0.1022313536107603
  0
LINE
  8
_1-0_
  6
CONTINUOUS
 62
    7
 10
1678.6312664533871
 20
772.02277343996388
 11
1678.6312664533871
 21
680.39097953988528
  0
LINE
  8
_1-0_
  6
CONTINUOUS
 62
    7
 10
1643.6312664533093
 20
778.20687646796364
 11
1622.4312664533081
 21
778.20687646796364
  0
LINE
  8
_1-0_
  6
CONTINUOUS
 62
    7
 10
1622.4312664533081
 20
778.20687646796364
 11
1622.4312664533081
 21
674.20687646796375
  0
LINE
  8
_1-0_
  6
CONTINUOUS
 62
    7
 10
1622.4312664533081
 20
674.20687646796375
 11
1643.6312664533093
 21
674.20687646796375
  0
LINE
  8
_1-0_
  6
CONTINUOUS
 62
    7
 10
1655.5865162947082
 20
657.70687646796353
 11
1618.6312664533093
 21
657.70687646796353
  0
LINE
  8
_1-0_
  6
CONTINUOUS
 62
    7
 10
1655.6086135362093
 20
794.70687646796364
 11
1618.6312664533093
 21
794.70687646796364
  0
LINE
  8
_1-0_
  6
CONTINUOUS
 62
    7
 10
1646.1312664533093
 20
777.81401932516371
 11
1646.1312664533093
 21
785.70687646796364
  0
LINE
  8
_1-0_
  6
CONTINUOUS
 62
    7
 10
1646.1312664533093
 20
785.70687646796364
 11
1652.7561888128093
 21
785.70687646796364
  0
LINE
  8
_1-0_
  6
CONTINUOUS
 62
    7
 10
1652.7561888128093
 20
785.70687646796364
 11
1655.5865162947082
 21
787.12204020895297
  0
LINE
  8
_1-0_
  6
CONTINUOUS
 62
    7
 10
1618.6312664533093
 20
784.20687646796364
 11
1619.4312664533081
 21
784.20687646796364
  0
LINE
  8
_1-0_
  6
CONTINUOUS
 62
    7
 10
1619.4312664533081
 20
784.20687646796364
 11
1619.4312664533081
 21
668.20687646796353
  0
LINE
  8
_1-0_
  6
CONTINUOUS
 62
    7
 10
1619.4312664533081
 20
668.20687646796353
 11
1618.6312664533093
 21
668.20687646796353
  0
LINE
  8
_1-0_
  6
CONTINUOUS
 62
    7
 10
1619.4312664533081
 20
683.70687646796375
 11
1621.4312664533081
 21
683.70687646796375
  0
LINE
  8
_1-0_
  6
CONTINUOUS
 62
    7
 10
1621.4312664533081
 20
683.70687646796375
 11
1621.4312664533081
 21
691.70687646796375
  0
LINE
  8
_1-0_
  6
CONTINUOUS
 62
    7
 10
1621.4312664533081
 20
691.70687646796375
 11
1619.4312664533081
 21
691.70687646796375
  0
LINE
  8
_1-0_
  6
CONTINUOUS
 62
    7
 10
1622.1548732511092
 20
691.34507306913804
 11
1622.1548732511092
 21
684.06867986686359
  0
LINE
  8
_1-0_
  6
CONTINUOUS
 62
    7
 10
1621.4312664533081
 20
691.70687646796375
 11
1622.1548732511092
 21
691.34507306913804
  0
LINE
  8
_1-0_
  6
CONTINUOUS
 62
    7
 10
1621.4312664533081
 20
683.70687646796375
 11
1622.1548732511083
 21
684.06867986686359
  0
ARC
  8
_1-0_
  6
CONTINUOUS
 62
    7
 10
1622.0018899834342
 20
684.47224572034418
 40
0.4315892471831436
 50
290.76065693082512
 51
5.8043942515740676
  0
ARC
  8
_1-0_
  6
CONTINUOUS
 62
    7
 10
1622.0066679302015
 20
690.94446014917969
 40
0.427148134472036
 50
353.73672290957722
 51
69.698225906808801
  0
ARC
  8
_1-0_
  6
CONTINUOUS
 62
    7
 10
1621.9315466990752
 20
767.89803267507284
 40
0.4997197842485109
 50
359.98014145073898
 51
63.45480736564086
  0
ARC
  8
_1-0_
  6
CONTINUOUS
 62
    7
 10
1621.7804769911597
 20
761.60908647510689
 40
0.6574282179043275
 50
304.71440069469207
 51
351.85065048766126
  0
LINE
  8
_1-0_
  6
CONTINUOUS
 62
    7
 10
1622.1548732511092
 20
768.34507306913804
 11
1622.1548732511108
 21
761.06867986686495
  0
LINE
  8
_1-0_
  6
CONTINUOUS
 62
    7
 10
1622.1548732511108
 20
761.06867986686495
 11
1621.4312664533081
 21
760.70687646796364
  0
LINE
  8
_1-0_
  6
CONTINUOUS
 62
    7
 10
1621.4312664533081
 20
760.70687646796364
 11
1621.4312664533081
 21
768.70687646796364
  0
LINE
  8
_1-0_
  6
CONTINUOUS
 62
    7
 10
1621.4312664533081
 20
768.70687646796364
 11
1622.1548732511092
 21
768.34507306913804
  0
LINE
  8
_1-0_
  6
CONTINUOUS
 62
    7
 10
1621.4312664533081
 20
768.70687646796364
 11
1619.4312664533081
 21
768.70687646796364
  0
LINE
  8
_1-0_
  6
CONTINUOUS
 62
    7
 10
1621.4312664533081
 20
760.70687646796364
 11
1619.4312664533081
 21
760.70687646796364
  0
LINE
  8
_1-0_
  6
CONTINUOUS
 62
    7
 10
1243.4999905160093
 20
557.96474456526346
 11
1243.4999905160093
 21
622.40687646796357
  0
LINE
  8
_1-0_
  6
CONTINUOUS
 62
    7
 10
1243.4999905160093
 20
557.96474456526346
 11
1234.5312664533092
 21
552.57221293656346
  0
LINE
  8
_1-0_
  6
CONTINUOUS
 62
    7
 10
1234.5312664533092
 20
552.57221293656346
 11
1618.6312664533093
 21
552.57221293656346
  0
LINE
  8
_1-0_
  6
CONTINUOUS
 62
    7
 10
1608.6312664533093
 20
558.01412999107811
 11
1608.6312664533093
 21
552.54864269850464
  0
LINE
  8
_1-0_
  6
CONTINUOUS
 62
    7
 10
1243.4999905160093
 20
557.96474456526346
 11
1618.6312664533093
 21
557.96474456526346
  0
LINE
  8
_1-0_
  6
CONTINUOUS
 62
    7
 10
1234.5312664533092
 20
622.4068764679638
 11
1234.5312664533092
 21
552.57221293656346
  0
LINE
  8
_1-0_
  6
CONTINUOUS
 62
    7
 10
1243.4999905160093
 20
818.33164630596366
 11
1234.5312664533092
 21
822.90552735437018
  0
LINE
  8
_1-0_
  6
CONTINUOUS
 62
    7
 10
1234.5312664533092
 20
653.40687646796368
 11
1234.5312664533092
 21
822.90552735437018
  0
LINE
  8
_1-0_
  6
CONTINUOUS
 62
    7
 10
1243.4999905160093
 20
653.40687646796368
 11
1243.4999905160093
 21
818.33164255126371
  0
LINE
  8
_1-0_
  6
CONTINUOUS
 62
    7
 10
1243.4999905160093
 20
818.33164630596366
 11
1618.6312664533093
 21
818.33164630596366
  0
LINE
  8
_1-0_
  6
CONTINUOUS
 62
    7
 10
1618.4795918147993
 20
822.90552735437018
 11
1234.5312664533092
 21
822.90552735437018
  0
LINE
  8
_1-0_
  6
CONTINUOUS
 62
    7
 10
1618.6312664533093
 20
552.57221293656346
 11
1618.6312664533093
 21
822.90552735437018
  0
LINE
  8
_1-0_
  6
CONTINUOUS
 62
    7
 10
1608.6312664533093
 20
818.33164630596366
 11
1608.6312664533093
 21
822.86628634550129
  0
LINE
  8
_1-0_
  6
CONTINUOUS
 62
    7
 10
1368.6312664533082
 20
807.20687646796364
 11
1368.6312664533082
 21
818.14798353307958
  0
LINE
  8
_1-0_
  6
CONTINUOUS
 62
    7
 10
1368.6312664533082
 20
557.96474456526346
 11
1368.6312664533082
 21
578.20687646796364
  0
ARC
  8
_1-0_
  6
CONTINUOUS
 62
    7
 10
1311.9175565229502
 20
593.34337169104595
 40
15.579781834135881
 50
240.58751316098022
 51
256.29956355752023
  0
ARC
  8
_1-0_
  6
CONTINUOUS
 62
    7
 10
1309.644987858786
 20
797.91563173089207
 40
9.7617504802795771
 50
107.86143067999552
 51
135.33344165877031
  0
ARC
  8
_1-0_
  6
CONTINUOUS
 62
    7
 10
1281.0753398051593
 20
771.91633354516318
 40
8.2843622376181525
 50
151.47896334487433
 51
163.5210366555232
  0
ARC
  8
_1-0_
  6
CONTINUOUS
 62
    7
 10
1269.1312664533082
 20
757.40687646796357
 40
4
 50
270
 51
0
  0
LINE
  8
_1-0_
  6
CONTINUOUS
 62
    7
 10
1373.1312664533082
 20
810.70687646796364
 11
1373.1312664533082
 21
807.20687646796364
  0
ARC
  8
_1-0_
  6
CONTINUOUS
 62
    7
 10
1377.1312664533082
 20
810.70687646796364
 40
4
 50
90
 51
180
  0
LINE
  8
_1-0_
  6
CONTINUOUS
 62
    7
 10
1373.1312664533082
 20
564.70687646796364
 11
1373.1312664533082
 21
578.20687646796364
  0
ARC
  8
_1-0_
  6
CONTINUOUS
 62
    7
 10
1377.1312664533082
 20
564.70687646796364
 40
4
 50
180
 51
270
  0
LINE
  8
_1-0_
  6
CONTINUOUS
 62
    7
 10
1471.1312664533093
 20
560.70687646796364
 11
1377.1312664533082
 21
560.70687646796364
  0
ARC
  8
_1-0_
  6
CONTINUOUS
 62
    7
 10
1471.1312664533093
 20
570.70687646796364
 40
10
 50
270
 51
0
  0
LINE
  8
_1-0_
  6
CONTINUOUS
 62
    7
 10
1471.1312664533093
 20
814.70687646796364
 11
1377.1312664533082
 21
814.70687646796364
  0
LINE
  8
_1-0_
  6
CONTINUOUS
 62
    7
 10
1481.1312664533093
 20
804.70687646796364
 11
1481.1312664533093
 21
570.70687646796364
  0
ARC
  8
_1-0_
  6
CONTINUOUS
 62
    7
 10
1471.1312664533093
 20
804.70687646796364
 40
10
 50
0
 51
90
  0
LINE
  8
_1-0_
  6
CONTINUOUS
 62
    7
 10
1373.1312664533082
 20
807.20687646796364
 11
1306.6509030779014
 21
807.20687646796364
  0
LINE
  8
_1-0_
  6
CONTINUOUS
 62
    7
 10
1302.7023342652083
 20
804.77794427986362
 11
1273.796352356904
 21
775.87196237155922
  0
LINE
  8
_1-0_
  6
CONTINUOUS
 62
    7
 10
1273.1312664533082
 20
757.40687646796357
 11
1273.1312664533082
 21
774.26630296293945
  0
LINE
  8
_1-0_
  6
CONTINUOUS
 62
    7
 10
1259.1777651118759
 20
624.86037780939569
 11
1257.1312664533082
 21
622.69444090266347
  0
LINE
  8
_1-0_
  6
CONTINUOUS
 62
    7
 10
1254.122874431619
 20
622.4068764679638
 11
1254.122874431619
 21
629.9152684896527
  0
LINE
  8
_1-0_
  6
CONTINUOUS
 62
    7
 10
1373.1312664533082
 20
578.20687646796364
 11
1308.2275545770326
 21
578.20687646796364
  0
LINE
  8
_1-0_
  6
CONTINUOUS
 62
    7
 10
1253.6312664533082
 20
630.40687646796357
 11
1304.2664252002492
 21
579.77171772102247
  0
LINE
  8
_1-0_
  6
CONTINUOUS
 62
    7
 10
1244.6312664533082
 20
738.40687646796357
 11
1253.1312664533082
 21
738.40687646796357
  0
ARC
  8
_1-0_
  6
CONTINUOUS
 62
    7
 10
1244.6312664533082
 20
739.40687646796357
 40
1
 50
180
 51
270
  0
LINE
  8
_1-0_
  6
CONTINUOUS
 62
    7
 10
1243.6312664533082
 20
752.40687646796357
 11
1243.6312664533082
 21
739.40687646796357
  0
LINE
  8
_1-0_
  6
CONTINUOUS
 62
    7
 10
1244.6312664533082
 20
753.40687646796357
 11
1269.1312664533082
 21
753.40687646796357
  0
ARC
  8
_1-0_
  6
CONTINUOUS
 62
    7
 10
1244.6312664533082
 20
752.40687646796357
 40
1
 50
90
 51
180
  0
CIRCLE
  8
_1-0_
  6
CONTINUOUS
 62
    7
 10
1248.6312664533082
 20
745.90687646796368
 40
3.1909830055999464
  0
CIRCLE
  8
_1-0_
  6
CONTINUOUS
 62
    7
 10
1248.6312664533082
 20
745.90687646796368
 40
3.6381966010999349
  0
CIRCLE
  8
_1-0_
  6
CONTINUOUS
 62
    7
 10
1248.6312664533082
 20
745.90687646796368
 40
4
  0
LINE
  8
_1-0_
  6
CONTINUOUS
 62
    7
 10
1246.6312664533082
 20
746.40687646796357
 11
1246.6312664533082
 21
745.40687646796368
  0
LINE
  8
_1-0_
  6
CONTINUOUS
 62
    7
 10
1246.6312664533082
 20
745.40687646796368
 11
1248.1312664533082
 21
745.40687646796368
  0
LINE
  8
_1-0_
  6
CONTINUOUS
 62
    7
 10
1248.1312664533082
 20
745.40687646796368
 11
1248.1312664533082
 21
743.90687646796357
  0
LINE
  8
_1-0_
  6
CONTINUOUS
 62
    7
 10
1248.1312664533082
 20
743.90687646796357
 11
1249.1312664533082
 21
743.90687646796357
  0
LINE
  8
_1-0_
  6
CONTINUOUS
 62
    7
 10
1249.1312664533082
 20
743.90687646796357
 11
1249.1312664533082
 21
745.40687646796368
  0
LINE
  8
_1-0_
  6
CONTINUOUS
 62
    7
 10
1249.1312664533082
 20
745.40687646796368
 11
1250.6312664533082
 21
745.40687646796368
  0
LINE
  8
_1-0_
  6
CONTINUOUS
 62
    7
 10
1250.6312664533082
 20
745.40687646796368
 11
1250.6312664533082
 21
746.40687646796357
  0
LINE
  8
_1-0_
  6
CONTINUOUS
 62
    7
 10
1250.6312664533082
 20
746.40687646796357
 11
1249.1312664533082
 21
746.40687646796357
  0
LINE
  8
_1-0_
  6
CONTINUOUS
 62
    7
 10
1249.1312664533082
 20
746.40687646796357
 11
1249.1312664533082
 21
747.90687646796357
  0
LINE
  8
_1-0_
  6
CONTINUOUS
 62
    7
 10
1249.1312664533082
 20
747.90687646796357
 11
1248.1312664533082
 21
747.90687646796357
  0
LINE
  8
_1-0_
  6
CONTINUOUS
 62
    7
 10
1248.1312664533082
 20
747.90687646796357
 11
1248.1312664533082
 21
746.40687646796357
  0
LINE
  8
_1-0_
  6
CONTINUOUS
 62
    7
 10
1248.1312664533082
 20
746.40687646796357
 11
1246.6312664533082
 21
746.40687646796357
  0
CIRCLE
  8
_1-0_
  6
CONTINUOUS
 62
    7
 10
1303.1312664533082
 20
779.70687646796364
 40
5
  0
CIRCLE
  8
_1-0_
  6
CONTINUOUS
 62
    7
 10
1340.7838169286101
 20
789.22337355106379
 40
2.75
  0
CIRCLE
  8
_1-0_
  6
CONTINUOUS
 62
    7
 10
1294.1145739409083
 20
642.85923151386373
 40
1.75
  0
CIRCLE
  8
_1-0_
  6
CONTINUOUS
 62
    7
 10
1327.6312664533082
 20
575.10687646796373
 40
2.0499999999999545
  0
CIRCLE
  8
_1-0_
  6
CONTINUOUS
 62
    7
 10
1303.1312664533082
 20
604.70687646796364
 40
5
  0
CIRCLE
  8
_1-0_
  6
CONTINUOUS
 62
    7
 10
1416.2312664533083
 20
571.1068764679635
 40
3.1909830056001738
  0
CIRCLE
  8
_1-0_
  6
CONTINUOUS
 62
    7
 10
1416.2312664533083
 20
571.1068764679635
 40
3.6381966011010718
  0
CIRCLE
  8
_1-0_
  6
CONTINUOUS
 62
    7
 10
1416.2312664533083
 20
571.1068764679635
 40
4
  0
LINE
  8
_1-0_
  6
CONTINUOUS
 62
    7
 10
1415.7312664533083
 20
573.10687646796362
 11
1416.7312664533083
 21
573.10687646796362
  0
LINE
  8
_1-0_
  6
CONTINUOUS
 62
    7
 10
1416.7312664533083
 20
573.10687646796362
 11
1416.7312664533083
 21
571.60687646796373
  0
LINE
  8
_1-0_
  6
CONTINUOUS
 62
    7
 10
1416.7312664533083
 20
571.60687646796373
 11
1418.2312664533083
 21
571.60687646796373
  0
LINE
  8
_1-0_
  6
CONTINUOUS
 62
    7
 10
1418.2312664533083
 20
571.60687646796373
 11
1418.2312664533083
 21
570.60687646796373
  0
LINE
  8
_1-0_
  6
CONTINUOUS
 62
    7
 10
1418.2312664533083
 20
570.60687646796373
 11
1416.7312664533083
 21
570.60687646796373
  0
LINE
  8
_1-0_
  6
CONTINUOUS
 62
    7
 10
1416.7312664533083
 20
570.60687646796373
 11
1416.7312664533083
 21
569.10687646796373
  0
LINE
  8
_1-0_
  6
CONTINUOUS
 62
    7
 10
1416.7312664533083
 20
569.10687646796373
 11
1415.7312664533083
 21
569.10687646796373
  0
LINE
  8
_1-0_
  6
CONTINUOUS
 62
    7
 10
1415.7312664533083
 20
569.10687646796373
 11
1415.7312664533083
 21
570.60687646796373
  0
LINE
  8
_1-0_
  6
CONTINUOUS
 62
    7
 10
1415.7312664533083
 20
570.60687646796373
 11
1414.2312664533083
 21
570.60687646796373
  0
LINE
  8
_1-0_
  6
CONTINUOUS
 62
    7
 10
1414.2312664533083
 20
570.60687646796373
 11
1414.2312664533083
 21
571.60687646796373
  0
LINE
  8
_1-0_
  6
CONTINUOUS
 62
    7
 10
1414.2312664533083
 20
571.60687646796373
 11
1415.7312664533083
 21
571.60687646796373
  0
LINE
  8
_1-0_
  6
CONTINUOUS
 62
    7
 10
1415.7312664533083
 20
571.60687646796373
 11
1415.7312664533083
 21
573.10687646796362
  0
CIRCLE
  8
_1-0_
  6
CONTINUOUS
 62
    7
 10
1455.1312664533093
 20
807.20687646796364
 40
3.1909830055999464
  0
CIRCLE
  8
_1-0_
  6
CONTINUOUS
 62
    7
 10
1455.1312664533093
 20
807.20687646796364
 40
3.6381966010999349
  0
CIRCLE
  8
_1-0_
  6
CONTINUOUS
 62
    7
 10
1455.1312664533093
 20
807.20687646796364
 40
4
  0
LINE
  8
_1-0_
  6
CONTINUOUS
 62
    7
 10
1454.6312664533093
 20
809.20687646796364
 11
1455.6312664533093
 21
809.20687646796364
  0
LINE
  8
_1-0_
  6
CONTINUOUS
 62
    7
 10
1455.6312664533093
 20
809.20687646796364
 11
1455.6312664533093
 21
807.70687646796364
  0
LINE
  8
_1-0_
  6
CONTINUOUS
 62
    7
 10
1455.6312664533093
 20
807.70687646796364
 11
1457.1312664533093
 21
807.70687646796364
  0
LINE
  8
_1-0_
  6
CONTINUOUS
 62
    7
 10
1457.1312664533093
 20
807.70687646796364
 11
1457.1312664533093
 21
806.70687646796364
  0
LINE
  8
_1-0_
  6
CONTINUOUS
 62
    7
 10
1457.1312664533093
 20
806.70687646796364
 11
1455.6312664533093
 21
806.70687646796364
  0
LINE
  8
_1-0_
  6
CONTINUOUS
 62
    7
 10
1455.6312664533093
 20
806.70687646796364
 11
1455.6312664533093
 21
805.20687646796364
  0
LINE
  8
_1-0_
  6
CONTINUOUS
 62
    7
 10
1455.6312664533093
 20
805.20687646796364
 11
1454.6312664533093
 21
805.20687646796364
  0
LINE
  8
_1-0_
  6
CONTINUOUS
 62
    7
 10
1454.6312664533093
 20
805.20687646796364
 11
1454.6312664533093
 21
806.70687646796364
  0
LINE
  8
_1-0_
  6
CONTINUOUS
 62
    7
 10
1454.6312664533093
 20
806.70687646796364
 11
1453.1312664533093
 21
806.70687646796364
  0
LINE
  8
_1-0_
  6
CONTINUOUS
 62
    7
 10
1453.1312664533093
 20
806.70687646796364
 11
1453.1312664533093
 21
807.70687646796364
  0
LINE
  8
_1-0_
  6
CONTINUOUS
 62
    7
 10
1453.1312664533093
 20
807.70687646796364
 11
1454.6312664533093
 21
807.70687646796364
  0
LINE
  8
_1-0_
  6
CONTINUOUS
 62
    7
 10
1454.6312664533093
 20
807.70687646796364
 11
1454.6312664533093
 21
809.20687646796364
  0
LINE
  8
_1-0_
  6
CONTINUOUS
 62
    7
 10
1356.1312664533082
 20
816.20687646796364
 11
1356.1312664533082
 21
807.20687646796364
  0
ARC
  8
_1-0_
  6
CONTINUOUS
 62
    7
 10
1357.1312664533082
 20
816.20687646796364
 40
1
 50
90
 51
180
  0
LINE
  8
_1-0_
  6
CONTINUOUS
 62
    7
 10
1367.1312664533082
 20
817.20687646796364
 11
1357.1312664533082
 21
817.20687646796364
  0
LINE
  8
_1-0_
  6
CONTINUOUS
 62
    7
 10
1368.1312664533082
 20
816.20687646796364
 11
1368.1312664533082
 21
807.20687646796364
  0
ARC
  8
_1-0_
  6
CONTINUOUS
 62
    7
 10
1367.1312664533082
 20
816.20687646796364
 40
1
 50
0
 51
90
  0
CIRCLE
  8
_1-0_
  6
CONTINUOUS
 62
    7
 10
1360.6312664533082
 20
812.20687646796364
 40
3.1909830055999464
  0
CIRCLE
  8
_1-0_
  6
CONTINUOUS
 62
    7
 10
1360.6312664533082
 20
812.20687646796364
 40
3.6381966010999349
  0
CIRCLE
  8
_1-0_
  6
CONTINUOUS
 62
    7
 10
1360.6312664533082
 20
812.20687646796364
 40
4
  0
LINE
  8
_1-0_
  6
CONTINUOUS
 62
    7
 10
1360.1312664533082
 20
814.20687646796364
 11
1361.1312664533082
 21
814.20687646796364
  0
LINE
  8
_1-0_
  6
CONTINUOUS
 62
    7
 10
1361.1312664533082
 20
814.20687646796364
 11
1361.1312664533082
 21
812.70687646796364
  0
LINE
  8
_1-0_
  6
CONTINUOUS
 62
    7
 10
1361.1312664533082
 20
812.70687646796364
 11
1362.6312664533082
 21
812.70687646796364
  0
LINE
  8
_1-0_
  6
CONTINUOUS
 62
    7
 10
1362.6312664533082
 20
812.70687646796364
 11
1362.6312664533082
 21
811.70687646796364
  0
LINE
  8
_1-0_
  6
CONTINUOUS
 62
    7
 10
1362.6312664533082
 20
811.70687646796364
 11
1361.1312664533082
 21
811.70687646796364
  0
LINE
  8
_1-0_
  6
CONTINUOUS
 62
    7
 10
1361.1312664533082
 20
811.70687646796364
 11
1361.1312664533082
 21
810.20687646796364
  0
LINE
  8
_1-0_
  6
CONTINUOUS
 62
    7
 10
1361.1312664533082
 20
810.20687646796364
 11
1360.1312664533082
 21
810.20687646796364
  0
LINE
  8
_1-0_
  6
CONTINUOUS
 62
    7
 10
1360.1312664533082
 20
810.20687646796364
 11
1360.1312664533082
 21
811.70687646796364
  0
LINE
  8
_1-0_
  6
CONTINUOUS
 62
    7
 10
1360.1312664533082
 20
811.70687646796364
 11
1358.6312664533082
 21
811.70687646796364
  0
LINE
  8
_1-0_
  6
CONTINUOUS
 62
    7
 10
1358.6312664533082
 20
811.70687646796364
 11
1358.6312664533082
 21
812.70687646796364
  0
LINE
  8
_1-0_
  6
CONTINUOUS
 62
    7
 10
1358.6312664533082
 20
812.70687646796364
 11
1360.1312664533082
 21
812.70687646796364
  0
LINE
  8
_1-0_
  6
CONTINUOUS
 62
    7
 10
1360.1312664533082
 20
812.70687646796364
 11
1360.1312664533082
 21
814.20687646796364
  0
LINE
  8
_1-0_
  6
CONTINUOUS
 62
    7
 10
1353.7979331200083
 20
576.70687646796364
 11
1347.7237050511521
 21
576.70687646796364
  0
LINE
  8
_1-0_
  6
CONTINUOUS
 62
    7
 10
1353.7979331200083
 20
575.70687646796364
 11
1353.7979331200083
 21
576.70687646796364
  0
LINE
  8
_1-0_
  6
CONTINUOUS
 62
    7
 10
1353.1312664533082
 20
575.20687646794204
 11
1353.1312664533082
 21
576.70687646796364
  0
LINE
  8
_1-0_
  6
CONTINUOUS
 62
    7
 10
1353.7979331200083
 20
575.70687646796364
 11
1349.1312664533082
 21
572.20687646796364
  0
LINE
  8
_1-0_
  6
CONTINUOUS
 62
    7
 10
1354.1312664533082
 20
574.70687646796364
 11
1349.6758116551107
 21
571.22562549090753
  0
ARC
  8
_1-0_
  6
CONTINUOUS
 62
    7
 10
1347.7237050511521
 20
574.20687646796364
 40
2.4745030608122573
 50
90
 51
305.13714347689535
  0
ARC
  8
_1-0_
  6
CONTINUOUS
 62
    7
 10
1347.7237050511521
 20
574.20687646796364
 40
3.5924385978439659
 50
90
 51
303.21655677433557
  0
LINE
  8
_1-0_
  6
CONTINUOUS
 62
    7
 10
1347.7237050511521
 20
577.7993150658076
 11
1363.1312664533082
 21
577.7993150658076
  0
LINE
  8
_1-0_
  6
CONTINUOUS
 62
    7
 10
1354.1312664533082
 20
574.70687646796364
 11
1363.1312664533082
 21
574.70687646796364
  0
LINE
  8
_1-0_
  6
CONTINUOUS
 62
    7
 10
1363.1312664533082
 20
574.70687646796364
 11
1363.1312664533082
 21
577.7993150658076
  0
LINE
  8
_1-0_
  6
CONTINUOUS
 62
    7
 10
1361.6312664533082
 20
574.70687646796364
 11
1361.6312664533082
 21
577.7993150658076
  0
LINE
  8
_1-0_
  6
CONTINUOUS
 62
    7
 10
1354.1312664533082
 20
574.70687646796364
 11
1354.1312664533082
 21
572.70687646796341
  0
LINE
  8
_1-0_
  6
CONTINUOUS
 62
    7
 10
1354.1312664533082
 20
572.70687646796341
 11
1362.1312664533082
 21
572.70687646796341
  0
LINE
  8
_1-0_
  6
CONTINUOUS
 62
    7
 10
1362.1312664533082
 20
572.70687646796341
 11
1362.1312664533082
 21
574.70687646796364
  0
LINE
  8
_1-0_
  6
CONTINUOUS
 62
    7
 10
1362.1312664533082
 20
572.70687646796341
 11
1361.6312664533082
 21
571.70687646796364
  0
LINE
  8
_1-0_
  6
CONTINUOUS
 62
    7
 10
1354.1312664533082
 20
572.70687646796341
 11
1354.6312664533082
 21
571.70687646796364
  0
LINE
  8
_1-0_
  6
CONTINUOUS
 62
    7
 10
1354.6312664533082
 20
571.70687646796364
 11
1361.6312664533082
 21
571.70687646796364
  0
ARC
  8
_1-0_
  6
CONTINUOUS
 62
    7
 10
1360.6359502520322
 20
573.1997107008408
 40
3.1917583688323949
 50
207.89700675734244
 51
38.443093225452436
  0
ARC
  8
_1-0_
  6
CONTINUOUS
 62
    7
 10
1360.6601008415621
 20
573.16638384706971
 40
3.6480757847176779
 50
203.60834791662791
 51
47.300223692787149
  0
ARC
  8
_1-0_
  6
CONTINUOUS
 62
    7
 10
1360.6566825803882
 20
573.17271369261255
 40
4.0109544559786263
 50
201.44618308686421
 51
51.850200665842436
  0
LINE
  8
_1-0_
  6
CONTINUOUS
 62
    7
 10
1362.6312664533082
 20
572.70687646796341
 11
1362.1312664533082
 21
572.70687646796341
  0
LINE
  8
_1-0_
  6
CONTINUOUS
 62
    7
 10
1362.6312664533082
 20
572.70687646796341
 11
1362.6312664533082
 21
573.70687646796364
  0
LINE
  8
_1-0_
  6
CONTINUOUS
 62
    7
 10
1362.6312664533082
 20
573.70687646796364
 11
1362.1312664533082
 21
573.70687646796364
  0
LINE
  8
_1-0_
  6
CONTINUOUS
 62
    7
 10
1361.1312664533082
 20
571.20687646796387
 11
1361.1312664533082
 21
571.70687646796364
  0
LINE
  8
_1-0_
  6
CONTINUOUS
 62
    7
 10
1361.1312664533082
 20
571.20687646796387
 11
1360.1312664533082
 21
571.20687646796387
  0
LINE
  8
_1-0_
  6
CONTINUOUS
 62
    7
 10
1360.1312664533082
 20
571.20687646796387
 11
1360.1312664533082
 21
571.70687646796364
  0
LINE
  8
_1-0_
  6
CONTINUOUS
 62
    7
 10
1353.1312664533082
 20
569.20687646796364
 11
1353.1312664533082
 21
575.20687646794204
  0
ARC
  8
_1-0_
  6
CONTINUOUS
 62
    7
 10
1354.1312664533082
 20
569.20687646796364
 40
1
 50
180
 51
270
  0
LINE
  8
_1-0_
  6
CONTINUOUS
 62
    7
 10
1368.1312664533082
 20
569.20687646796364
 11
1368.1312664533082
 21
578.20687646796364
  0
LINE
  8
_1-0_
  6
CONTINUOUS
 62
    7
 10
1367.1312664533082
 20
568.20687646796364
 11
1354.1312664533082
 21
568.20687646796364
  0
ARC
  8
_1-0_
  6
CONTINUOUS
 62
    7
 10
1367.1312664533082
 20
569.20687646796364
 40
1
 50
270
 51
0
  0
LINE
  8
_1-0_
  6
CONTINUOUS
 62
    7
 10
1253.5878574357082
 20
754.40946745036365
 11
1258.0378574357092
 21
754.40946745036365
  0
LINE
  8
_1-0_
  6
CONTINUOUS
 62
    7
 10
1258.0378574357092
 20
754.40946745036365
 11
1258.0378574357092
 21
756.90946745036365
  0
LINE
  8
_1-0_
  6
CONTINUOUS
 62
    7
 10
1258.0378574357092
 20
756.90946745036365
 11
1253.5878574357082
 21
756.90946745036365
  0
LINE
  8
_1-0_
  6
CONTINUOUS
 62
    7
 10
1253.5878574357082
 20
756.90946745036365
 11
1253.5878574357082
 21
754.40946745036365
  0
LINE
  8
_1-0_
  6
CONTINUOUS
 62
    7
 10
1258.0378574357092
 20
756.90946745036365
 11
1266.0878574357082
 21
756.90946745036365
  0
LINE
  8
_1-0_
  6
CONTINUOUS
 62
    7
 10
1266.0878574357082
 20
756.90946745036365
 11
1266.0878574357082
 21
754.40946745036365
  0
LINE
  8
_1-0_
  6
CONTINUOUS
 62
    7
 10
1266.0878574357082
 20
754.40946745036365
 11
1261.2378574357092
 21
754.40946745036365
  0
LINE
  8
_1-0_
  6
CONTINUOUS
 62
    7
 10
1261.2378574357092
 20
756.90946745036365
 11
1261.2378574357092
 21
753.90687646796368
  0
LINE
  8
_1-0_
  6
CONTINUOUS
 62
    7
 10
1266.0878574357082
 20
753.90687646796368
 11
1266.0878574357082
 21
754.40946745036365
  0
LINE
  8
_1-0_
  6
CONTINUOUS
 62
    7
 10
1265.5878574357082
 20
753.90687646796368
 11
1265.5878574357082
 21
754.40946745036365
  0
LINE
  8
_1-0_
  6
CONTINUOUS
 62
    7
 10
1266.0878574357082
 20
756.90946745036365
 11
1266.0878574357082
 21
765.11657423156373
  0
LINE
  8
_1-0_
  6
CONTINUOUS
 62
    7
 10
1265.5878574357082
 20
756.90946745036365
 11
1265.5878574357082
 21
765.11657423156373
  0
LINE
  8
_1-0_
  6
CONTINUOUS
 62
    7
 10
1264.0878574357082
 20
765.11657423156373
 11
1264.0878574357082
 21
756.90946745036365
  0
LINE
  8
_1-0_
  6
CONTINUOUS
 62
    7
 10
1263.6378574357082
 20
758.90946745036365
 11
1255.6378574357082
 21
758.90946745036365
  0
LINE
  8
_1-0_
  6
CONTINUOUS
 62
    7
 10
1255.6378574357082
 20
758.90946745036365
 11
1255.6378574357082
 21
756.90946745036365
  0
LINE
  8
_1-0_
  6
CONTINUOUS
 62
    7
 10
1256.1378574357082
 20
759.90946745036365
 11
1263.1378574357093
 21
759.90946745036365
  0
LINE
  8
_1-0_
  6
CONTINUOUS
 62
    7
 10
1256.1378574357082
 20
759.90946745036365
 11
1255.6378574357082
 21
758.90946745036365
  0
LINE
  8
_1-0_
  6
CONTINUOUS
 62
    7
 10
1263.1378574357093
 20
759.90946745036365
 11
1263.6378574357082
 21
758.90946745036365
  0
LINE
  8
_1-0_
  6
CONTINUOUS
 62
    7
 10
1259.0878574357093
 20
771.24830221516106
 11
1259.0878574357093
 21
768.74830221526383
  0
LINE
  8
_1-0_
  6
CONTINUOUS
 62
    7
 10
1259.9561294522082
 20
769.24830221516368
 11
1264.0878574357082
 21
765.11657423166366
  0
LINE
  8
_1-0_
  6
CONTINUOUS
 62
    7
 10
1263.6378574357082
 20
756.90946745036365
 11
1263.6378574357082
 21
764.85946745046385
  0
LINE
  8
_1-0_
  6
CONTINUOUS
 62
    7
 10
1259.7490226709083
 20
768.74830221526383
 11
1263.6378574357082
 21
764.85946745046385
  0
LINE
  8
_1-0_
  6
CONTINUOUS
 62
    7
 10
1253.1312664533082
 20
630.40687646796357
 11
1253.1312664533082
 21
753.90687646796368
  0
ARC
  8
_1-0_
  6
CONTINUOUS
 62
    7
 10
1266.6273148638338
 20
753.40292487848922
 40
0.5039670818546994
 50
0.4492589445534856
 51
89.550741055446508
  0
LINE
  8
_1-0_
  6
CONTINUOUS
 62
    7
 10
1253.1312664533082
 20
753.90687646796368
 11
1266.6312664533132
 21
753.90687646796368
  0
LINE
  8
_1-0_
  6
CONTINUOUS
 62
    7
 10
1257.5878574357093
 20
768.74830221526383
 11
1259.7490226709083
 21
768.74830221526383
  0
ARC
  8
_1-0_
  6
CONTINUOUS
 62
    7
 10
1257.5878574357093
 20
769.24830221526383
 40
0.5
 50
180
 51
270
  0
LINE
  8
_1-0_
  6
CONTINUOUS
 62
    7
 10
1257.0878574357093
 20
770.74830221516106
 11
1257.0878574357093
 21
769.24830221526383
  0
LINE
  8
_1-0_
  6
CONTINUOUS
 62
    7
 10
1257.5878574357093
 20
771.24830221516106
 11
1259.9561294521081
 21
771.24830221516106
  0
ARC
  8
_1-0_
  6
CONTINUOUS
 62
    7
 10
1257.5878574357093
 20
770.74830221516106
 40
0.5
 50
90
 51
180
  0
ARC
  8
_1-0_
  6
CONTINUOUS
 62
    7
 10
1259.9950194049532
 20
769.34219086686392
 40
1.9065080384145463
 50
43.831169513097358
 51
91.168830487586163
  0
ARC
  8
_1-0_
  6
CONTINUOUS
 62
    7
 10
1259.9903119351252
 20
769.33082602916977
 40
1.4178882819195853
 50
43.618578212005012
 51
91.381421793408691
  0
ARC
  8
_1-0_
  6
CONTINUOUS
 62
    7
 10
1264.0874015766528
 20
765.1163854085604
 40
1.5004558709363696
 50
0.0072103161470823
 51
44.992789683857147
  0
ARC
  8
_1-0_
  6
CONTINUOUS
 62
    7
 10
1264.0260249770147
 20
765.09096238853124
 40
2.0619915262255235
 50
0.7116849066369764
 51
44.288315095583705
  0
LINE
  8
_1-0_
  6
CONTINUOUS
 62
    7
 10
1257.0878574357093
 20
770.74830221516356
 11
1259.9561294521081
 21
770.74830221516356
  0
LINE
  8
_1-0_
  6
CONTINUOUS
 62
    7
 10
1265.148517607488
 20
766.1772344033435
 11
1261.0167896238879
 21
770.30896238694356
  0
LINE
  8
_1-0_
  6
CONTINUOUS
 62
    7
 10
1257.0878574357093
 20
769.24830221516368
 11
1259.9561294521081
 21
769.24830221516368
  0
LINE
  8
_1-0_
  6
CONTINUOUS
 62
    7
 10
1261.3703430144092
 20
770.66251577756373
 11
1265.5020709980586
 21
766.53078779391421
  0
LINE
  8
_1-0_
  6
CONTINUOUS
 62
    7
 10
444.27204860495988
 20
1031.7651921557524
 11
444.57846638195929
 21
1031.5080771122516
  0
LINE
  8
_1-0_
  6
CONTINUOUS
 62
    7
 10
445.5576238239596
 20
1033.2972810422514
 11
445.86389783608774
 21
1033.0402866317227
  0
LINE
  8
_1-0_
  6
CONTINUOUS
 62
    7
 10
444.57846638195929
 20
1031.5080771122516
 11
488.279694885808
 21
1083.5990992442516
  0
LINE
  8
_1-0_
  6
CONTINUOUS
 62
    7
 10
500.78802384045889
 20
1083.5990992442516
 11
488.279694885808
 21
1083.5990992442516
  0
ARC
  8
_1-0_
  6
CONTINUOUS
 62
    7
 10
488.34627909517576
 20
1083.4588777406843
 40
0.5403465569937007
 50
91.232700604991237
 51
139.82244595573317
  0
LINE
  8
_1-0_
  6
CONTINUOUS
 62
    7
 10
444.27204860495988
 20
1031.7651921557524
 11
487.94878834499798
 21
1083.8228792168707
  0
LINE
  8
_1-0_
  6
CONTINUOUS
 62
    7
 10
493.78802384045923
 20
1083.5990992442516
 11
493.78802384045923
 21
1084.0990992442516
  0
LINE
  8
_1-0_
  6
CONTINUOUS
 62
    7
 10
496.78802384045912
 20
1083.5990992442516
 11
496.78802384045912
 21
1084.0990992442516
  0
LINE
  8
_1-0_
  6
CONTINUOUS
 62
    7
 10
496.78802384045889
 20
1084.0990992442516
 11
493.78802384045923
 21
1084.0990992442516
  0
LINE
  8
_1-0_
  6
CONTINUOUS
 62
    7
 10
494.28802384045889
 20
1084.5990992442516
 11
496.28802384045889
 21
1084.5990992442516
  0
ARC
  8
_1-0_
  6
CONTINUOUS
 62
    7
 10
494.2865472356454
 20
1084.1005758490655
 40
0.4985255820013068
 50
89.830292866440018
 51
180.16970713359268
  0
ARC
  8
_1-0_
  6
CONTINUOUS
 62
    7
 10
496.29078910349597
 20
1084.1018645072886
 40
0.4972424261084812
 50
359.68136524635446
 51
90.318634753645554
  0
LINE
  8
_1-0_
  6
CONTINUOUS
 62
    7
 10
493.78464538864694
 20
1083.999099244252
 11
488.33465460645948
 21
1083.999099244252
  0
LINE
  8
_1-0_
  6
CONTINUOUS
 62
    7
 10
500.788023840459
 20
1083.999099244252
 11
496.78802384045912
 21
1083.999099244252
  0
LINE
  8
_1-0_
  6
CONTINUOUS
 62
    7
 10
490.28802384045991
 20
1083.999099244252
 11
490.28802384045991
 21
1084.4990992442513
  0
LINE
  8
_1-0_
  6
CONTINUOUS
 62
    7
 10
490.28802384045991
 20
1084.4990992442513
 11
493.98852231545902
 21
1084.4990992442513
  0
LINE
  8
_1-0_
  6
CONTINUOUS
 62
    7
 10
499.78802384045889
 20
1084.4990992442513
 11
496.58802384045924
 21
1084.4990992442513
  0
LINE
  8
_1-0_
  6
CONTINUOUS
 62
    7
 10
499.288023840459
 20
1084.4990992442513
 11
499.288023840459
 21
1086.4990992442515
  0
LINE
  8
_1-0_
  6
CONTINUOUS
 62
    7
 10
499.288023840459
 20
1086.4990992442515
 11
491.288023840459
 21
1086.4990992442515
  0
LINE
  8
_1-0_
  6
CONTINUOUS
 62
    7
 10
491.288023840459
 20
1086.4990992442515
 11
491.288023840459
 21
1084.4990992442513
  0
LINE
  8
_1-0_
  6
CONTINUOUS
 62
    7
 10
491.64982723935884
 20
1087.2227060419514
 11
498.9262204416583
 21
1087.2227060419514
  0
LINE
  8
_1-0_
  6
CONTINUOUS
 62
    7
 10
491.288023840459
 20
1086.4990992442515
 11
491.64982723935884
 21
1087.2227060419514
  0
LINE
  8
_1-0_
  6
CONTINUOUS
 62
    7
 10
499.288023840459
 20
1086.4990992442515
 11
498.92622044165853
 21
1087.2227060419514
  0
ARC
  8
_1-0_
  6
CONTINUOUS
 62
    7
 10
492.08553205440796
 20
1087.0177208421887
 40
0.4815159581766285
 50
88.630435119488851
 51
154.80451370861601
  0
ARC
  8
_1-0_
  6
CONTINUOUS
 62
    7
 10
498.49000761375646
 20
1087.0168988601263
 40
0.4823258518024192
 50
25.258150015072324
 51
91.306901156823756
  0
LINE
  8
_1-0_
  6
CONTINUOUS
 62
    7
 10
498.47900684615831
 20
1087.4990992442295
 11
492.09704083393223
 21
1087.4990992442295
  0
LINE
  8
_1-0_
  6
CONTINUOUS
 62
    7
 10
500.288023840459
 20
1085.5990992442514
 11
500.288023840459
 21
1084.4990992442513
  0
ARC
  8
_1-0_
  6
CONTINUOUS
 62
    7
 10
499.78326858455438
 20
1084.503854500156
 40
0.5047776548363041
 50
270.53976264850536
 51
359.46023735148827
  0
LINE
  8
_1-0_
  6
CONTINUOUS
 62
    7
 10
500.07589180615878
 20
1085.5990992442514
 11
507.14695961795928
 21
1085.5990992442514
  0
LINE
  8
_1-0_
  6
CONTINUOUS
 62
    7
 10
507.14695961795928
 20
1085.5990992442514
 11
507.14695961795928
 21
1083.5990992442516
  0
LINE
  8
_1-0_
  6
CONTINUOUS
 62
    7
 10
500.78802384045889
 20
1084.7990992442515
 11
500.78802384045889
 21
1083.5990992442516
  0
LINE
  8
_1-0_
  6
CONTINUOUS
 62
    7
 10
500.78802384045889
 20
1084.7990992442515
 11
503.85294101115539
 21
1084.7990992442515
  0
LINE
  8
_1-0_
  6
CONTINUOUS
 62
    7
 10
503.85294101115539
 20
1084.7990992442515
 11
506.00045940575853
 21
1083.5990992442516
  0
LINE
  8
_1-0_
  6
CONTINUOUS
 62
    7
 10
490.8638546843589
 20
1083.0990992442514
 11
500.36385468435901
 21
1073.5990992442514
  0
LINE
  8
_1-0_
  6
CONTINUOUS
 62
    7
 10
499.05565263795825
 20
1073.4930877282513
 11
490.11381641995877
 21
1082.4349239461512
  0
LINE
  8
_1-0_
  6
CONTINUOUS
 62
    7
 10
489.69071197401479
 20
1083.1354217305247
 11
482.48079950585839
 21
972.09909924425142
  0
LINE
  8
_1-0_
  6
CONTINUOUS
 62
    7
 10
499.05565263795825
 20
1073.4930877282513
 11
491.43912801201657
 21
953.66334280005287
  0
LINE
  8
_1-0_
  6
CONTINUOUS
 62
    7
 10
477.302215009159
 20
972.09909924425142
 11
476.98802384045894
 21
952.09909924425153
  0
LINE
  8
_1-0_
  6
CONTINUOUS
 62
    7
 10
613.11291752375882
 20
1073.5990992442514
 11
614.87505284964323
 21
1083.580432243228
  0
LINE
  8
_1-0_
  6
CONTINUOUS
 62
    7
 10
500.36385468435901
 20
1073.5990992442514
 11
613.11291752375882
 21
1073.5990992442514
  0
ARC
  8
_1-0_
  6
CONTINUOUS
 62
    7
 10
490.14570714537263
 20
1083.1493378835607
 40
0.4498968547380293
 50
88.593783597970116
 51
181.7570595748347
  0
ARC
  8
_1-0_
  6
CONTINUOUS
 62
    7
 10
484.77654244161511
 20
969.21704057362444
 40
2.8834792096027471
 50
13.201445401828568
 51
91.798554598610309
  0
LINE
  8
_1-0_
  6
CONTINUOUS
 62
    7
 10
477.302215009159
 20
972.09909924425142
 11
484.68604287655899
 21
972.09909924425142
  0
LINE
  8
_1-0_
  6
CONTINUOUS
 62
    7
 10
491.81110930425837
 20
952.09909924425142
 11
487.60398523234477
 21
969.88032748634998
  0
CIRCLE
  8
_1-0_
  6
CONTINUOUS
 62
    7
 10
510.18802384045875
 20
1046.4234731626318
 40
1.8249566225928484
  0
CIRCLE
  8
_1-0_
  6
CONTINUOUS
 62
    7
 10
510.18802384045875
 20
1046.4234731626318
 40
2.3213097922606329
  0
LINE
  8
_1-0_
  6
CONTINUOUS
 62
    7
 10
500.78802384045889
 20
1083.5990992442516
 11
615.28802384045821
 21
1083.5990992442516
  0
LINE
  8
_1-0_
  6
CONTINUOUS
 62
    7
 10
727.78802384045821
 20
1120.0990992442514
 11
727.78802384045821
 21
1119.5990992442516
  0
LINE
  8
_1-0_
  6
CONTINUOUS
 62
    7
 10
727.78802384045821
 20
1119.5990992442516
 11
727.78802384045821
 21
1119.0990992442514
  0
ARC
  8
_1-0_
  6
CONTINUOUS
 62
    7
 10
615.73355706341454
 20
1118.6535660212951
 40
0.448850178299326
 50
83.030131991106373
 51
186.96986800888735
  0
LINE
  8
_1-0_
  6
CONTINUOUS
 62
    7
 10
615.28802384045821
 20
1083.5990992442516
 11
615.28802384045821
 21
1118.5990992442512
  0
LINE
  8
_1-0_
  6
CONTINUOUS
 62
    7
 10
499.78802384045889
 20
1119.5987212229497
 11
499.78802384045889
 21
1084.4990992442513
  0
LINE
  8
_1-0_
  6
CONTINUOUS
 62
    7
 10
500.28802384045889
 20
1120.0987212229497
 11
727.78802384045821
 21
1120.0987212229497
  0
ARC
  8
_1-0_
  6
CONTINUOUS
 62
    7
 10
500.28802384045889
 20
1119.5987212229497
 40
0.5
 50
90
 51
180
  0
LINE
  8
_1-0_
  6
CONTINUOUS
 62
    7
 10
519.52132828875847
 20
1120.0987212229497
 11
519.52132828875847
 21
1083.5990992442516
  0
LINE
  8
_1-0_
  6
CONTINUOUS
 62
    7
 10
599.78802384045889
 20
1095.0990992442514
 11
599.78802384045889
 21
1083.5990992442516
  0
ARC
  8
_1-0_
  6
CONTINUOUS
 62
    7
 10
595.78802384045889
 20
1095.0990992442514
 40
4
 50
0
 51
90
  0
LINE
  8
_1-0_
  6
CONTINUOUS
 62
    7
 10
571.288023840459
 20
1099.0990992442514
 11
595.78802384045889
 21
1099.0990992442514
  0
LINE
  8
_1-0_
  6
CONTINUOUS
 62
    7
 10
567.288023840459
 20
1103.0990992442514
 11
567.288023840459
 21
1120.0987212229497
  0
ARC
  8
_1-0_
  6
CONTINUOUS
 62
    7
 10
571.288023840459
 20
1103.0990992442514
 40
4
 50
180
 51
270
  0
LINE
  8
_1-0_
  6
CONTINUOUS
 62
    7
 10
599.78802384045889
 20
1084.0990992442516
 11
615.28802384045821
 21
1084.0990992442516
  0
LINE
  8
_1-0_
  6
CONTINUOUS
 62
    7
 10
625.28802384045821
 20
1085.7742055609513
 11
625.28802384045821
 21
1108.3919924630513
  0
LINE
  8
_1-0_
  6
CONTINUOUS
 62
    7
 10
611.28802384045889
 20
1084.0990992442516
 11
611.28802384045889
 21
1086.0990992442514
  0
LINE
  8
_1-0_
  6
CONTINUOUS
 62
    7
 10
611.28802384045889
 20
1086.0990992442514
 11
603.28802384045889
 21
1086.0990992442514
  0
LINE
  8
_1-0_
  6
CONTINUOUS
 62
    7
 10
603.28802384045889
 20
1086.0990992442514
 11
603.28802384045889
 21
1084.0990992442516
  0
LINE
  8
_1-0_
  6
CONTINUOUS
 62
    7
 10
603.64982723935896
 20
1086.8227060419513
 11
610.92622044165864
 21
1086.8227060419513
  0
LINE
  8
_1-0_
  6
CONTINUOUS
 62
    7
 10
603.64982723939147
 20
1086.8227060420163
 11
603.28802384045889
 21
1086.0990992442514
  0
LINE
  8
_1-0_
  6
CONTINUOUS
 62
    7
 10
610.92622044165864
 20
1086.8227060419513
 11
611.28802384045889
 21
1086.0990992442514
  0
ARC
  8
_1-0_
  6
CONTINUOUS
 62
    7
 10
604.08172364971131
 20
1086.6238829704682
 40
0.4754630616874626
 50
88.153879858032525
 51
155.28106897416146
  0
ARC
  8
_1-0_
  6
CONTINUOUS
 62
    7
 10
610.45686172507806
 20
1086.5632676856626
 40
0.536288975780398
 50
28.931653683084331
 51
79.17302881216537
  0
ARC
  8
_1-0_
  6
CONTINUOUS
 62
    7
 10
610.45686172507806
 20
1086.5632676856626
 40
0.536288975780398
 50
79.17302881216537
 51
87.633397488802771
  0
LINE
  8
_1-0_
  6
CONTINUOUS
 62
    7
 10
604.06640646456754
 20
1087.0990992442516
 11
610.47900684562364
 21
1087.0990992442516
  0
LINE
  8
_1-0_
  6
CONTINUOUS
 62
    7
 10
532.2862453832588
 20
1116.5990992442516
 11
532.2862453832588
 21
1108.1825072658667
  0
LINE
  8
_1-0_
  6
CONTINUOUS
 62
    7
 10
532.28624538315887
 20
1100.4704903025242
 11
532.28624538315887
 21
1083.5288264245314
  0
LINE
  8
_1-0_
  6
CONTINUOUS
 62
    7
 10
532.2862453832588
 20
1099.5990992442514
 11
519.51039245226775
 21
1099.5990992442514
  0
LINE
  8
_1-0_
  6
CONTINUOUS
 62
    7
 10
532.2862453832588
 20
1113.5990992442516
 11
519.54373231770637
 21
1113.5990992442516
  0
LINE
  8
_1-0_
  6
CONTINUOUS
 62
    7
 10
567.288023840459
 20
1118.5990992442514
 11
558.37892730104954
 21
1118.5990992442514
  0
ARC
  8
_1-0_
  6
CONTINUOUS
 62
    7
 10
533.9838018668695
 20
1116.8830183336145
 40
1.7211356902792785
 50
95.381166731645919
 51
189.49492922082496
  0
LINE
  8
_1-0_
  6
CONTINUOUS
 62
    7
 10
553.68577972295907
 20
1118.5962613948418
 11
533.82239192969951
 21
1118.5962613948418
  0
LINE
  8
_1-0_
  6
CONTINUOUS
 62
    7
 10
531.14168427245886
 20
1100.8215325607514
 11
532.99703865167112
 21
1112.5263180960974
  0
LINE
  8
_1-0_
  6
CONTINUOUS
 62
    7
 10
532.99703865167112
 20
1112.5263180960974
 11
557.54121098145822
 21
1105.0036347933515
  0
LINE
  8
_1-0_
  6
CONTINUOUS
 62
    7
 10
557.54121098145822
 20
1105.0036347933515
 11
555.74279026575869
 21
1093.2762580253514
  0
LINE
  8
_1-0_
  6
CONTINUOUS
 62
    7
 10
555.74279026575869
 20
1093.2762580253514
 11
531.14168427245886
 21
1100.8215325607514
  0
LINE
  8
_1-0_
  6
CONTINUOUS
 62
    7
 10
535.51103051065854
 20
1115.4807535207513
 11
532.99703865167112
 21
1112.5263180960974
  0
LINE
  8
_1-0_
  6
CONTINUOUS
 62
    7
 10
535.51103051065854
 20
1115.4807535207513
 11
560.11213650395848
 21
1107.9354789853514
  0
LINE
  8
_1-0_
  6
CONTINUOUS
 62
    7
 10
560.11213650395848
 20
1107.9354789853514
 11
557.54121098145822
 21
1105.0036347933515
  0
LINE
  8
_1-0_
  6
CONTINUOUS
 62
    7
 10
535.51103051065854
 20
1115.4807535207513
 11
537.22781229516306
 21
1115.4807535207513
  0
LINE
  8
_1-0_
  6
CONTINUOUS
 62
    7
 10
537.33867780485843
 20
1116.2036998214514
 11
537.18880941195891
 21
1115.2264184240512
  0
LINE
  8
_1-0_
  6
CONTINUOUS
 62
    7
 10
537.18880941195891
 20
1115.2264184240512
 11
560.1314138775582
 21
1108.1898140820513
  0
LINE
  8
_1-0_
  6
CONTINUOUS
 62
    7
 10
560.1314138775582
 20
1108.1898140820513
 11
560.28128227055879
 21
1109.1670954793515
  0
LINE
  8
_1-0_
  6
CONTINUOUS
 62
    7
 10
560.28128227055879
 20
1109.1670954793515
 11
563.10970939525885
 21
1109.1670954793515
  0
LINE
  8
_1-0_
  6
CONTINUOUS
 62
    7
 10
563.10970939525885
 20
1109.1670954793515
 11
562.98584292440955
 21
1108.3593708131514
  0
LINE
  8
_1-0_
  6
CONTINUOUS
 62
    7
 10
562.98584292440955
 20
1108.3593708131514
 11
560.1314138775582
 21
1108.1898140820513
  0
LINE
  8
_1-0_
  6
CONTINUOUS
 62
    7
 10
560.28128227055879
 20
1109.1670954793515
 11
537.33867780485843
 21
1116.2036998214514
  0
LINE
  8
_1-0_
  6
CONTINUOUS
 62
    7
 10
537.33867780485843
 20
1116.2036998214514
 11
550.83156574315888
 21
1116.0341430902515
  0
LINE
  8
_1-0_
  6
CONTINUOUS
 62
    7
 10
555.74279026575869
 20
1093.2762580253514
 11
580.13797421665879
 21
1093.2762580253514
  0
LINE
  8
_1-0_
  6
CONTINUOUS
 62
    7
 10
580.13797421665879
 20
1093.2762580253514
 11
581.02713859288224
 21
1099.1167942865736
  0
LINE
  8
_1-0_
  6
CONTINUOUS
 62
    7
 10
563.10970939525885
 20
1109.1670954793515
 11
567.28134200264117
 21
1109.1946308532993
  0
LINE
  8
_1-0_
  6
CONTINUOUS
 62
    7
 10
562.98584292445889
 20
1108.3593708131514
 11
567.28134200264117
 21
1108.2427202124995
  0
LINE
  8
_1-0_
  6
CONTINUOUS
 62
    7
 10
550.83156574315888
 20
1116.0341430902515
 11
567.32272942180634
 21
1110.9329024582375
  0
LINE
  8
_1-0_
  6
CONTINUOUS
 62
    7
 10
550.11246095227875
 20
1116.0649424347216
 11
554.11075916905838
 21
1118.9012384114512
  0
LINE
  8
_1-0_
  6
CONTINUOUS
 62
    7
 10
554.11075916905838
 20
1118.9012384114512
 11
554.94000993295901
 21
1118.6469033147514
  0
LINE
  8
_1-0_
  6
CONTINUOUS
 62
    7
 10
554.94000993295901
 20
1118.6469033147514
 11
551.21612546335064
 21
1115.9545759836146
  0
LINE
  8
_1-0_
  6
CONTINUOUS
 62
    7
 10
554.94000993295901
 20
1118.6469033147514
 11
558.19680349588054
 21
1118.6309624229639
  0
LINE
  8
_1-0_
  6
CONTINUOUS
 62
    7
 10
558.19680349588054
 20
1118.6309624229639
 11
557.39664672535332
 21
1118.9344701635086
  0
LINE
  8
_1-0_
  6
CONTINUOUS
 62
    7
 10
557.39664672535332
 20
1118.9344701635086
 11
554.11075916905838
 21
1118.9012384114512
  0
LINE
  8
_1-0_
  6
CONTINUOUS
 62
    7
 10
558.56688935055843
 20
1114.9182683816512
 11
558.92836100778959
 21
1117.3124296268588
  0
LINE
  8
_1-0_
  6
CONTINUOUS
 62
    7
 10
554.5439097541589
 20
1114.8955497790514
 11
559.55506165235829
 21
1114.8955497790514
  0
LINE
  8
_1-0_
  6
CONTINUOUS
 62
    7
 10
558.04478150475859
 20
1113.8218160014512
 11
561.85043296475874
 21
1116.5274441755514
  0
LINE
  8
_1-0_
  6
CONTINUOUS
 62
    7
 10
561.85043296475874
 20
1116.5274441755514
 11
562.67968372855898
 21
1116.2731090788511
  0
LINE
  8
_1-0_
  6
CONTINUOUS
 62
    7
 10
562.67968372855898
 20
1116.2731090788511
 11
558.87403226855849
 21
1113.5674809047514
  0
LINE
  8
_1-0_
  6
CONTINUOUS
 62
    7
 10
561.85043296475874
 20
1116.5274441755514
 11
565.78564807895805
 21
1116.5222141087079
  0
LINE
  8
_1-0_
  6
CONTINUOUS
 62
    7
 10
565.78564807895805
 20
1116.5222141087079
 11
566.66387737911191
 21
1116.2601793917074
  0
LINE
  8
_1-0_
  6
CONTINUOUS
 62
    7
 10
566.66387737911191
 20
1116.2601793917074
 11
562.67968372855898
 21
1116.2731090788511
  0
LINE
  8
_1-0_
  6
CONTINUOUS
 62
    7
 10
562.42179201045883
 20
1112.4793663603514
 11
566.78802384045889
 21
1112.4793663603514
  0
ARC
  8
_1-0_
  6
CONTINUOUS
 62
    7
 10
557.91332978167657
 20
1117.5993904440659
 40
1.073164205599153
 50
339.56950731310468
 51
76.265285345005807
  0
ARC
  8
_1-0_
  6
CONTINUOUS
 62
    7
 10
537.38153463812387
 20
1108.4966086022371
 40
2.3348451583472172
 50
152.18508335579313
 51
255.73989459336377
  0
ARC
  8
_1-0_
  6
CONTINUOUS
 62
    7
 10
535.95338275087261
 20
1108.5894952061881
 40
2.5054722822445767
 50
289.9051417068946
 51
36.583360434704773
  0
ARC
  8
_1-0_
  6
CONTINUOUS
 62
    7
 10
536.75674061994937
 20
1109.5477095717515
 40
1.440793222892647
 50
22.195600874231488
 51
178.4736763889685
  0
ARC
  8
_1-0_
  6
CONTINUOUS
 62
    7
 10
545.21721286758088
 20
1106.0187749442925
 40
2.3348451583472172
 50
152.18508335579313
 51
255.73989459336377
  0
ARC
  8
_1-0_
  6
CONTINUOUS
 62
    7
 10
543.78906098032962
 20
1106.1116615482438
 40
2.5054722822445767
 50
289.9051417068946
 51
36.583360434704773
  0
ARC
  8
_1-0_
  6
CONTINUOUS
 62
    7
 10
544.59241884940639
 20
1107.069875913807
 40
1.440793222892647
 50
22.195600874231488
 51
178.4736763889685
  0
ARC
  8
_1-0_
  6
CONTINUOUS
 62
    7
 10
553.16359734729872
 20
1103.618304632711
 40
2.3348451583472172
 50
152.18508335579313
 51
255.73989459336377
  0
ARC
  8
_1-0_
  6
CONTINUOUS
 62
    7
 10
551.73544546004746
 20
1103.7111912366622
 40
2.5054722822445767
 50
289.9051417068946
 51
36.583360434704773
  0
ARC
  8
_1-0_
  6
CONTINUOUS
 62
    7
 10
552.53880332912422
 20
1104.6694056022257
 40
1.440793222892647
 50
22.195600874231488
 51
178.4736763889685
  0
LINE
  8
_1-0_
  6
CONTINUOUS
 62
    7
 10
500.07589180615946
 20
1147.7640032022618
 11
500.07589180615946
 21
1134.7330995535667
  0
LINE
  8
_1-0_
  6
CONTINUOUS
 62
    7
 10
500.07589180615946
 20
1134.7330995535667
 11
511.02185087105977
 21
1134.7330995535667
  0
LINE
  8
_1-0_
  6
CONTINUOUS
 62
    7
 10
511.02185087105977
 20
1134.7330995535667
 11
511.02185087105977
 21
1147.7640032022618
  0
LINE
  8
_1-0_
  6
CONTINUOUS
 62
    7
 10
511.02185087105977
 20
1147.7640032022618
 11
500.07589180615946
 21
1147.7640032022618
  0
LINE
  8
_1-0_
  6
CONTINUOUS
 62
    7
 10
511.02185087106068
 20
1143.4950325805739
 11
573.29561162319226
 21
1143.4950325805739
  0
LINE
  8
_1-0_
  6
CONTINUOUS
 62
    7
 10
511.02185087105977
 20
1138.4950325805737
 11
575.54674051895199
 21
1138.4950325805737
  0
LINE
  8
_1-0_
  6
CONTINUOUS
 62
    7
 10
590.78802384045889
 20
1114.8990992442511
 11
608.288023840459
 21
1114.8990992442511
  0
LINE
  8
_1-0_
  6
CONTINUOUS
 62
    7
 10
590.78802384045889
 20
1105.2990992442515
 11
608.28802384045912
 21
1105.2990992442515
  0
LINE
  8
_1-0_
  6
CONTINUOUS
 62
    7
 10
590.78802384045889
 20
1114.8990992442511
 11
590.78802384045889
 21
1105.2990992442515
  0
LINE
  8
_1-0_
  6
CONTINUOUS
 62
    7
 10
596.38802384045857
 20
1114.8990992442511
 11
596.38802384045857
 21
1105.2990992442515
  0
LINE
  8
_1-0_
  6
CONTINUOUS
 62
    7
 10
600.78802384045889
 20
1114.8990992442511
 11
600.78802384045889
 21
1105.2990992442515
  0
LINE
  8
_1-0_
  6
CONTINUOUS
 62
    7
 10
587.00583411857974
 20
1138.4950325805737
 11
577.54674051895222
 21
1138.4950325805737
  0
LINE
  8
_1-0_
  6
CONTINUOUS
 62
    7
 10
592.00583411857974
 20
1133.4950325805737
 11
592.00583411857974
 21
1114.8990992442511
  0
ARC
  8
_1-0_
  6
CONTINUOUS
 62
    7
 10
587.00583411857974
 20
1133.4950325805737
 40
5
 50
0
 51
90
  0
LINE
  8
_1-0_
  6
CONTINUOUS
 62
    7
 10
587.00583411857963
 20
1143.4950325805737
 11
575.29561162319237
 21
1143.4950325805737
  0
LINE
  8
_1-0_
  6
CONTINUOUS
 62
    7
 10
597.00583411857963
 20
1133.4950325805737
 11
597.00583411857963
 21
1114.8990992442511
  0
ARC
  8
_1-0_
  6
CONTINUOUS
 62
    7
 10
587.00583411857963
 20
1133.4950325805737
 40
10
 50
0
 51
90
  0
ARC
  8
_1-0_
  6
CONTINUOUS
 62
    7
 10
576.10261379798646
 20
1143.3628210108932
 40
2.8224478753223381
 50
126.37209995916091
 51
233.62790004083172
  0
ARC
  8
_1-0_
  6
CONTINUOUS
 62
    7
 10
578.30975787081127
 20
1143.3628210108932
 40
2.9500086393346021
 50
129.61324093218653
 51
230.38675906780637
  0
ARC
  8
_1-0_
  6
CONTINUOUS
 62
    7
 10
572.53762859648009
 20
1138.8176488022013
 40
2.9565649933942919
 50
309.7665063706005
 51
50.233493629381442
  0
ARC
  8
_1-0_
  6
CONTINUOUS
 62
    7
 10
574.35942496098028
 20
1138.8176488022018
 40
3.0736085839927361
 50
312.32077995440773
 51
47.6792200454152
  0
ARC
  8
_1-0_
  6
CONTINUOUS
 62
    7
 10
601.02882832762589
 20
1110.0990992442514
 40
8.7026386512103215
 50
326.52611461744391
 51
33.473885382553405
  0
CIRCLE
  8
_1-0_
  6
CONTINUOUS
 62
    7
 10
604.788023840459
 20
1110.0990992442514
 40
3.5
  0
CIRCLE
  8
_1-0_
  6
CONTINUOUS
 62
    7
 10
604.788023840459
 20
1110.0990992442514
 40
4
  0
LINE
  8
_1-0_
  6
CONTINUOUS
 62
    7
 10
604.28802384045889
 20
1112.0990992442516
 11
605.28802384045889
 21
1112.0990992442516
  0
LINE
  8
_1-0_
  6
CONTINUOUS
 62
    7
 10
605.28802384045889
 20
1112.0990992442516
 11
605.28802384045889
 21
1110.5990992442516
  0
LINE
  8
_1-0_
  6
CONTINUOUS
 62
    7
 10
605.28802384045889
 20
1110.5990992442516
 11
606.78802384045889
 21
1110.5990992442516
  0
LINE
  8
_1-0_
  6
CONTINUOUS
 62
    7
 10
606.78802384045889
 20
1110.5990992442516
 11
606.78802384045889
 21
1109.5990992442516
  0
LINE
  8
_1-0_
  6
CONTINUOUS
 62
    7
 10
606.78802384045889
 20
1109.5990992442516
 11
605.28802384045889
 21
1109.5990992442516
  0
LINE
  8
_1-0_
  6
CONTINUOUS
 62
    7
 10
605.28802384045889
 20
1109.5990992442516
 11
605.28802384045889
 21
1108.0990992442514
  0
LINE
  8
_1-0_
  6
CONTINUOUS
 62
    7
 10
605.28802384045889
 20
1108.0990992442514
 11
604.28802384045889
 21
1108.0990992442514
  0
LINE
  8
_1-0_
  6
CONTINUOUS
 62
    7
 10
604.28802384045889
 20
1108.0990992442514
 11
604.28802384045889
 21
1109.5990992442516
  0
LINE
  8
_1-0_
  6
CONTINUOUS
 62
    7
 10
604.28802384045889
 20
1109.5990992442516
 11
602.788023840459
 21
1109.5990992442516
  0
LINE
  8
_1-0_
  6
CONTINUOUS
 62
    7
 10
602.788023840459
 20
1109.5990992442516
 11
602.788023840459
 21
1110.5990992442516
  0
LINE
  8
_1-0_
  6
CONTINUOUS
 62
    7
 10
602.788023840459
 20
1110.5990992442516
 11
604.28802384045889
 21
1110.5990992442516
  0
LINE
  8
_1-0_
  6
CONTINUOUS
 62
    7
 10
604.28802384045889
 20
1110.5990992442516
 11
604.28802384045889
 21
1112.0990992442516
  0
LINE
  8
_1-0_
  6
CONTINUOUS
 62
    7
 10
658.88802384045925
 20
1120.0990992442514
 11
658.88802384045925
 21
1121.5990992442514
  0
LINE
  8
_1-0_
  6
CONTINUOUS
 62
    7
 10
658.88802384045925
 20
1121.5990992442514
 11
666.88802384045835
 21
1121.5990992442514
  0
LINE
  8
_1-0_
  6
CONTINUOUS
 62
    7
 10
666.88802384045835
 20
1121.5990992442514
 11
666.88802384045835
 21
1120.0990992442514
  0
LINE
  8
_1-0_
  6
CONTINUOUS
 62
    7
 10
666.52622044165923
 20
1122.3227060419513
 11
659.24982723933817
 21
1122.3227060419513
  0
LINE
  8
_1-0_
  6
CONTINUOUS
 62
    7
 10
659.69704083485817
 20
1122.5990992442516
 11
666.07900684615834
 21
1122.5990992442516
  0
LINE
  8
_1-0_
  6
CONTINUOUS
 62
    7
 10
658.88802384045925
 20
1121.5990992442514
 11
659.24982723933817
 21
1122.3227060419513
  0
LINE
  8
_1-0_
  6
CONTINUOUS
 62
    7
 10
666.88802384045835
 20
1121.5990992442514
 11
666.52622044165832
 21
1122.3227060419513
  0
ARC
  8
_1-0_
  6
CONTINUOUS
 62
    7
 10
659.63719466629504
 20
1122.1959323790779
 40
0.4075844514520972
 50
81.556657921039616
 51
161.87829090889579
  0
ARC
  8
_1-0_
  6
CONTINUOUS
 62
    7
 10
666.12980042768618
 20
1122.1812849855644
 40
0.4208904164600612
 50
19.633630107217733
 51
96.931421064821961
  0
LINE
  8
_1-0_
  6
CONTINUOUS
 62
    7
 10
697.78802384045821
 20
1120.0990992442514
 11
697.78802384045821
 21
1121.5990992442514
  0
LINE
  8
_1-0_
  6
CONTINUOUS
 62
    7
 10
697.78802384045821
 20
1121.5990992442514
 11
705.78802384045821
 21
1121.5990992442514
  0
LINE
  8
_1-0_
  6
CONTINUOUS
 62
    7
 10
705.78802384045821
 20
1121.5990992442514
 11
705.78802384045821
 21
1120.0990992442514
  0
LINE
  8
_1-0_
  6
CONTINUOUS
 62
    7
 10
705.78802384045821
 20
1121.5990992442514
 11
705.42622044165046
 21
1122.3227060419667
  0
LINE
  8
_1-0_
  6
CONTINUOUS
 62
    7
 10
705.42622044165046
 20
1122.3227060419667
 11
698.14982723935827
 21
1122.3227060419513
  0
LINE
  8
_1-0_
  6
CONTINUOUS
 62
    7
 10
697.78802384045821
 20
1121.5990992442514
 11
698.14982723935827
 21
1122.3227060419513
  0
ARC
  8
_1-0_
  6
CONTINUOUS
 62
    7
 10
698.56422257240888
 20
1122.1522003083774
 40
0.448102328978341
 50
85.799992852913036
 51
157.63495597932464
  0
ARC
  8
_1-0_
  6
CONTINUOUS
 62
    7
 10
704.99795215366851
 20
1122.1297533957668
 40
0.4697280598033778
 50
24.25354209505954
 51
92.311509074692907
  0
LINE
  8
_1-0_
  6
CONTINUOUS
 62
    7
 10
698.59704083485826
 20
1122.5990992442516
 11
704.9790068461582
 21
1122.5990992442516
  0
LINE
  8
_1-0_
  6
CONTINUOUS
 62
    7
 10
625.28802384045821
 20
1108.3919924630513
 11
615.78802384045821
 21
1117.8919924630513
  0
LINE
  8
_1-0_
  6
CONTINUOUS
 62
    7
 10
616.99513062165829
 20
1118.0990992442516
 11
625.99513062165829
 21
1109.0990992442516
  0
LINE
  8
_1-0_
  6
CONTINUOUS
 62
    7
 10
854.58091705925813
 20
1109.0990992442516
 11
863.6880238404583
 21
1118.2062060254514
  0
LINE
  8
_1-0_
  6
CONTINUOUS
 62
    7
 10
855.28802384045821
 20
1108.3919924630513
 11
865.28802384045821
 21
1118.0990992442516
  0
LINE
  8
_1-0_
  6
CONTINUOUS
 62
    7
 10
854.58091705925813
 20
1109.0990992442516
 11
625.99513062165829
 21
1109.0990992442516
  0
LINE
  8
_1-0_
  6
CONTINUOUS
 62
    7
 10
855.28802384045821
 20
1108.3919924630513
 11
855.28802384045821
 21
952.09909924425142
  0
LINE
  8
_1-0_
  6
CONTINUOUS
 62
    7
 10
864.78802384045821
 20
1119.0990992442514
 11
615.78802384045775
 21
1119.0990992442514
  0
LINE
  8
_1-0_
  6
CONTINUOUS
 62
    7
 10
865.28802384045821
 20
1118.5990992442514
 11
865.28802384045821
 21
972.09909924425142
  0
ARC
  8
_1-0_
  6
CONTINUOUS
 62
    7
 10
864.78802384045821
 20
1118.5990992442514
 40
0.5
 50
0
 51
90
  0
LINE
  8
_1-0_
  6
CONTINUOUS
 62
    7
 10
865.28802384045821
 20
1118.0990992442516
 11
866.08802384045816
 21
1118.0990992442516
  0
LINE
  8
_1-0_
  6
CONTINUOUS
 62
    7
 10
866.08802384045816
 20
1118.0990992442516
 11
866.08802384045816
 21
997.09909924425165
  0
LINE
  8
_1-0_
  6
CONTINUOUS
 62
    7
 10
866.08802384045816
 20
997.09909924425165
 11
865.28802384045821
 21
997.09909924425165
  0
LINE
  8
_1-0_
  6
CONTINUOUS
 62
    7
 10
866.08802384045816
 20
1008.0990992442514
 11
868.0880238404593
 21
1008.0990992442514
  0
LINE
  8
_1-0_
  6
CONTINUOUS
 62
    7
 10
868.0880238404593
 20
1008.0990992442514
 11
868.0880238404593
 21
1016.0990992442515
  0
LINE
  8
_1-0_
  6
CONTINUOUS
 62
    7
 10
868.0880238404593
 20
1016.0990992442515
 11
866.08802384045816
 21
1016.0990992442515
  0
LINE
  8
_1-0_
  6
CONTINUOUS
 62
    7
 10
868.81163063824943
 20
1015.7372958453312
 11
868.81163063824943
 21
1008.4609026430072
  0
LINE
  8
_1-0_
  6
CONTINUOUS
 62
    7
 10
869.08802384045816
 20
1008.9081162385515
 11
869.08802384045816
 21
1015.2900822498514
  0
LINE
  8
_1-0_
  6
CONTINUOUS
 62
    7
 10
868.0880238404593
 20
1008.0990992442514
 11
868.81163063824943
 21
1008.460902643047
  0
LINE
  8
_1-0_
  6
CONTINUOUS
 62
    7
 10
868.0880238404593
 20
1016.0990992442515
 11
868.81163063821941
 21
1015.7372958453708
  0
ARC
  8
_1-0_
  6
CONTINUOUS
 62
    7
 10
868.48985021856993
 20
1015.2294076147326
 40
0.6012429569397363
 50
5.7918820286489172
 51
57.643066788923868
  0
ARC
  8
_1-0_
  6
CONTINUOUS
 62
    7
 10
868.56712478324255
 20
1008.9210325662431
 40
0.5210591706838858
 50
297.98547887369671
 51
358.57957230851338
  0
LINE
  8
_1-0_
  6
CONTINUOUS
 62
    7
 10
869.08802384045816
 20
1010.0990992442515
 11
890.28802384045935
 21
1010.0990992442515
  0
LINE
  8
_1-0_
  6
CONTINUOUS
 62
    7
 10
890.28802384045935
 20
1010.0990992442515
 11
890.28802384045935
 21
1114.0990992442514
  0
LINE
  8
_1-0_
  6
CONTINUOUS
 62
    7
 10
890.28802384045935
 20
1114.0990992442514
 11
869.08802384045816
 21
1114.0990992442514
  0
LINE
  8
_1-0_
  6
CONTINUOUS
 62
    7
 10
869.08802384045816
 20
1114.0990992442514
 11
869.08802384045816
 21
1015.2900822498514
  0
ARC
  8
_1-0_
  6
CONTINUOUS
 62
    7
 10
869.44803524254144
 20
1007.0373310528722
 40
3.3605791065820489
 50
161.58194784046134
 51
178.94683152505945
  0
ARC
  8
_1-0_
  6
CONTINUOUS
 62
    7
 10
869.12072392995003
 20
1117.1317993337434
 40
3.032876378729743
 50
180.61776781698197
 51
269.382232183018
  0
LINE
  8
_1-0_
  6
CONTINUOUS
 62
    7
 10
890.28802384045935
 20
1114.0990992442514
 11
925.28802384045821
 21
1108.5990992442544
  0
LINE
  8
_1-0_
  6
CONTINUOUS
 62
    7
 10
925.28802384045821
 20
1108.5990992442544
 11
925.28802384045935
 21
1015.5990992442482
  0
LINE
  8
_1-0_
  6
CONTINUOUS
 62
    7
 10
925.28802384045935
 20
1015.5990992442482
 11
890.28802384045935
 21
1010.0990992442515
  0
LINE
  8
_1-0_
  6
CONTINUOUS
 62
    7
 10
924.61221410765825
 20
1015.4929005719514
 11
924.61221410765825
 21
1108.5990992442544
  0
LINE
  8
_1-0_
  6
CONTINUOUS
 62
    7
 10
871.67383267175819
 20
972.09909924425142
 11
871.98802384045825
 21
952.09909924425153
  0
ARC
  8
_1-0_
  6
CONTINUOUS
 62
    7
 10
864.58410905278367
 20
968.55174664257027
 40
3.5595235340613942
 50
94.73944453819729
 51
173.77117804002873
  0
LINE
  8
_1-0_
  6
CONTINUOUS
 62
    7
 10
871.67383267175819
 20
972.09909924425142
 11
864.29000480445859
 21
972.09909924425142
  0
LINE
  8
_1-0_
  6
CONTINUOUS
 62
    7
 10
857.1649383767583
 20
952.09909924425142
 11
861.05600086359721
 21
968.9355490058706
  0
LINE
  8
_1-0_
  6
CONTINUOUS
 62
    7
 10
666.46877980465183
 20
960.47966353182437
 11
664.84443030105831
 21
952.09909924425142
  0
ARC
  8
_1-0_
  6
CONTINUOUS
 62
    7
 10
668.43223869727581
 20
960.09909924425142
 40
2
 50
90
 51
169.03074975922081
  0
LINE
  8
_1-0_
  6
CONTINUOUS
 62
    7
 10
680.45294427420197
 20
962.09909924425142
 11
668.43223869727581
 21
962.09909924425142
  0
LINE
  8
_1-0_
  6
CONTINUOUS
 62
    7
 10
682.41233294696144
 20
960.50009304602679
 11
684.13161737995824
 21
952.09909924425142
  0
ARC
  8
_1-0_
  6
CONTINUOUS
 62
    7
 10
680.45294427420197
 20
960.09909924425142
 40
2
 50
11.566017940693619
 51
90
  0
LINE
  8
_1-0_
  6
CONTINUOUS
 62
    7
 10
442.18802384045887
 20
952.09909924425142
 11
906.42542893328618
 21
952.09909924425142
  0
LINE
  8
_1-0_
  6
CONTINUOUS
 62
    7
 10
906.78802384045935
 20
952.09909924425142
 11
906.42542893328618
 21
952.09909924425142
  0
LINE
  8
_1-0_
  6
CONTINUOUS
 62
    7
 10
906.78802384045935
 20
952.09909924425142
 11
906.78802384045935
 21
950.59909924425142
  0
LINE
  8
_1-0_
  6
CONTINUOUS
 62
    7
 10
906.78802384050914
 20
950.59909924425142
 11
441.48802384050839
 21
950.59909924425142
  0
LINE
  8
_1-0_
  6
CONTINUOUS
 62
    7
 10
442.18802384050889
 20
950.59909924425142
 11
442.18802384050889
 21
952.09909924425142
  0
LINE
  8
_1-0_
  6
CONTINUOUS
 62
    7
 10
906.78802384045935
 20
950.59909924425142
 11
907.48802384050919
 21
950.59909924425142
  0
LINE
  8
_1-0_
  6
CONTINUOUS
 62
    7
 10
907.48802384050919
 20
950.59909924425142
 11
907.03309505067682
 21
941.61672502190083
  0
LINE
  8
_1-0_
  6
CONTINUOUS
 62
    7
 10
907.03309505067682
 20
941.61672502190083
 11
441.95569407700862
 21
941.61672502190083
  0
LINE
  8
_1-0_
  6
CONTINUOUS
 62
    7
 10
442.73384942621146
 20
927.98906503012142
 11
441.48802384050839
 21
950.59909924425142
  0
ARC
  8
_1-0_
  6
CONTINUOUS
 62
    7
 10
444.7308202501643
 20
928.09909924425938
 40
2
 50
183.15384045322881
 51
270
  0
LINE
  8
_1-0_
  6
CONTINUOUS
 62
    7
 10
904.34590668280362
 20
926.09909924425119
 11
890.6678804682092
 21
926.09909924425119
  0
LINE
  8
_1-0_
  6
CONTINUOUS
 62
    7
 10
906.3433465055906
 20
927.99793524697725
 11
907.03309505067682
 21
941.61672502190083
  0
ARC
  8
_1-0_
  6
CONTINUOUS
 62
    7
 10
904.34590668280362
 20
928.09909924425119
 40
2
 50
270
 51
357.10062770200739
  0
ARC
  8
_1-0_
  6
CONTINUOUS
 62
    7
 10
904.40932925418804
 20
931.33946060359892
 40
2.0676062667692618
 50
271.74654369637108
 51
355.20176062680275
  0
ARC
  8
_1-0_
  6
CONTINUOUS
 62
    7
 10
444.6269577725285
 20
931.40309360213519
 40
2.133755774431402
 50
186.36582137263451
 51
266.6884673264625
  0
LINE
  8
_1-0_
  6
CONTINUOUS
 62
    7
 10
444.50370142323686
 20
929.27290074743678
 11
904.47234620750828
 21
929.27290074743678
  0
LINE
  8
_1-0_
  6
CONTINUOUS
 62
    7
 10
474.05250444160879
 20
926.09909924425142
 11
474.05250444160879
 21
927.53397980785542
  0
LINE
  8
_1-0_
  6
CONTINUOUS
 62
    7
 10
682.92656855640121
 20
927.53978048012777
 11
682.92656855640121
 21
926.0990992442056
  0
LINE
  8
_1-0_
  6
CONTINUOUS
 62
    7
 10
682.95103941010825
 20
926.09909924425142
 11
729.94533621850815
 21
926.09909924425142
  0
LINE
  8
_1-0_
  6
CONTINUOUS
 62
    7
 10
729.94533621850815
 20
926.09909924425142
 11
729.94533621850815
 21
927.49720515133708
  0
LINE
  8
_1-0_
  6
CONTINUOUS
 62
    7
 10
730.07774520188832
 20
927.49720515133708
 11
839.84246011230925
 21
927.49720515133708
  0
LINE
  8
_1-0_
  6
CONTINUOUS
 62
    7
 10
839.84246011230925
 20
926.13589148398125
 11
855.53876562510823
 21
926.13589148398125
  0
LINE
  8
_1-0_
  6
CONTINUOUS
 62
    7
 10
907.42098347475621
 20
949.37842316295394
 11
441.59094168034233
 21
949.37842316295394
  0
LINE
  8
_1-0_
  6
CONTINUOUS
 62
    7
 10
441.58590699616178
 20
948.82265354935794
 11
907.39805249549772
 21
948.82265354935794
  0
LINE
  8
_1-0_
  6
CONTINUOUS
 62
    7
 10
890.66788046820898
 20
926.09909924428496
 11
890.66788046820898
 21
927.58765290465112
  0
LINE
  8
_1-0_
  6
CONTINUOUS
 62
    7
 10
888.22820068835904
 20
927.58765290465112
 11
890.33782795780826
 21
926.19803503645142
  0
ARC
  8
_1-0_
  6
CONTINUOUS
 62
    7
 10
890.6736583857047
 20
926.71837453494084
 40
0.6193022444568622
 50
237.1615441805836
 51
269.46543857598067
  0
LINE
  8
_1-0_
  6
CONTINUOUS
 62
    7
 10
855.53876562510823
 20
926.13589148398125
 11
855.53876562510823
 21
927.58765290465112
  0
LINE
  8
_1-0_
  6
CONTINUOUS
 62
    7
 10
855.53876562510823
 20
927.58765290465112
 11
890.66788046820898
 21
927.58765290465112
  0
LINE
  8
_1-0_
  6
CONTINUOUS
 62
    7
 10
839.84246011230925
 20
927.50416489715121
 11
839.84246011230925
 21
926.13589148398125
  0
LINE
  8
_1-0_
  6
CONTINUOUS
 62
    7
 10
444.7308202501643
 20
926.09909924425938
 11
474.05250444160879
 21
926.09909924425938
  0
ARC
  8
_1-0_
  6
CONTINUOUS
 62
    7
 10
475.51290292767965
 20
927.61682311530728
 40
0.5179572817999961
 50
189.20355031779619
 51
268.27984575651834
  0
ARC
  8
_1-0_
  6
CONTINUOUS
 62
    7
 10
481.79606799810909
 20
928.39571326809255
 40
1.2992597574022
 50
273.65709645589567
 51
318.45182399184432
  0
LINE
  8
_1-0_
  6
CONTINUOUS
 62
    7
 10
501.87764841250623
 20
926.59909924425142
 11
501.87764841250623
 21
927.53397980785542
  0
ARC
  8
_1-0_
  6
CONTINUOUS
 62
    7
 10
502.37764841250623
 20
926.59909924425142
 40
0.5
 50
180
 51
270
  0
LINE
  8
_1-0_
  6
CONTINUOUS
 62
    7
 10
503.59873929791866
 20
926.09909924425142
 11
502.37764841250623
 21
926.09909924425142
  0
LINE
  8
_1-0_
  6
CONTINUOUS
 62
    7
 10
504.09873929791866
 20
926.59909924425142
 11
504.09873929791866
 21
927.5384001914515
  0
ARC
  8
_1-0_
  6
CONTINUOUS
 62
    7
 10
503.59873929791866
 20
926.59909924425142
 40
0.5
 50
270
 51
0
  0
LINE
  8
_1-0_
  6
CONTINUOUS
 62
    7
 10
513.87730838299922
 20
926.59909924425142
 11
513.87730838299922
 21
927.5384001914515
  0
ARC
  8
_1-0_
  6
CONTINUOUS
 62
    7
 10
514.37730838299922
 20
926.59909924425142
 40
0.5
 50
180
 51
270
  0
LINE
  8
_1-0_
  6
CONTINUOUS
 62
    7
 10
516.09941312807689
 20
926.59909924425142
 11
516.09941312807689
 21
927.54715998351821
  0
LINE
  8
_1-0_
  6
CONTINUOUS
 62
    7
 10
515.59941312807689
 20
926.09909924425142
 11
514.37730838299922
 21
926.09909924425142
  0
ARC
  8
_1-0_
  6
CONTINUOUS
 62
    7
 10
515.59941312807689
 20
926.59909924425142
 40
0.5
 50
270
 51
0
  0
LINE
  8
_1-0_
  6
CONTINUOUS
 62
    7
 10
525.87663455284064
 20
926.59909924425142
 11
525.87663455284064
 21
927.54715998351821
  0
ARC
  8
_1-0_
  6
CONTINUOUS
 62
    7
 10
526.37663455284064
 20
926.59909924425142
 40
0.5
 50
180
 51
270
  0
LINE
  8
_1-0_
  6
CONTINUOUS
 62
    7
 10
528.099413128077
 20
926.59909924425142
 11
528.099413128077
 21
927.54715998351821
  0
LINE
  8
_1-0_
  6
CONTINUOUS
 62
    7
 10
527.599413128077
 20
926.09909924425142
 11
526.37663455284064
 21
926.09909924425142
  0
ARC
  8
_1-0_
  6
CONTINUOUS
 62
    7
 10
527.599413128077
 20
926.59909924425142
 40
0.5
 50
270
 51
0
  0
LINE
  8
_1-0_
  6
CONTINUOUS
 62
    7
 10
537.87663455284064
 20
926.59909924425142
 11
537.87663455284064
 21
927.54715998351821
  0
ARC
  8
_1-0_
  6
CONTINUOUS
 62
    7
 10
538.37663455284064
 20
926.59909924425142
 40
0.5
 50
180
 51
270
  0
LINE
  8
_1-0_
  6
CONTINUOUS
 62
    7
 10
539.59928795837573
 20
926.09909924425142
 11
538.37663455284064
 21
926.09909924425142
  0
LINE
  8
_1-0_
  6
CONTINUOUS
 62
    7
 10
540.09928795837573
 20
926.59909924425142
 11
540.09928795837573
 21
927.54553277740138
  0
ARC
  8
_1-0_
  6
CONTINUOUS
 62
    7
 10
539.59928795837573
 20
926.59909924425142
 40
0.5
 50
270
 51
0
  0
LINE
  8
_1-0_
  6
CONTINUOUS
 62
    7
 10
549.87675972254192
 20
926.59909924425142
 11
549.87675972254192
 21
927.54553277740138
  0
ARC
  8
_1-0_
  6
CONTINUOUS
 62
    7
 10
550.37675972254192
 20
926.59909924425142
 40
0.5
 50
180
 51
270
  0
LINE
  8
_1-0_
  6
CONTINUOUS
 62
    7
 10
551.5987392979182
 20
926.09909924425142
 11
550.37675972254192
 21
926.09909924425142
  0
LINE
  8
_1-0_
  6
CONTINUOUS
 62
    7
 10
552.0987392979182
 20
926.59909924425142
 11
552.0987392979182
 21
927.5384001914515
  0
ARC
  8
_1-0_
  6
CONTINUOUS
 62
    7
 10
551.5987392979182
 20
926.59909924425142
 40
0.5
 50
270
 51
0
  0
LINE
  8
_1-0_
  6
CONTINUOUS
 62
    7
 10
561.87730838299922
 20
926.59909924425142
 11
561.87730838299922
 21
927.5384001914515
  0
ARC
  8
_1-0_
  6
CONTINUOUS
 62
    7
 10
562.37730838299922
 20
926.59909924425142
 40
0.5
 50
180
 51
270
  0
LINE
  8
_1-0_
  6
CONTINUOUS
 62
    7
 10
563.59873929791831
 20
926.09909924425142
 11
562.37730838299922
 21
926.09909924425142
  0
LINE
  8
_1-0_
  6
CONTINUOUS
 62
    7
 10
564.09873929791831
 20
926.59909924425142
 11
564.09873929791831
 21
927.5384001914515
  0
ARC
  8
_1-0_
  6
CONTINUOUS
 62
    7
 10
563.59873929791831
 20
926.59909924425142
 40
0.5
 50
270
 51
0
  0
LINE
  8
_1-0_
  6
CONTINUOUS
 62
    7
 10
573.87730838299922
 20
926.59909924425142
 11
573.87730838299922
 21
927.5384001914515
  0
ARC
  8
_1-0_
  6
CONTINUOUS
 62
    7
 10
574.37730838299922
 20
926.59909924425142
 40
0.5
 50
180
 51
270
  0
LINE
  8
_1-0_
  6
CONTINUOUS
 62
    7
 10
575.5987392979182
 20
926.09909924425142
 11
574.37730838299922
 21
926.09909924425142
  0
LINE
  8
_1-0_
  6
CONTINUOUS
 62
    7
 10
576.0987392979182
 20
926.59909924425142
 11
576.0987392979182
 21
927.5384001914515
  0
ARC
  8
_1-0_
  6
CONTINUOUS
 62
    7
 10
575.5987392979182
 20
926.59909924425142
 40
0.5
 50
270
 51
0
  0
LINE
  8
_1-0_
  6
CONTINUOUS
 62
    7
 10
585.87730838299922
 20
926.59909924425142
 11
585.87730838299922
 21
927.5384001914515
  0
ARC
  8
_1-0_
  6
CONTINUOUS
 62
    7
 10
586.37730838299922
 20
926.59909924425142
 40
0.5
 50
180
 51
270
  0
LINE
  8
_1-0_
  6
CONTINUOUS
 62
    7
 10
587.59873929791831
 20
926.09909924425142
 11
586.37730838299922
 21
926.09909924425142
  0
LINE
  8
_1-0_
  6
CONTINUOUS
 62
    7
 10
588.09873929791831
 20
926.59909924425142
 11
588.09873929791831
 21
927.5384001914515
  0
ARC
  8
_1-0_
  6
CONTINUOUS
 62
    7
 10
587.59873929791831
 20
926.59909924425142
 40
0.5
 50
270
 51
0
  0
LINE
  8
_1-0_
  6
CONTINUOUS
 62
    7
 10
600.09873929791831
 20
926.59909924425142
 11
600.09873929791831
 21
927.5384001914515
  0
ARC
  8
_1-0_
  6
CONTINUOUS
 62
    7
 10
599.59873929791831
 20
926.59909924425142
 40
0.5
 50
270
 51
0
  0
LINE
  8
_1-0_
  6
CONTINUOUS
 62
    7
 10
597.87730838299922
 20
926.59909924425142
 11
597.87730838299922
 21
927.5384001914515
  0
LINE
  8
_1-0_
  6
CONTINUOUS
 62
    7
 10
598.37730838299922
 20
926.09909924425142
 11
599.59873929791831
 21
926.09909924425142
  0
ARC
  8
_1-0_
  6
CONTINUOUS
 62
    7
 10
598.37730838299922
 20
926.59909924425142
 40
0.5
 50
180
 51
270
  0
LINE
  8
_1-0_
  6
CONTINUOUS
 62
    7
 10
609.87730838299922
 20
926.59909924425142
 11
609.87730838299922
 21
927.5384001914515
  0
ARC
  8
_1-0_
  6
CONTINUOUS
 62
    7
 10
610.37730838299922
 20
926.59909924425142
 40
0.5
 50
180
 51
270
  0
LINE
  8
_1-0_
  6
CONTINUOUS
 62
    7
 10
611.59873929791843
 20
926.09909924425142
 11
610.37730838299922
 21
926.09909924425142
  0
LINE
  8
_1-0_
  6
CONTINUOUS
 62
    7
 10
612.09873929791843
 20
926.59909924425142
 11
612.09873929791843
 21
927.5384001914515
  0
ARC
  8
_1-0_
  6
CONTINUOUS
 62
    7
 10
611.59873929791843
 20
926.59909924425142
 40
0.5
 50
270
 51
0
  0
LINE
  8
_1-0_
  6
CONTINUOUS
 62
    7
 10
621.87730838299956
 20
926.59909924425142
 11
621.87730838299956
 21
927.5384001914515
  0
ARC
  8
_1-0_
  6
CONTINUOUS
 62
    7
 10
622.37730838299956
 20
926.59909924425142
 40
0.5
 50
180
 51
270
  0
LINE
  8
_1-0_
  6
CONTINUOUS
 62
    7
 10
623.61570188215023
 20
926.09909924425142
 11
622.37730838299956
 21
926.09909924425142
  0
ARC
  8
_1-0_
  6
CONTINUOUS
 62
    7
 10
623.61570188215023
 20
926.59909924425142
 40
0.5
 50
270
 51
0
  0
LINE
  8
_1-0_
  6
CONTINUOUS
 62
    7
 10
636.09884569044448
 20
926.59909924425142
 11
636.09884569044448
 21
927.53978329428605
  0
ARC
  8
_1-0_
  6
CONTINUOUS
 62
    7
 10
635.59884569044448
 20
926.59909924425142
 40
0.5
 50
270
 51
0
  0
LINE
  8
_1-0_
  6
CONTINUOUS
 62
    7
 10
634.39591372626421
 20
926.09909924425142
 11
635.59884569044448
 21
926.09909924425142
  0
ARC
  8
_1-0_
  6
CONTINUOUS
 62
    7
 10
634.39591372626421
 20
926.59909924425142
 40
0.5
 50
180
 51
270
  0
LINE
  8
_1-0_
  6
CONTINUOUS
 62
    7
 10
648.02353551360829
 20
926.59909924425142
 11
648.02353551360829
 21
927.5518640556968
  0
ARC
  8
_1-0_
  6
CONTINUOUS
 62
    7
 10
647.52353551360829
 20
926.59909924425142
 40
0.5
 50
270
 51
0
  0
LINE
  8
_1-0_
  6
CONTINUOUS
 62
    7
 10
645.87720199047396
 20
926.59909924425142
 11
645.87720199047396
 21
927.53978329428605
  0
LINE
  8
_1-0_
  6
CONTINUOUS
 62
    7
 10
646.37720199047396
 20
926.09909924425142
 11
647.52353551360829
 21
926.09909924425142
  0
ARC
  8
_1-0_
  6
CONTINUOUS
 62
    7
 10
646.37720199047396
 20
926.59909924425142
 40
0.5
 50
180
 51
270
  0
ARC
  8
_1-0_
  6
CONTINUOUS
 62
    7
 10
659.54918573770624
 20
926.59909924425142
 40
0.5
 50
270
 51
0
  0
LINE
  8
_1-0_
  6
CONTINUOUS
 62
    7
 10
658.42686194321027
 20
926.09909924425142
 11
659.54918573770624
 21
926.09909924425142
  0
ARC
  8
_1-0_
  6
CONTINUOUS
 62
    7
 10
658.42686194321027
 20
926.59909924425142
 40
0.5
 50
180
 51
270
  0
ARC
  8
_1-0_
  6
CONTINUOUS
 62
    7
 10
671.54918573773034
 20
926.59909924425142
 40
0.5
 50
270
 51
0
  0
LINE
  8
_1-0_
  6
CONTINUOUS
 62
    7
 10
670.45251216730912
 20
926.09909924425142
 11
671.54918573773034
 21
926.09909924425142
  0
LINE
  8
_1-0_
  6
CONTINUOUS
 62
    7
 10
669.95251216730912
 20
926.59909924425142
 11
669.95251216730912
 21
927.5384001914515
  0
ARC
  8
_1-0_
  6
CONTINUOUS
 62
    7
 10
670.45251216730912
 20
926.59909924425142
 40
0.5
 50
180
 51
270
  0
LINE
  8
_1-0_
  6
CONTINUOUS
 62
    7
 10
672.04918573773034
 20
926.59909924425142
 11
672.04918573773034
 21
927.53978048012777
  0
LINE
  8
_1-0_
  6
CONTINUOUS
 62
    7
 10
672.04918573773034
 20
927.53978048012777
 11
682.92656855640121
 21
927.53978048012777
  0
LINE
  8
_1-0_
  6
CONTINUOUS
 62
    7
 10
660.04918573770624
 20
927.5384001914515
 11
669.95251216730912
 21
927.5384001914515
  0
LINE
  8
_1-0_
  6
CONTINUOUS
 62
    7
 10
660.04918573770624
 20
926.59909924425142
 11
660.04918573770624
 21
927.5384001914515
  0
LINE
  8
_1-0_
  6
CONTINUOUS
 62
    7
 10
657.92686194321027
 20
926.59909924425142
 11
657.92686194321027
 21
927.5518640556968
  0
LINE
  8
_1-0_
  6
CONTINUOUS
 62
    7
 10
648.02353551360829
 20
927.5518640556968
 11
657.92686194321027
 21
927.5518640556968
  0
LINE
  8
_1-0_
  6
CONTINUOUS
 62
    7
 10
636.09884569044448
 20
927.53978329428605
 11
645.87720199047396
 21
927.53978329428605
  0
LINE
  8
_1-0_
  6
CONTINUOUS
 62
    7
 10
633.89591372626421
 20
926.59909924425142
 11
633.89591372626421
 21
927.56790050612926
  0
LINE
  8
_1-0_
  6
CONTINUOUS
 62
    7
 10
624.11570188215023
 20
927.56790050612926
 11
633.89591372626421
 21
927.56790050612926
  0
LINE
  8
_1-0_
  6
CONTINUOUS
 62
    7
 10
624.11570188215023
 20
926.59909924425142
 11
624.11570188215023
 21
927.56790050612926
  0
LINE
  8
_1-0_
  6
CONTINUOUS
 62
    7
 10
612.09873929791843
 20
927.5384001914515
 11
621.87730838299956
 21
927.5384001914515
  0
LINE
  8
_1-0_
  6
CONTINUOUS
 62
    7
 10
600.09873929791831
 20
927.5384001914515
 11
609.87730838299922
 21
927.5384001914515
  0
LINE
  8
_1-0_
  6
CONTINUOUS
 62
    7
 10
588.09873929791831
 20
927.5384001914515
 11
597.87730838299922
 21
927.5384001914515
  0
LINE
  8
_1-0_
  6
CONTINUOUS
 62
    7
 10
576.0987392979182
 20
927.5384001914515
 11
585.87730838299922
 21
927.5384001914515
  0
LINE
  8
_1-0_
  6
CONTINUOUS
 62
    7
 10
564.09873929791831
 20
927.5384001914515
 11
573.87730838299922
 21
927.5384001914515
  0
LINE
  8
_1-0_
  6
CONTINUOUS
 62
    7
 10
552.0987392979182
 20
927.5384001914515
 11
561.87730838299922
 21
927.5384001914515
  0
LINE
  8
_1-0_
  6
CONTINUOUS
 62
    7
 10
540.09928795837573
 20
927.54553277740138
 11
549.87675972254192
 21
927.54553277740138
  0
LINE
  8
_1-0_
  6
CONTINUOUS
 62
    7
 10
528.099413128077
 20
927.54715998351821
 11
537.87663455284064
 21
927.54715998351821
  0
LINE
  8
_1-0_
  6
CONTINUOUS
 62
    7
 10
516.09941312807689
 20
927.54715998351821
 11
525.87663455284064
 21
927.54715998351821
  0
LINE
  8
_1-0_
  6
CONTINUOUS
 62
    7
 10
504.09873929791866
 20
927.5384001914515
 11
513.87730838299922
 21
927.5384001914515
  0
LINE
  8
_1-0_
  6
CONTINUOUS
 62
    7
 10
474.05250444160879
 20
927.53397980785542
 11
501.87764841250623
 21
927.53397980785542
  0
LINE
  8
_1-0_
  6
CONTINUOUS
 62
    7
 10
481.87894133750865
 20
927.09909924425142
 11
475.49735496610867
 21
927.09909924425142
  0
LINE
  8
_1-0_
  6
CONTINUOUS
 62
    7
 10
1622.4312664533081
 20
778.20687646796364
 11
1619.4312664533081
 21
778.20687646796364
  0
LINE
  8
_1-0_
  6
CONTINUOUS
 62
    7
 10
1622.4312664533081
 20
674.20687646796375
 11
1619.4312664533081
 21
674.20687646796375
  0
LINE
  8
_1-0_
  6
CENTER2
 62
    7
 10
1702.8413984420915
 20
687.70687646796353
 11
1172.4842555849486
 21
687.70687646796353
  0
LINE
  8
_1-0_
  6
CENTER2
 62
    7
 10
1427.8312664533089
 20
504.35592114932365
 11
1427.8312664533089
 21
877.72734972075227
  0
LINE
  8
_1-0_
  6
CENTER2
 62
    7
 10
948.41618349500163
 20
687.70687646796353
 11
424.95368349500166
 21
687.70687646796353
  0
LINE
  8
_1-0_
  6
CENTER2
 62
    7
 10
674.48802384045825
 20
1139.3957996992513
 11
674.48802384045825
 21
902.72761427101682
  0
LINE
  8
_1-0_
  6
CENTER2
 62
    7
 10
674.48802384045825
 20
878.86154284244537
 11
674.48802384045825
 21
504.95975712815965
  0
LINE
  8
_1-0_
  6
CENTER2
 62
    7
 10
1229.5521801907973
 20
920.60043173133431
 11
1229.5521801907973
 21
1175.171860302763
  0
LINE
  8
_1-0_
  6
CENTER2
 62
    7
 10
935.4988537367592
 20
1062.0990992442514
 11
820.90421259553023
 21
1062.0990992442514
  0
INSERT
  2
-017-_D9
  8
0_COMPONENTS
 10
-385.40730924019977
 20
1511.7991746252028
 41
1
 42
1
 50
0
  0
TEXT
  8
0
 62
    7
 10
1697.0385912698414
 20
264.45178571428573
 40
16
 41
1
 50
0
  1
2 0 2 1 . 0 2 . 0 8
  0
LINE
  8
_1-0_
  6
CENTER2
 62
    7
 10
1268.0521801907973
 20
1122.5524553571431
 11
1268.0521801907973
 21
989.40007440476222
  0
LINE
  8
_1-0_
  6
CENTER2
 62
    7
 10
1339.8067708333333
 20
1062.0990992442514
 11
1195.0389136904762
 21
1062.0990992442514
  0
TEXT
  8
1
 62
    7
 10
1708.4499999999998
 20
384.40580357142858
 40
15
 41
0.89
 50
0
  1
B S - 2 6 1 H - 2
  0
ENDSEC
  0
EOF
