  0
SECTION
  2
HEADER
  9
$ACADVER
  1
AC1009
  9
$INSBASE
 10
0
 20
0
 30
0
  9
$EXTMIN
 10
0
 20
0
  9
$EXTMAX
 10
297
 20
210
  9
$LIMMIN
 10
0
 20
0
  9
$LIMMAX
 10
297
 20
210
  9
$LTSCALE
 40
0.5
  0
ENDSEC
  0
SECTION
  2
TABLES
  0
TABLE
  2
LTYPE
 70
     9
  0
LTYPE
  2
CONTINUOUS
 70
    64
  3
実線
 72
    65
 73
     0
 40
0.0
  0
LTYPE
  2
DASHED1
 70
    64
  3
--  --  --  --  --  --  --  --  
 72
    65
 73
     2
 40
2.5
 49
1.25
 49
-1.25
  0
LTYPE
  2
DASHED2
 70
    64
  3
----    ----    ----    ----    
 72
    65
 73
     2
 40
5.0
 49
2.5
 49
-2.5
  0
LTYPE
  2
DASHED3
 70
    64
  3
------  ------  ------  ------  
 72
    65
 73
     2
 40
5.0
 49
3.75
 49
-1.25
  0
LTYPE
  2
CENTER1
 70
    64
  3
----- - ----- - ----- - ----- - 
 72
    65
 73
     4
 40
10.0
 49
6.25
 49
-1.25
 49
1.25
 49
-1.25
  0
LTYPE
  2
CENTER2
 70
    64
  3
----------  --  ----------  --  
 72
    65
 73
     4
 40
20.0
 49
12.5
 49
-2.5
 49
2.5
 49
-2.5
  0
LTYPE
  2
PHANTOM1
 70
    64
  3
--- - - --- - - --- - - --- - - 
 72
    65
 73
     6
 40
10.0
 49
3.25
 49
-1.25
 49
1.25
 49
-1.25
 49
1.25
 49
-1.25
  0
LTYPE
  2
PHANTOM2
 70
    64
  3
--------  -  -  --------  -  -  
 72
    65
 73
     6
 40
20.0
 49
10.0
 49
-2.5
 49
1.25
 49
-2.5
 49
1.25
 49
-2.5
  0
LTYPE
  2
DOT
 70
    64
  3
-   -   -   -   -   -   -   -   
 72
    65
 73
     2
 40
2.5
 49
0.625
 49
-1.875
  0
LTYPE
  2
DUMMY
 70
    64
  3
ダミー
 72
    65
 73
     0
 40
0.0
  0
LTYPE
  2
RAND1
 70
    64
  3
ランダム線1
 72
    65
 73
     4
 40
10.0
 49
1.0
 49
-2.0
 49
3.0
 49
-4.0
  0
LTYPE
  2
RAND2
 70
    64
  3
ランダム線2
 72
    65
 73
     4
 40
14.0
 49
2.0
 49
-3.0
 49
4.0
 49
-5.0
  0
LTYPE
  2
RAND3
 70
    64
  3
ランダム線3
 72
    65
 73
     4
 40
18.0
 49
3.0
 49
-4.0
 49
5.0
 49
-6.0
  0
LTYPE
  2
RAND4
 70
    64
  3
ランダム線4
 72
    65
 73
     4
 40
22.0
 49
4.0
 49
-5.0
 49
6.0
 49
-7.0
  0
LTYPE
  2
RAND5
 70
    64
  3
ランダム線5
 72
    65
 73
     4
 40
26.0
 49
5.0
 49
-6.0
 49
7.0
 49
-8.0
  0
LTYPE
  2
LONG1
 70
    64
  3
----------  --  ----------  --  
 72
    65
 73
     4
 40
40.0
 49
32.5
 49
-2.5
 49
2.5
 49
-2.5
  0
LTYPE
  2
LONG2
 70
    64
  3
--------  -  -  --------  -  -  
 72
    65
 73
     6
 40
40.0
 49
30.0
 49
-2.5
 49
1.25
 49
-2.5
 49
1.25
 49
-2.5
  0
LTYPE
  2
LONG3
 70
    64
  3
+++++++++++++++..+++++++++++++++
 72
    65
 73
     2
 40
40.0
 49
37.5
 49
-2.5
  0
LTYPE
  2
LONG4
 70
    64
  3
+++++++++++++++..+++++++++++++++
 72
    65
 73
     2
 40
80.0
 49
75.0
 49
-5.0
  0
LTYPE
  2
LONG5
 70
    64
  3
----------  --  ----------  --  
 72
    65
 73
     4
 40
60.0
 49
37.5
 49
-7.5
 49
7.5
 49
-7.5
  0
LTYPE
  2
dashed
 70
   64
  3
-------   -------------   ------
 72
   65
 73
    2
 40
7.5
 49
6
 49
-1.5
  0
LTYPE
  2
dashed_spaced
 70
   64
  3
----        --------        ----
 72
   65
 73
    2
 40
12
 49
6
 49
-6
  0
LTYPE
  2
long_dashed_dotted
 70
   64
  3
------------- --- --------------
 72
   65
 73
    4
 40
15.25
 49
12
 49
-1.5
 49
0.25
 49
-1.5
  0
LTYPE
  2
long_dashed_double-dotted
 70
   64
  3
----------- --- --- ------------
 72
   65
 73
    6
 40
17
 49
12
 49
-1.5
 49
0.25
 49
-1.5
 49
0.25
 49
-1.5
  0
LTYPE
  2
long_dashed_triplicate-dotted
 70
   64
  3
--------- --- --- --- ----------
 72
   65
 73
    8
 40
18.75
 49
12
 49
-1.5
 49
0.25
 49
-1.5
 49
0.25
 49
-1.5
 49
0.25
 49
-1.5
  0
LTYPE
  2
dotted
 70
   64
  3
   -       -       -       -    
 72
   65
 73
    2
 40
1.75
 49
0.25
 49
-1.5
  0
LTYPE
  2
chain
 70
   64
  3
-------------- -- --------------
 72
   65
 73
    4
 40
18.5
 49
12
 49
-1.5
 49
3.5
 49
-1.5
  0
LTYPE
  2
chain_double_dash
 70
   64
  3
------------ -- -- -------------
 72
   65
 73
    6
 40
23.5
 49
12
 49
-1.5
 49
3.5
 49
-1.5
 49
3.5
 49
-1.5
  0
LTYPE
  2
dashed_dotted
 70
   64
  3
-----------     -     ----------
 72
   65
 73
    4
 40
9.25
 49
6
 49
-1.5
 49
0.25
 49
-1.5
  0
LTYPE
  2
double-dashed_dotted
 70
   64
  3
------   -----------   -   -----
 72
   65
 73
    6
 40
16.75
 49
6
 49
-1.5
 49
6
 49
-1.5
 49
0.25
 49
-1.5
  0
LTYPE
  2
dashed_double-dotted
 70
   64
  3
---------    -    -    ---------
 72
   65
 73
    6
 40
11
 49
6
 49
-1.5
 49
0.25
 49
-1.5
 49
0.25
 49
-1.5
  0
LTYPE
  2
double-dashed_double-dotted
 70
   64
  3
-----   ---------   -   -   ----
 72
   65
 73
    8
 40
18.5
 49
6
 49
-1.5
 49
6
 49
-1.5
 49
0.25
 49
-1.5
 49
0.25
 49
-1.5
  0
LTYPE
  2
dashed_triplicate-dotted
 70
   64
  3
-------    -    -    -    ------
 72
   65
 73
    8
 40
12.75
 49
6
 49
-1.5
 49
0.25
 49
-1.5
 49
0.25
 49
-1.5
 49
0.25
 49
-1.5
  0
LTYPE
  2
double-dashed_triplicate-dotted
 70
   64
  3
-----  ---------  -  -  -  -----
 72
   65
 73
   10
 40
20.25
 49
6
 49
-1.5
 49
6
 49
-1.5
 49
0.25
 49
-1.5
 49
0.25
 49
-1.5
 49
0.25
 49
-1.5
  0
LTYPE
  2
undefined
 70
   64
  3
--------------------------------
 72
   65
 73
    0
 40
0
  0
LTYPE
  2
DOT_CENTER
 70
   64
  3
----------    ----    ----------
 72
   65
 73
    4
 40
2
 49
1.25
 49
-0.25
 49
0.25
 49
-0.25
  0
LTYPE
  2
_
 70
   64
  3
                                
 72
   65
 73
    0
 40
0
  0
LTYPE
  2
__19
 70
   64
  3
                                
 72
   65
 73
    0
 40
0
  0
LTYPE
  2
__20
 70
   64
  3
                                
 72
   65
 73
    0
 40
0
  0
LTYPE
  2
__21
 70
   64
  3
                                
 72
   65
 73
    0
 40
0
  0
LTYPE
  2
__22
 70
   64
  3
                                
 72
   65
 73
    0
 40
0
  0
LTYPE
  2
__23
 70
   64
  3
                                
 72
   65
 73
    0
 40
0
  0
LTYPE
  2
__24
 70
   64
  3
                                
 72
   65
 73
    0
 40
0
  0
LTYPE
  2
__25
 70
   64
  3
                                
 72
   65
 73
    0
 40
0
  0
LTYPE
  2
__26
 70
   64
  3
                                
 72
   65
 73
    0
 40
0
  0
LTYPE
  2
__27
 70
   64
  3
                                
 72
   65
 73
    0
 40
0
  0
LTYPE
  2
__28
 70
   64
  3
                                
 72
   65
 73
    0
 40
0
  0
LTYPE
  2
__29
 70
   64
  3
                                
 72
   65
 73
    0
 40
0
  0
LTYPE
  2
__30
 70
   64
  3
                                
 72
   65
 73
    0
 40
0
  0
LTYPE
  2
__31
 70
   64
  3
                                
 72
   65
 73
    0
 40
0
  0
LTYPE
  2
__32
 70
   64
  3
                                
 72
   65
 73
    0
 40
0
  0
ENDTAB
  0
TABLE
  2
STYLE
  5
3
100
AcDbSymbolTable
 70
     1
  0
STYLE
  5
10
100
AcDbSymbolTableRecord
100
AcDbTextStyleTableRecord
  2
STANDARD
 70
     0
 40
0.0
 41
1.0
 50
0.0
 71
     0
 42
0.2
  3
txt
  4
bigfont.shx
  0
STYLE
  5
26
100
AcDbSymbolTableRecord
100
AcDbTextStyleTableRecord
  2
TATEGAKI
 70
    68
 40
0.0
 41
1.0
 50
0.0
 71
     0
 42
1.0
  3
txt
  4
bigfont.shx
  0
ENDTAB
  0
TABLE
  2
LAYER
 70
    7
  0
LAYER
  2
_0-0_0
 70
   64
 62
    7
  6
CONTINUOUS
  0
LAYER
  2
_0-1_1
 70
   64
 62
    7
  6
CONTINUOUS
  0
LAYER
  2
_0-2_1__DRAFT_DIMS
 70
   64
 62
    7
  6
CONTINUOUS
  0
LAYER
  2
_0-3_8_ALL_NOTES_BALLOONS_SS_GT
 70
   64
 62
    7
  6
CONTINUOUS
  0
LAYER
  2
_0-4_DEFAULT_1
 70
   64
 62
    7
  6
CONTINUOUS
  0
LAYER
  2
_0-5__U_30EC_U_30A4_U_30E4_FC_1
 70
   64
 62
    7
  6
CONTINUOUS
  0
LAYER
  2
ADD_LINE
 70
   64
 62
    7
  6
CONTINUOUS
  0
ENDTAB
  0
ENDSEC
  0
SECTION
  2
BLOCKS
  0
ENDSEC
  0
SECTION
  2
ENTITIES
  0
ARC
  8
_0-1_1
  6
CONTINUOUS
 62
    7
 10
1.269016761681371
 20
149.65141319650655
 40
1.5
 50
90
 51
180
  0
ARC
  8
_0-1_1
  6
CONTINUOUS
 62
    7
 10
1.269016761681371
 20
141.65141319650644
 40
1.5
 50
180
 51
270
  0
ARC
  8
_0-1_1
  6
CONTINUOUS
 62
    7
 10
85.269016761681343
 20
149.65141319650655
 40
1.5
 50
0
 51
90
  0
ARC
  8
_0-1_1
  6
CONTINUOUS
 62
    7
 10
85.269016761681343
 20
141.65141319650644
 40
1.5
 50
270
 51
0
  0
ARC
  8
_0-1_1
  6
CONTINUOUS
 62
    7
 10
85.236269611757734
 20
38.183309354009339
 40
1.5
 50
270
 51
0
  0
ARC
  8
_0-1_1
  6
CONTINUOUS
 62
    7
 10
85.236269611757734
 20
46.183309354009339
 40
1.5
 50
0
 51
90
  0
ARC
  8
_0-1_1
  6
CONTINUOUS
 62
    7
 10
1.2362696117577343
 20
38.183309354009339
 40
1.5
 50
180
 51
270
  0
ARC
  8
_0-1_1
  6
CONTINUOUS
 62
    7
 10
1.2362696117577343
 20
46.183309354009339
 40
1.5
 50
90
 51
180
  0
LINE
  8
_0-1_1
  6
CONTINUOUS
 62
    7
 10
1.269016761681371
 20
151.15141319650655
 11
85.269016761681343
 21
151.15141319650655
  0
LINE
  8
_0-1_1
  6
CONTINUOUS
 62
    7
 10
86.769016761681343
 20
149.65141319650655
 11
86.769016761681343
 21
141.65141319650644
  0
LINE
  8
_0-1_1
  6
CONTINUOUS
 62
    7
 10
85.269016761681343
 20
140.15141319650655
 11
1.269016761681371
 21
140.15141319650655
  0
LINE
  8
_0-1_1
  6
CONTINUOUS
 62
    7
 10
-0.2309832383186289
 20
141.65141319650644
 11
-0.2309832383186289
 21
149.65141319650655
  0
LINE
  8
_0-1_1
  6
CONTINUOUS
 62
    7
 10
-0.2637303882422656
 20
38.183309354009339
 11
-0.2637303882422656
 21
46.183309354009339
  0
LINE
  8
_0-1_1
  6
CONTINUOUS
 62
    7
 10
85.236269611757734
 20
36.683309354009339
 11
1.2362696117577343
 21
36.683309354009339
  0
LINE
  8
_0-1_1
  6
CONTINUOUS
 62
    7
 10
86.736269611757734
 20
46.183309354009339
 11
86.736269611757734
 21
38.183309354009339
  0
LINE
  8
_0-1_1
  6
CONTINUOUS
 62
    7
 10
1.2362696117577343
 20
47.683309354009339
 11
85.236269611757734
 21
47.683309354009339
  0
TEXT
  8
_0-1_1
 62
    7
 10
304.06806847241887
 20
-8.2404027855438642
 40
3.2000000000000002
 41
0.89
 50
0
  1
リモコン外形図
  0
TEXT
  8
_0-1_1
 62
    7
 10
304.4363489303737
 20
27.234735749624434
 40
3.2000000000000002
 41
0.89
 50
0
  1
ハ
  0
TEXT
  8
_0-1_1
 62
    7
 10
220.07289645682684
 20
26.832046239010424
 40
3.2000000000000002
 41
0.89
 50
0
  1
ハ
  0
TEXT
  8
_0-1_1
 62
    7
 10
301.38340008332443
 20
157.04349529668411
 40
3.2000000000000002
 41
0.89
 50
0
  1
ハ
  0
TEXT
  8
_0-1_1
 62
    7
 10
220.87248251856013
 20
156.71657692498565
 40
3.2000000000000002
 41
0.89
 50
0
  1
ハ
  0
TEXT
  8
_0-1_1
 62
    7
 10
287.6646633537456
 20
66.782238898211062
 40
3.2000000000000002
 41
0.89
 50
0
  1
イ
  0
TEXT
  8
_0-1_1
 62
    7
 10
292.14307350122658
 20
66.885927200306242
 40
3.2000000000000002
 41
0.89
 50
0
  1
ロ
  0
TEXT
  8
_0-1_1
 62
    7
 10
231.28761980718852
 20
65.756091679736528
 40
3.2000000000000002
 41
0.89
 50
0
  1
イ
  0
TEXT
  8
_0-1_1
 62
    7
 10
235.76602995466934
 20
65.859779981831764
 40
3.2000000000000002
 41
0.89
 50
0
  1
ロ
  0
TEXT
  8
_0-1_1
 62
    7
 10
287.38204243904988
 20
122.69354092719385
 40
3.2000000000000002
 41
0.89
 50
0
  1
イ
  0
TEXT
  8
_0-1_1
 62
    7
 10
291.86045258653098
 20
122.79722922928892
 40
3.2000000000000002
 41
0.89
 50
0
  1
ロ
  0
TEXT
  8
_0-1_1
 62
    7
 10
231.34732520624524
 20
122.91961774996554
 40
3.2000000000000002
 41
0.89
 50
0
  1
イ
  0
TEXT
  8
_0-1_1
 62
    7
 10
235.82573535372634
 20
123.02330605206055
 40
3.2000000000000002
 41
0.89
 50
0
  1
ロ
  0
TEXT
  8
_0-1_1
 62
    7
 10
208.21341301991092
 20
215.75701716998014
 40
3.2000000000000002
 41
0.89
 50
0
  1
リモコンは3通りの取付け方法ができます。
  0
ARC
  8
_0-1_1
  6
CONTINUOUS
 62
    7
 10
86.986269611757621
 20
99.209033513759323
 40
0.75
 50
0
 51
90
  0
ARC
  8
_0-1_1
  6
CONTINUOUS
 62
    7
 10
86.986269611757621
 20
99.209033513759323
 40
0.75
 50
0
 51
90
  0
ARC
  8
_0-1_1
  6
CONTINUOUS
 62
    7
 10
68.486269611757621
 20
99.209033513759323
 40
0.75
 50
90
 51
180
  0
ARC
  8
_0-1_1
  6
CONTINUOUS
 62
    7
 10
3.4862696117576206
 20
69.583309354059338
 40
0.75
 50
90
 51
180
  0
ARC
  8
_0-1_1
  6
CONTINUOUS
 62
    7
 10
3.4862696117576206
 20
58.083309354059338
 40
0.75
 50
180.0000000000087
 51
270
  0
ARC
  8
_0-1_1
  6
CONTINUOUS
 62
    7
 10
35.68377666117054
 20
80.755689659354232
 40
0.4000000000000499
 50
211.33659880378229
 51
303.6842611264355
  0
ARC
  8
_0-1_1
  6
CONTINUOUS
 62
    7
 10
35.889658720538733
 20
80.89291423038452
 40
0.39999999999982
 50
303.68426112639708
 51
32.093317642754151
  0
ARC
  8
_0-1_1
  6
CONTINUOUS
 62
    7
 10
29.753486033951631
 20
80.89291423038452
 40
0.39999999999994
 50
147.9066823572447
 51
236.31573887359266
  0
ARC
  8
_0-1_1
  6
CONTINUOUS
 62
    7
 10
29.95936809331954
 20
80.755689659354232
 40
0.4000000000002699
 50
236.31573887349163
 51
328.66340119623891
  0
ARC
  8
_0-1_1
  6
CONTINUOUS
 62
    7
 10
29.95936809331954
 20
80.755689659354232
 40
0.4000000000002699
 50
236.31573887349163
 51
328.66340119623891
  0
ARC
  8
_0-1_1
  6
CONTINUOUS
 62
    7
 10
31.573238488460532
 20
83.606382276383727
 40
0.5
 50
90
 51
147.90668235725238
  0
ARC
  8
_0-1_1
  6
CONTINUOUS
 62
    7
 10
34.069906266028639
 20
83.606382276383727
 40
0.50000000000022
 50
32.093317642735421
 51
90
  0
ARC
  8
_0-1_1
  6
CONTINUOUS
 62
    7
 10
45.486269611757635
 20
99.209033513759323
 40
0.75
 50
90
 51
180
  0
ARC
  8
_0-1_1
  6
CONTINUOUS
 62
    7
 10
63.986269611757621
 20
99.209033513759323
 40
0.75
 50
0
 51
90
  0
ARC
  8
_0-1_1
  6
CONTINUOUS
 62
    7
 10
63.986269611757621
 20
99.209033513759323
 40
0.75
 50
0
 51
90
  0
ARC
  8
_0-1_1
  6
CONTINUOUS
 62
    7
 10
40.986269611757635
 20
99.209033513759323
 40
0.75
 50
0
 51
90
  0
ARC
  8
_0-1_1
  6
CONTINUOUS
 62
    7
 10
40.986269611757635
 20
99.209033513759323
 40
0.75
 50
0
 51
90
  0
ARC
  8
_0-1_1
  6
CONTINUOUS
 62
    7
 10
22.486269611757649
 20
99.209033513759323
 40
0.75
 50
90
 51
180
  0
ARC
  8
_0-1_1
  6
CONTINUOUS
 62
    7
 10
-0.5137303882423793
 20
99.209033513759323
 40
0.75
 50
90
 51
180
  0
ARC
  8
_0-1_1
  6
CONTINUOUS
 62
    7
 10
17.986269611757621
 20
99.209033513759323
 40
0.75
 50
0
 51
90
  0
ARC
  8
_0-1_1
  6
CONTINUOUS
 62
    7
 10
17.986269611757621
 20
99.209033513759323
 40
0.75
 50
0
 51
90
  0
CIRCLE
  8
_0-0_0
  6
CONTINUOUS
 62
    7
 10
296.07655930407202
 20
43.333309354059338
 40
2.1499999999999191
  0
CIRCLE
  8
_0-0_0
  6
CONTINUOUS
 62
    7
 10
276.07655930407191
 20
43.333309354059338
 40
2.1499999999999191
  0
CIRCLE
  8
_0-0_0
  6
CONTINUOUS
 62
    7
 10
230.07655930407194
 20
43.333309354059338
 40
2.1499999999999191
  0
CIRCLE
  8
_0-0_0
  6
CONTINUOUS
 62
    7
 10
250.07655930407194
 20
43.333309354059338
 40
2.1499999999999191
  0
CIRCLE
  8
_0-0_0
  6
CONTINUOUS
 62
    7
 10
296.07655930407202
 20
144.33330935405934
 40
2.1499999999999191
  0
CIRCLE
  8
_0-0_0
  6
CONTINUOUS
 62
    7
 10
276.07655930407191
 20
144.33330935405934
 40
2.1499999999999191
  0
CIRCLE
  8
_0-0_0
  6
CONTINUOUS
 62
    7
 10
230.07655930407194
 20
144.33330935405934
 40
2.1499999999999191
  0
CIRCLE
  8
_0-0_0
  6
CONTINUOUS
 62
    7
 10
250.07655930407194
 20
144.33330935405934
 40
2.1499999999999191
  0
CIRCLE
  8
_0-0_0
  6
CONTINUOUS
 62
    7
 10
263.07655930407191
 20
135.58330935405934
 40
2.5
  0
CIRCLE
  8
_0-1_1
  6
CONTINUOUS
 62
    2
 10
305.85479139109611
 20
28.493520024297339
 40
1.80620626130368
  0
CIRCLE
  8
_0-1_1
  6
CONTINUOUS
 62
    2
 10
221.49133891754914
 20
28.090830513683329
 40
1.80620626130368
  0
CIRCLE
  8
_0-1_1
  6
CONTINUOUS
 62
    2
 10
302.80184254404651
 20
158.30227957135702
 40
1.80620626130368
  0
CIRCLE
  8
_0-1_1
  6
CONTINUOUS
 62
    2
 10
222.29092497928255
 20
157.97536119965855
 40
1.80620626130369
  0
CIRCLE
  8
_0-1_1
  6
CONTINUOUS
 62
    2
 10
289.09507436023978
 20
68.151956647819134
 40
1.8062062613036991
  0
CIRCLE
  8
_0-1_1
  6
CONTINUOUS
 62
    2
 10
293.67098189339561
 20
68.105678010840052
 40
1.80620626130368
  0
CIRCLE
  8
_0-1_1
  6
CONTINUOUS
 62
    2
 10
232.71803081368242
 20
67.125809429344656
 40
1.80620626130369
  0
CIRCLE
  8
_0-1_1
  6
CONTINUOUS
 62
    2
 10
237.29393834683842
 20
67.079530792365517
 40
1.80620626130369
  0
CIRCLE
  8
_0-1_1
  6
CONTINUOUS
 62
    2
 10
288.81245344554384
 20
124.06325867680181
 40
1.806206261303738
  0
CIRCLE
  8
_0-1_1
  6
CONTINUOUS
 62
    2
 10
293.38836097869978
 20
124.01698003982284
 40
1.80620626130369
  0
CIRCLE
  8
_0-1_1
  6
CONTINUOUS
 62
    2
 10
232.77773621273926
 20
124.28933549957355
 40
1.80620626130369
  0
CIRCLE
  8
_0-1_1
  6
CONTINUOUS
 62
    2
 10
237.35364374589525
 20
124.24305686259453
 40
1.8062062613037999
  0
CIRCLE
  8
_0-1_1
  6
CONTINUOUS
 62
    2
 10
210.48886632250341
 20
211.72074454115051
 40
1.80620626130368
  0
CIRCLE
  8
_0-0_0
  6
CONTINUOUS
 62
    7
 10
255.87655930407206
 20
116.33330935405934
 40
3
  0
CIRCLE
  8
_0-1_1
  6
CONTINUOUS
 62
    7
 10
1.7362696117576206
 20
96.833309354059338
 40
1.4999999999998901
  0
CIRCLE
  8
_0-1_1
  6
CONTINUOUS
 62
    7
 10
24.736269611757635
 20
96.833309354059338
 40
1.5
  0
CIRCLE
  8
_0-1_1
  6
CONTINUOUS
 62
    7
 10
47.736269611757635
 20
96.833309354059338
 40
1.5
  0
CIRCLE
  8
_0-1_1
  6
CONTINUOUS
 62
    7
 10
70.736269611757621
 20
96.833309354059338
 40
1.5
  0
CIRCLE
  8
_0-1_1
  6
CONTINUOUS
 62
    7
 10
43.236269611757635
 20
64.833309354059338
 40
1.5
  0
CIRCLE
  8
_0-1_1
  6
CONTINUOUS
 62
    7
 10
50.736269611757635
 20
64.833309354059338
 40
1.4999999999998299
  0
CIRCLE
  8
_0-1_1
  6
CONTINUOUS
 62
    7
 10
58.236269611757621
 20
64.833309354059338
 40
1.500000000000238
  0
CIRCLE
  8
_0-1_1
  6
CONTINUOUS
 62
    7
 10
35.736269611757635
 20
64.833309354059338
 40
1.5
  0
CIRCLE
  8
_0-1_1
  6
CONTINUOUS
 62
    7
 10
28.236269611757635
 20
64.833309354059338
 40
1.5
  0
CIRCLE
  8
_0-1_1
  6
CONTINUOUS
 62
    7
 10
20.736269611757635
 20
64.833309354059338
 40
1.5
  0
CIRCLE
  8
_0-1_1
  6
CONTINUOUS
 62
    7
 10
1.7362696117576775
 20
122.83330935405934
 40
0.9999999999999399
  0
CIRCLE
  8
_0-1_1
  6
CONTINUOUS
 62
    7
 10
77.736269611757621
 20
63.833309354059338
 40
5.5
  0
CIRCLE
  8
_0-1_1
  6
CONTINUOUS
 62
    7
 10
32.81103452067974
 20
85.688886782212251
 40
1.1217534059149701
  0
CIRCLE
  8
_0-1_1
  6
CONTINUOUS
 62
    7
 10
38.736269611757635
 20
122.83330935405934
 40
1.5000000000000879
  0
CIRCLE
  8
_0-1_1
  6
CONTINUOUS
 62
    7
 10
31.736269611757635
 20
83.833309354059338
 40
8.5
  0
CIRCLE
  8
_0-1_1
  6
CONTINUOUS
 62
    7
 10
8.7362696117576206
 20
83.833309354059111
 40
8.5
  0
CIRCLE
  8
_0-3_8_ALL_NOTES_BALLOONS_SS_GT
  6
CONTINUOUS
 62
    2
 10
10.034850611970739
 20
132.15950360495941
 40
0.89985899999979
  0
CIRCLE
  8
_0-3_8_ALL_NOTES_BALLOONS_SS_GT
  6
CONTINUOUS
 62
    2
 10
10.034161611970745
 20
132.15881460495933
 40
1.0989849999998
  0
CIRCLE
  8
_0-1_1
  6
CONTINUOUS
 62
    7
 10
77.736269611757621
 20
122.83330935405934
 40
6
  0
CIRCLE
  8
_0-1_1
  6
CONTINUOUS
 62
    7
 10
77.736269611757621
 20
122.83330935405934
 40
7
  0
CIRCLE
  8
_0-1_1
  6
CONTINUOUS
 62
    7
 10
54.736269611757621
 20
122.83330935405962
 40
6.5
  0
ARC
  8
_0-0_0
  6
CONTINUOUS
 62
    7
 10
238.07655930407194
 20
52.083309354059338
 40
2.149999999999979
 50
90
 51
270
  0
ARC
  8
_0-0_0
  6
CONTINUOUS
 62
    7
 10
242.07655930407194
 20
52.083309354059338
 40
2.149999999999979
 50
270
 51
90
  0
ARC
  8
_0-0_0
  6
CONTINUOUS
 62
    7
 10
284.07655930407202
 20
135.58330935405934
 40
2.149999999999979
 50
90
 51
270
  0
ARC
  8
_0-0_0
  6
CONTINUOUS
 62
    7
 10
288.07655930407202
 20
135.58330935405934
 40
2.149999999999979
 50
270
 51
90
  0
ARC
  8
_0-0_0
  6
CONTINUOUS
 62
    7
 10
238.07655930407194
 20
135.58330935405934
 40
2.149999999999979
 50
90
 51
270
  0
ARC
  8
_0-0_0
  6
CONTINUOUS
 62
    7
 10
242.07655930407194
 20
135.58330935405934
 40
2.149999999999979
 50
270
 51
90
  0
ARC
  8
_0-0_0
  6
CONTINUOUS
 62
    7
 10
284.07655930407202
 20
52.083309354059338
 40
2.149999999999979
 50
90
 51
270
  0
ARC
  8
_0-0_0
  6
CONTINUOUS
 62
    7
 10
288.07655930407202
 20
52.083309354059338
 40
2.149999999999979
 50
270
 51
90
  0
ARC
  8
_0-0_0
  6
CONTINUOUS
 62
    7
 10
261.07655930407191
 20
52.083309354059338
 40
2.5
 50
90
 51
270
  0
ARC
  8
_0-0_0
  6
CONTINUOUS
 62
    7
 10
265.07655930407191
 20
52.083309354059338
 40
2.5
 50
270
 51
90
  0
ARC
  8
_0-0_0
  6
CONTINUOUS
 62
    7
 10
213.07655930407194
 20
41.833309354059338
 40
8
 50
180
 51
270
  0
ARC
  8
_0-0_0
  6
CONTINUOUS
 62
    7
 10
213.07655930407194
 20
145.83330935405934
 40
8
 50
90
 51
180
  0
ARC
  8
_0-0_0
  6
CONTINUOUS
 62
    7
 10
313.07655930407202
 20
41.833309354059338
 40
8
 50
270
 51
0
  0
ARC
  8
_0-0_0
  6
CONTINUOUS
 62
    7
 10
250.07655930407194
 20
43.333309354059338
 40
4.1500000000000901
 50
180
 51
0
  0
ARC
  8
_0-0_0
  6
CONTINUOUS
 62
    7
 10
313.07655930407202
 20
145.83330935405934
 40
8
 50
0
 51
90
  0
ARC
  8
_0-0_0
  6
CONTINUOUS
 62
    7
 10
230.07655930407194
 20
43.333309354059338
 40
4.1499999999683697
 50
188.41111944570798
 51
0
  0
ARC
  8
_0-0_0
  6
CONTINUOUS
 62
    7
 10
276.07655930407191
 20
43.333309354059338
 40
4.1500000000000901
 50
180
 51
0
  0
ARC
  8
_0-0_0
  6
CONTINUOUS
 62
    7
 10
296.07655930407202
 20
43.333309354059338
 40
4.1500000000000901
 50
180
 51
351.58888055449393
  0
ARC
  8
_0-0_0
  6
CONTINUOUS
 62
    7
 10
250.07655930407194
 20
144.33330935405934
 40
4.1499999999999204
 50
0
 51
180
  0
ARC
  8
_0-0_0
  6
CONTINUOUS
 62
    7
 10
230.07655930407194
 20
144.33330935405934
 40
4.1499999999999204
 50
0
 51
171.58888055429239
  0
ARC
  8
_0-0_0
  6
CONTINUOUS
 62
    7
 10
276.07655930407191
 20
144.33330935405934
 40
4.1499999999999204
 50
0
 51
180
  0
ARC
  8
_0-0_0
  6
CONTINUOUS
 62
    7
 10
296.07655930407202
 20
144.33330935405934
 40
4.1500000000510404
 50
10.8195004322182
 51
180
  0
ARC
  8
_0-0_0
  6
CONTINUOUS
 62
    7
 10
276.07655930407191
 20
43.333309354059338
 40
6.4441125496998701
 50
164.24254301949981
 51
248.60418023035913
  0
ARC
  8
_0-0_0
  6
CONTINUOUS
 62
    7
 10
296.07655930407202
 20
144.33330935405934
 40
6.4441125497003791
 50
314.91612113019693
 51
68.60418023035912
  0
ARC
  8
_0-0_0
  6
CONTINUOUS
 62
    7
 10
230.07655930407194
 20
144.33330935405934
 40
6.4441125496948697
 50
111.3958197696408
 51
225.08387886980239
  0
ARC
  8
_0-0_0
  6
CONTINUOUS
 62
    7
 10
230.07655930407194
 20
43.333309354059338
 40
6.4441125496948697
 50
291.39581976964092
 51
21.865743538503185
  0
ARC
  8
_0-0_0
  6
CONTINUOUS
 62
    7
 10
250.07655930407194
 20
43.333309354059338
 40
6.44411254969999
 50
158.13425646149639
 51
248.60418023035913
  0
ARC
  8
_0-0_0
  6
CONTINUOUS
 62
    7
 10
276.07655930407191
 20
43.333309354059338
 40
6.4441125496948697
 50
291.39581976964092
 51
21.865743538503185
  0
ARC
  8
_0-0_0
  6
CONTINUOUS
 62
    7
 10
230.07655930407194
 20
43.333309354059338
 40
6.4441125496997298
 50
134.916121130204
 51
248.60418023035913
  0
ARC
  8
_0-0_0
  6
CONTINUOUS
 62
    7
 10
296.07655930407202
 20
144.33330935405934
 40
6.4441125496947889
 50
111.3958197696389
 51
195.29605816570469
  0
ARC
  8
_0-0_0
  6
CONTINUOUS
 62
    7
 10
238.07655930407194
 20
52.083309354059338
 40
3.9499999999987101
 50
154.50833775827999
 51
180
  0
ARC
  8
_0-0_0
  6
CONTINUOUS
 62
    7
 10
242.07655930407194
 20
52.083309354059338
 40
3.9500000000001001
 50
0
 51
25.491662241719236
  0
ARC
  8
_0-0_0
  6
CONTINUOUS
 62
    7
 10
284.07655930407202
 20
52.083309354059338
 40
3.9499999999987101
 50
154.50833775827999
 51
180
  0
ARC
  8
_0-0_0
  6
CONTINUOUS
 62
    7
 10
288.07655930407202
 20
52.083309354059338
 40
3.9499999999998678
 50
0
 51
25.491662241720672
  0
ARC
  8
_0-0_0
  6
CONTINUOUS
 62
    7
 10
284.07655930407202
 20
135.58330935405934
 40
4.6500000000000901
 50
180
 51
201.4439828649258
  0
ARC
  8
_0-0_0
  6
CONTINUOUS
 62
    7
 10
213.07655930407194
 20
41.833309354059338
 40
6.5
 50
180
 51
270
  0
ARC
  8
_0-0_0
  6
CONTINUOUS
 62
    7
 10
213.07655930407194
 20
41.833309354059338
 40
4.75
 50
180
 51
270
  0
ARC
  8
_0-0_0
  6
CONTINUOUS
 62
    7
 10
288.07655930407202
 20
135.58330935405934
 40
4.6500000000397961
 50
338.5560171355238
 51
0
  0
ARC
  8
_0-0_0
  6
CONTINUOUS
 62
    7
 10
238.07655930407194
 20
135.58330935405934
 40
3.94999999999999
 50
180
 51
205.49166224172001
  0
ARC
  8
_0-0_0
  6
CONTINUOUS
 62
    7
 10
242.07655930407194
 20
135.58330935405934
 40
3.949999999998818
 50
334.50833775828067
 51
0.000000000000019
  0
ARC
  8
_0-0_0
  6
CONTINUOUS
 62
    7
 10
276.07655930407191
 20
144.33330935405934
 40
6.4441125496997396
 50
344.70394183429499
 51
68.60418023035912
  0
ARC
  8
_0-0_0
  6
CONTINUOUS
 62
    7
 10
276.07655930407191
 20
144.33330935405934
 40
6.4441125496948697
 50
111.3958197696408
 51
195.75745698050017
  0
ARC
  8
_0-0_0
  6
CONTINUOUS
 62
    7
 10
296.07655930407202
 20
43.333309354059338
 40
6.44411254969999
 50
158.13425646149639
 51
248.6041802303611
  0
ARC
  8
_0-0_0
  6
CONTINUOUS
 62
    7
 10
250.07655930407194
 20
43.333309354059338
 40
6.4441125496948697
 50
291.39581976964092
 51
15.757456980500205
  0
ARC
  8
_0-0_0
  6
CONTINUOUS
 62
    7
 10
313.07655930407202
 20
41.833309354059338
 40
6.5
 50
270
 51
0
  0
ARC
  8
_0-0_0
  6
CONTINUOUS
 62
    7
 10
313.07655930407202
 20
41.833309354059338
 40
4.75
 50
270
 51
0
  0
ARC
  8
_0-0_0
  6
CONTINUOUS
 62
    7
 10
313.07655930407202
 20
145.83330935405934
 40
6.5
 50
0
 51
90
  0
ARC
  8
_0-0_0
  6
CONTINUOUS
 62
    7
 10
313.07655930407202
 20
145.83330935405934
 40
4.75
 50
0
 51
90
  0
ARC
  8
_0-0_0
  6
CONTINUOUS
 62
    7
 10
250.07655930407194
 20
144.33330935405934
 40
6.4441125496998701
 50
344.24254301949981
 51
68.604180230359148
  0
ARC
  8
_0-0_0
  6
CONTINUOUS
 62
    7
 10
250.07655930407194
 20
144.33330935405934
 40
6.4441125496948697
 50
111.3958197696408
 51
201.86574353850347
  0
ARC
  8
_0-0_0
  6
CONTINUOUS
 62
    7
 10
213.07655930407194
 20
145.83330935405934
 40
6.5
 50
90
 51
180
  0
ARC
  8
_0-0_0
  6
CONTINUOUS
 62
    7
 10
213.07655930407194
 20
145.83330935405934
 40
4.75
 50
90
 51
180
  0
ARC
  8
_0-0_0
  6
CONTINUOUS
 62
    7
 10
230.07655930407194
 20
144.33330935405934
 40
6.4441125497000984
 50
338.13425646149682
 51
68.604180230359148
  0
ARC
  8
_0-0_0
  6
CONTINUOUS
 62
    7
 10
296.07655930407202
 20
43.333309354059338
 40
6.4441125496948697
 50
291.39581976964092
 51
45.083878869796706
  0
ARC
  8
_0-0_0
  6
CONTINUOUS
 62
    7
 10
-1.2637303882423225
 20
134.83330935405934
 40
4.1499999999999782
 50
90
 51
180
  0
ARC
  8
_0-0_0
  6
CONTINUOUS
 62
    7
 10
-1.2637303882423225
 20
52.833309354059338
 40
4.1499999999999782
 50
180
 51
270
  0
ARC
  8
_0-0_0
  6
CONTINUOUS
 62
    7
 10
87.736269611757621
 20
52.833309354059338
 40
4.1499999999999782
 50
270
 51
0
  0
ARC
  8
_0-0_0
  6
CONTINUOUS
 62
    7
 10
87.736269611757621
 20
134.83330935405934
 40
4.1500000000001203
 50
0
 51
90
  0
ARC
  8
_0-0_0
  6
CONTINUOUS
 62
    7
 10
216.32655930407194
 20
60.583309354059338
 40
1
 50
180
 51
270
  0
ARC
  8
_0-0_0
  6
CONTINUOUS
 62
    7
 10
309.82655930407202
 20
60.583309354059338
 40
1
 50
270
 51
0
  0
ARC
  8
_0-0_0
  6
CONTINUOUS
 62
    7
 10
309.82655930407202
 20
127.08330935405934
 40
1
 50
0
 51
90
  0
ARC
  8
_0-0_0
  6
CONTINUOUS
 62
    7
 10
216.32655930407194
 20
127.08330935405934
 40
1
 50
90
 51
180
  0
ARC
  8
_0-0_0
  6
CONTINUOUS
 62
    7
 10
249.87655930407206
 20
121.83330935405934
 40
1
 50
90
 51
180
  0
ARC
  8
_0-0_0
  6
CONTINUOUS
 62
    7
 10
261.87655930407209
 20
121.83330935405934
 40
1
 50
0
 51
90
  0
ARC
  8
_0-0_0
  6
CONTINUOUS
 62
    7
 10
249.87655930407206
 20
99.833309354059338
 40
1
 50
180
 51
270
  0
ARC
  8
_0-0_0
  6
CONTINUOUS
 62
    7
 10
261.87655930407209
 20
99.833309354059338
 40
1
 50
270
 51
0
  0
ARC
  8
_0-0_0
  6
CONTINUOUS
 62
    7
 10
255.87655930407206
 20
112.90330935405933
 40
8.4299999999999482
 50
55.29195072747796
 51
124.70804927252331
  0
ARC
  8
_0-0_0
  6
CONTINUOUS
 62
    7
 10
137.20995894632475
 20
140.83330935405934
 40
20.999999999914039
 50
148.08517729789199
 51
180
  0
ARC
  8
_0-0_0
  6
CONTINUOUS
 62
    7
 10
122.35534732832474
 20
150.08482348285935
 40
3.5000000000311
 50
91.999999999019863
 51
148.0851772980979
  0
ARC
  8
_0-0_0
  6
CONTINUOUS
 62
    7
 10
137.20995894632475
 20
46.833309354059338
 40
21
 50
180
 51
211.91482270210801
  0
ARC
  8
_0-0_0
  6
CONTINUOUS
 62
    7
 10
122.35534732832474
 20
37.581795225259327
 40
3.4999999999995501
 50
211.91482270190201
 51
268.00000000098021
  0
ARC
  8
_0-0_0
  6
CONTINUOUS
 62
    7
 10
132.00995894632473
 20
98.333309354059338
 40
0.5
 50
90
 51
101.5476089284854
  0
ARC
  8
_0-0_0
  6
CONTINUOUS
 62
    7
 10
132.00995894632473
 20
123.33330935405934
 40
0.5000000000002
 50
258.45239107290678
 51
270
  0
ARC
  8
_0-0_0
  6
CONTINUOUS
 62
    7
 10
133.00995894632473
 20
122.33330935405934
 40
0.5
 50
0
 51
90
  0
ARC
  8
_0-0_0
  6
CONTINUOUS
 62
    7
 10
133.00995894632473
 20
99.333309354059338
 40
0.5
 50
270
 51
0
  0
ARC
  8
_0-0_0
  6
CONTINUOUS
 62
    7
 10
137.00995894632473
 20
105.83330935405934
 40
3.5
 50
180
 51
36.869897645845356
  0
ARC
  8
_0-0_0
  6
CONTINUOUS
 62
    7
 10
137.00995894632473
 20
105.83330935405934
 40
2.5
 50
180
 51
36.869897645843992
  0
ARC
  8
_0-0_0
  6
CONTINUOUS
 62
    7
 10
138.00995894632473
 20
114.11043317485945
 40
0.4999999999970102
 50
302.0053832080813
 51
0
  0
ARC
  8
_0-0_0
  6
CONTINUOUS
 62
    7
 10
138.00995894632473
 20
118.55618553325934
 40
0.5
 50
0
 51
57.994616791918567
  0
ARC
  8
_0-0_0
  6
CONTINUOUS
 62
    7
 10
57.936269611757723
 20
196.77083015179136
 40
0.5
 50
180
 51
191.54760892848589
  0
ARC
  8
_0-0_0
  6
CONTINUOUS
 62
    7
 10
42.936269611757737
 20
196.77083015179136
 40
0.5000000000002
 50
348.45239107290678
 51
0.0000000000000015
  0
ARC
  8
_0-0_0
  6
CONTINUOUS
 62
    7
 10
56.936269611757723
 20
197.77083015179136
 40
0.5
 50
0
 51
90
  0
ARC
  8
_0-0_0
  6
CONTINUOUS
 62
    7
 10
43.936269611757737
 20
197.77083015179136
 40
0.5
 50
90
 51
180
  0
ARC
  8
_0-0_0
  6
CONTINUOUS
 62
    7
 10
-11.000532167642291
 20
186.69491196859144
 40
3.50000000000027
 50
181.99999807170857
 51
221.13484636140336
  0
ARC
  8
_0-0_0
  6
CONTINUOUS
 62
    7
 10
97.473071390957728
 20
186.69491196779131
 40
3.4999999999991691
 50
318.86514979640123
 51
358.00000191629942
  0
ARC
  8
_0-0_0
  6
CONTINUOUS
 62
    7
 10
-6.1049704312422932
 20
190.97083015179135
 40
9.9999999999999112
 50
221.13485348810747
 51
270
  0
ARC
  8
_0-0_0
  6
CONTINUOUS
 62
    7
 10
92.577509654757733
 20
190.97083015179135
 40
10
 50
270
 51
318.8651464449008
  0
ARC
  8
_0-0_0
  6
CONTINUOUS
 62
    7
 10
52.659145790957723
 20
202.77083015179113
 40
0.499999999997
 50
32.005383208078662
 51
90
  0
ARC
  8
_0-0_0
  6
CONTINUOUS
 62
    7
 10
48.213393432557737
 20
202.77083015179113
 40
0.5
 50
90
 51
147.99461679192041
  0
ARC
  8
_0-1_1
  6
CONTINUOUS
 62
    7
 10
13.236269611757621
 20
64.833309354059338
 40
1.5
 50
0
 51
180
  0
ARC
  8
_0-1_1
  6
CONTINUOUS
 62
    7
 10
13.236269611757621
 20
64.833309354059338
 40
1.5
 50
180
 51
0
  0
ARC
  8
_0-1_1
  6
CONTINUOUS
 62
    7
 10
77.736269611757621
 20
83.833309354059338
 40
10
 50
180
 51
0
  0
ARC
  8
_0-1_1
  6
CONTINUOUS
 62
    7
 10
54.736269611757621
 20
83.833309354059338
 40
9.9999999999999911
 50
180
 51
0
  0
ARC
  8
_0-1_1
  6
CONTINUOUS
 62
    7
 10
31.736269611757635
 20
83.833309354059338
 40
10
 50
180
 51
0
  0
ARC
  8
_0-1_1
  6
CONTINUOUS
 62
    7
 10
8.7362696117576206
 20
83.833309354059111
 40
10.000000000000011
 50
179.99999999999869
 51
0.0000000000013073
  0
ARC
  8
_0-1_1
  6
CONTINUOUS
 62
    7
 10
54.736269611757621
 20
122.83330935405962
 40
7.5000000000003997
 50
270
 51
90
  0
ARC
  8
_0-1_1
  6
CONTINUOUS
 62
    7
 10
38.736269611757635
 20
122.83330935405934
 40
7.5
 50
90
 51
270
  0
ARC
  8
_0-1_1
  6
CONTINUOUS
 62
    7
 10
77.736269611757621
 20
63.833309354059338
 40
6.5
 50
270
 51
90
  0
LINE
  8
_0-0_0
  6
CONTINUOUS
 62
    7
 10
43.436269611757737
 20
197.77083015179136
 11
43.436269611757737
 21
196.77083015179136
  0
LINE
  8
_0-0_0
  6
CONTINUOUS
 62
    7
 10
57.436269611757723
 20
197.77083015179136
 11
57.436269611757723
 21
196.77083015179136
  0
LINE
  8
_0-0_0
  6
CONTINUOUS
 62
    7
 10
43.936269611757737
 20
198.27083015179136
 11
56.936269611757723
 21
198.27083015179136
  0
LINE
  8
_0-0_0
  6
CONTINUOUS
 62
    6
 10
56.936269611757723
 20
198.27083015179136
 11
57.436269611757723
 21
198.27083015179136
  0
LINE
  8
_0-0_0
  6
CONTINUOUS
 62
    7
 10
314.97655930407188
 20
91.833309354059338
 11
314.97655930407188
 21
91.333309354059338
  0
LINE
  8
_0-0_0
  6
CONTINUOUS
 62
    7
 10
211.17655930407184
 20
95.833309354059338
 11
211.17655930407184
 21
96.333309354059338
  0
LINE
  8
_0-0_0
  6
CONTINUOUS
 62
    7
 10
223.07655930407194
 20
148.33330935405934
 11
223.57655930407194
 21
148.33330935405934
  0
LINE
  8
_0-0_0
  6
CONTINUOUS
 62
    7
 10
265.07655930407191
 20
148.33330935405934
 11
265.57655930407191
 21
148.33330935405934
  0
LINE
  8
_0-0_0
  6
CONTINUOUS
 62
    7
 10
307.07655930407191
 20
148.33330935405934
 11
307.57655930407202
 21
148.33330935405934
  0
LINE
  8
_0-0_0
  6
CONTINUOUS
 62
    7
 10
303.07655930407191
 20
39.333309354059338
 11
302.57655930407202
 21
39.333309354059338
  0
LINE
  8
_0-0_0
  6
CONTINUOUS
 62
    7
 10
261.07655930407191
 20
39.333309354059338
 11
260.57655930407191
 21
39.333309354059338
  0
LINE
  8
_0-0_0
  6
CONTINUOUS
 62
    7
 10
219.07655930407194
 20
39.333309354059338
 11
218.57655930407194
 21
39.333309354059338
  0
LINE
  8
_0-0_0
  6
CONTINUOUS
 62
    7
 10
217.37655930407195
 20
128.08330935405934
 11
216.32655930407194
 21
128.08330935405934
  0
LINE
  8
_0-0_0
  6
CONTINUOUS
 62
    7
 10
217.37655930407195
 20
59.583309354059338
 11
308.77655930407195
 21
59.583309354059338
  0
LINE
  8
_0-1_1
  6
CONTINUOUS
 62
    7
 10
217.37655930407195
 20
59.583309354059338
 11
217.37655930407195
 21
128.08330935405934
  0
LINE
  8
_0-0_0
  6
CONTINUOUS
 62
    7
 10
308.77655930407195
 20
128.08330935405934
 11
217.37655930407195
 21
128.08330935405934
  0
LINE
  8
_0-0_0
  6
CONTINUOUS
 62
    7
 10
308.77655930407195
 20
59.583309354059338
 11
309.82655930407202
 21
59.583309354059338
  0
LINE
  8
_0-1_1
  6
CONTINUOUS
 62
    7
 10
308.77655930407195
 20
128.08330935405934
 11
308.77655930407195
 21
59.583309354059338
  0
LINE
  8
_0-4_DEFAULT_1
  6
DOT_CENTER
 62
    3
 10
263.07655930407191
 20
93.833309354059338
 11
263.07655930407191
 21
156.38803281552862
  0
LINE
  8
_0-4_DEFAULT_1
  6
DOT_CENTER
 62
    3
 10
263.07655930407191
 20
158.88803281552862
 11
263.07655930407191
 21
156.38803281552862
  0
LINE
  8
_0-0_0
  6
CONTINUOUS
 62
    7
 10
205.07655930407194
 20
145.83330935405934
 11
205.07655930407194
 21
41.833309354059338
  0
LINE
  8
_0-0_0
  6
CONTINUOUS
 62
    7
 10
206.57655930407194
 20
145.83330935405934
 11
206.57655930407194
 21
41.833309354059338
  0
LINE
  8
_0-0_0
  6
CONTINUOUS
 62
    7
 10
313.07655930407202
 20
33.833309354059338
 11
213.07655930407194
 21
33.833309354059338
  0
LINE
  8
_0-0_0
  6
CONTINUOUS
 62
    7
 10
213.07655930407194
 20
35.333309354059338
 11
313.07655930407202
 21
35.333309354059338
  0
LINE
  8
_0-0_0
  6
CONTINUOUS
 62
    7
 10
218.57655930407194
 20
36.833309354059338
 11
223.57655930407194
 21
36.833309354059338
  0
LINE
  8
_0-0_0
  6
CONTINUOUS
 62
    7
 10
260.57655930407191
 20
36.833309354059338
 11
265.57655930407191
 21
36.833309354059338
  0
LINE
  8
_0-0_0
  6
CONTINUOUS
 62
    7
 10
302.57655930407202
 20
36.833309354059338
 11
307.57655930407202
 21
36.833309354059338
  0
LINE
  8
_0-0_0
  6
CONTINUOUS
 62
    7
 10
213.07655930407194
 20
37.083309354059338
 11
218.27655930407204
 21
37.083309354059338
  0
LINE
  8
_0-0_0
  6
CONTINUOUS
 62
    7
 10
307.87655930407209
 20
37.083309354059338
 11
313.07655930407202
 21
37.083309354059338
  0
LINE
  8
_0-0_0
  6
CONTINUOUS
 62
    7
 10
218.27655930407204
 20
37.333309354059338
 11
218.57655930407194
 21
37.333309354059338
  0
LINE
  8
_0-0_0
  6
CONTINUOUS
 62
    7
 10
223.57655930407194
 20
37.333309354059338
 11
227.72568998547192
 21
37.333309354059338
  0
LINE
  8
_0-0_0
  6
CONTINUOUS
 62
    7
 10
232.42742862267195
 20
37.333309354059338
 11
247.72568998547192
 21
37.333309354059338
  0
LINE
  8
_0-0_0
  6
CONTINUOUS
 62
    7
 10
252.42742862267195
 20
37.333309354059338
 11
260.57655930407191
 21
37.333309354059338
  0
LINE
  8
_0-0_0
  6
CONTINUOUS
 62
    7
 10
265.57655930407191
 20
37.333309354059338
 11
273.72568998547194
 21
37.333309354059338
  0
LINE
  8
_0-0_0
  6
CONTINUOUS
 62
    7
 10
278.42742862267198
 20
37.333309354059338
 11
293.72568998547217
 21
37.333309354059338
  0
LINE
  8
_0-0_0
  6
CONTINUOUS
 62
    7
 10
298.42742862267198
 20
37.333309354059338
 11
302.57655930407202
 21
37.333309354059338
  0
LINE
  8
_0-0_0
  6
CONTINUOUS
 62
    7
 10
307.57655930407202
 20
37.333309354059338
 11
307.87655930407209
 21
37.333309354059338
  0
LINE
  8
_0-0_0
  6
CONTINUOUS
 62
    7
 10
208.32655930407194
 20
145.83330935405934
 11
208.32655930407194
 21
41.833309354059338
  0
LINE
  8
_0-0_0
  6
CONTINUOUS
 62
    7
 10
208.67655930407184
 20
96.333309354059338
 11
208.67655930407184
 21
91.333309354059338
  0
LINE
  8
_0-0_0
  6
CONTINUOUS
 62
    7
 10
211.17655930407184
 20
91.333309354059338
 11
211.17655930407184
 21
91.833309354059338
  0
LINE
  8
_0-0_0
  6
CONTINUOUS
 62
    7
 10
307.57655930407202
 20
39.333309354059338
 11
307.07655930407191
 21
39.333309354059338
  0
LINE
  8
_0-0_0
  6
CONTINUOUS
 62
    7
 10
265.57655930407191
 20
39.333309354059338
 11
265.07655930407191
 21
39.333309354059338
  0
LINE
  8
_0-0_0
  6
CONTINUOUS
 62
    7
 10
223.57655930407194
 20
39.333309354059338
 11
223.07655930407194
 21
39.333309354059338
  0
LINE
  8
_0-4_DEFAULT_1
  6
DOT_CENTER
 62
    3
 10
296.07655930407202
 20
43.333309354059338
 11
284.63244675447197
 21
43.333309354059338
  0
LINE
  8
_0-4_DEFAULT_1
  6
DOT_CENTER
 62
    3
 10
276.07655930407191
 20
43.333309354059338
 11
264.63244675447197
 21
43.333309354059338
  0
LINE
  8
_0-4_DEFAULT_1
  6
DOT_CENTER
 62
    3
 10
250.07655930407194
 20
43.333309354059338
 11
238.63244675447194
 21
43.333309354059338
  0
LINE
  8
_0-4_DEFAULT_1
  6
DOT_CENTER
 62
    3
 10
230.07655930407194
 20
43.333309354059338
 11
218.63244675447194
 21
43.333309354059338
  0
LINE
  8
_0-4_DEFAULT_1
  6
DOT_CENTER
 62
    3
 10
230.07655930407194
 20
43.333309354059338
 11
238.63244675447194
 21
43.333309354059338
  0
LINE
  8
_0-4_DEFAULT_1
  6
DOT_CENTER
 62
    3
 10
250.07655930407194
 20
43.333309354059338
 11
261.52067185377189
 21
43.333309354059338
  0
LINE
  8
_0-4_DEFAULT_1
  6
DOT_CENTER
 62
    3
 10
276.07655930407191
 20
43.333309354059338
 11
284.63244675447197
 21
43.333309354059338
  0
LINE
  8
_0-4_DEFAULT_1
  6
DOT_CENTER
 62
    3
 10
296.07655930407202
 20
43.333309354059338
 11
307.52067185377189
 21
43.333309354059338
  0
LINE
  8
_0-0_0
  6
CONTINUOUS
 62
    7
 10
213.87655930407195
 20
91.333309354059338
 11
213.87655930407195
 21
96.333309354059338
  0
LINE
  8
_0-0_0
  6
CONTINUOUS
 62
    7
 10
215.07655930407194
 20
59.333309354059338
 11
215.07655930407194
 21
128.33330935405934
  0
LINE
  8
_0-0_0
  6
CONTINUOUS
 62
    7
 10
217.37655930407195
 20
129.53330935405933
 11
217.37655930407195
 21
128.33330935405934
  0
LINE
  8
_0-0_0
  6
CONTINUOUS
 62
    7
 10
217.37655930407195
 20
59.333309354059338
 11
217.37655930407195
 21
58.13330935405935
  0
LINE
  8
_0-0_0
  6
CONTINUOUS
 62
    7
 10
218.27655930407204
 20
37.083309354059338
 11
218.27655930407204
 21
58.13330935405935
  0
LINE
  8
_0-0_0
  6
CONTINUOUS
 62
    7
 10
218.27655930407204
 20
129.53330935405933
 11
218.27655930407204
 21
150.58330935405934
  0
LINE
  8
_0-0_0
  6
CONTINUOUS
 62
    7
 10
218.57655930407194
 20
36.833309354059338
 11
218.57655930407194
 21
39.333309354059338
  0
LINE
  8
_0-0_0
  6
CONTINUOUS
 62
    7
 10
218.57655930407194
 20
148.33330935405934
 11
218.57655930407194
 21
150.83330935405934
  0
LINE
  8
_0-0_0
  6
CONTINUOUS
 62
    7
 10
225.97119685407196
 20
144.94035066555944
 11
225.52655930407204
 21
141.93330935405936
  0
LINE
  8
_0-0_0
  6
CONTINUOUS
 62
    7
 10
254.22655930407186
 20
45.083309354059338
 11
271.92655930407182
 21
45.083309354059338
  0
LINE
  8
_0-0_0
  6
CONTINUOUS
 62
    7
 10
234.22655930407186
 20
45.733309354059315
 11
245.92655930407184
 21
45.733309354059315
  0
LINE
  8
_0-0_0
  6
CONTINUOUS
 62
    7
 10
280.22655930407188
 20
45.733309354059315
 11
291.92655930407182
 21
45.733309354059315
  0
LINE
  8
_0-0_0
  6
CONTINUOUS
 62
    7
 10
265.07655930407191
 20
49.583309354059338
 11
261.07655930407191
 21
49.583309354059338
  0
LINE
  8
_0-0_0
  6
CONTINUOUS
 62
    7
 10
238.07655930407194
 20
49.933309354059361
 11
242.07655930407194
 21
49.933309354059361
  0
LINE
  8
_0-0_0
  6
CONTINUOUS
 62
    7
 10
284.07655930407202
 20
49.933309354059361
 11
288.07655930407202
 21
49.933309354059361
  0
LINE
  8
_0-0_0
  6
CONTINUOUS
 62
    7
 10
225.52655930407204
 20
45.733309354059315
 11
225.97119685407196
 21
42.726268042559326
  0
LINE
  8
_0-0_0
  6
CONTINUOUS
 62
    7
 10
223.57655930407194
 20
36.833309354059338
 11
223.57655930407194
 21
39.333309354059338
  0
LINE
  8
_0-0_0
  6
CONTINUOUS
 62
    7
 10
223.57655930407194
 20
148.33330935405934
 11
223.57655930407194
 21
150.83330935405934
  0
LINE
  8
_0-4_DEFAULT_1
  6
DOT_CENTER
 62
    3
 10
286.07655930407202
 20
52.083309354059338
 11
281.07645930407182
 21
52.083309354059338
  0
LINE
  8
_0-0_0
  6
CONTINUOUS
 62
    7
 10
252.82655930407194
 20
52.083309354059338
 11
246.02655930407204
 21
52.083309354059338
  0
LINE
  8
_0-4_DEFAULT_1
  6
DOT_CENTER
 62
    3
 10
240.07655930407194
 20
52.083309354059338
 11
235.07645930407185
 21
52.083309354059338
  0
LINE
  8
_0-0_0
  6
CONTINUOUS
 62
    7
 10
234.12655930407195
 20
52.083309354059338
 11
227.32655930407194
 21
52.083309354059338
  0
LINE
  8
_0-4_DEFAULT_1
  6
DOT_CENTER
 62
    3
 10
240.07655930407194
 20
52.083309354059338
 11
245.07665930407185
 21
52.083309354059338
  0
LINE
  8
_0-0_0
  6
CONTINUOUS
 62
    7
 10
273.32655930407202
 20
52.083309354059338
 11
280.12655930407209
 21
52.083309354059338
  0
LINE
  8
_0-4_DEFAULT_1
  6
DOT_CENTER
 62
    3
 10
286.07655930407202
 20
52.083309354059338
 11
291.076659304072
 21
52.083309354059338
  0
LINE
  8
_0-0_0
  6
CONTINUOUS
 62
    7
 10
292.02655930407195
 20
52.083309354059338
 11
298.82655930407202
 21
52.083309354059338
  0
LINE
  8
_0-0_0
  6
CONTINUOUS
 62
    7
 10
295.82655930407202
 20
53.783309354059327
 11
291.64201860127184
 21
53.783309354059327
  0
LINE
  8
_0-0_0
  6
CONTINUOUS
 62
    7
 10
280.51110000687208
 20
53.783309354059327
 11
276.32655930407191
 21
53.783309354059327
  0
LINE
  8
_0-0_0
  6
CONTINUOUS
 62
    7
 10
230.32655930407194
 20
53.783309354059327
 11
234.51110000687194
 21
53.783309354059327
  0
LINE
  8
_0-0_0
  6
CONTINUOUS
 62
    7
 10
245.64201860127216
 20
53.783309354059327
 11
249.82655930407194
 21
53.783309354059327
  0
LINE
  8
_0-0_0
  6
CONTINUOUS
 62
    7
 10
288.07655930407202
 20
54.233309354059315
 11
284.07655930407202
 21
54.233309354059315
  0
LINE
  8
_0-0_0
  6
CONTINUOUS
 62
    7
 10
242.07655930407194
 20
54.233309354059315
 11
238.07655930407194
 21
54.233309354059315
  0
LINE
  8
_0-0_0
  6
CONTINUOUS
 62
    7
 10
261.07655930407191
 20
54.583309354059338
 11
265.07655930407191
 21
54.583309354059338
  0
LINE
  8
_0-0_0
  6
CONTINUOUS
 62
    7
 10
225.52655930407204
 20
141.93330935405936
 11
225.52655930407204
 21
129.53330935405933
  0
LINE
  8
_0-0_0
  6
CONTINUOUS
 62
    7
 10
225.52655930407204
 20
58.13330935405935
 11
225.52655930407204
 21
45.733309354059315
  0
LINE
  8
_0-0_0
  6
CONTINUOUS
 62
    7
 10
227.32655930407194
 20
52.083309354059338
 11
227.32655930407194
 21
58.13330935405935
  0
LINE
  8
_0-0_0
  6
CONTINUOUS
 62
    7
 10
227.32655930407194
 20
129.53330935405933
 11
227.32655930407194
 21
135.58330935405934
  0
LINE
  8
_0-4_DEFAULT_1
  6
DOT_CENTER
 62
    3
 10
230.07655930407194
 20
144.33330935405934
 11
230.07655930407194
 21
132.88919680435936
  0
LINE
  8
_0-4_DEFAULT_1
  6
DOT_CENTER
 62
    3
 10
230.07655930407194
 20
43.333309354059338
 11
230.07655930407194
 21
31.889196804359329
  0
LINE
  8
_0-4_DEFAULT_1
  6
DOT_CENTER
 62
    3
 10
230.07655930407194
 20
43.333309354059338
 11
230.07655930407194
 21
54.777421903759318
  0
LINE
  8
_0-4_DEFAULT_1
  6
DOT_CENTER
 62
    3
 10
230.07655930407194
 20
144.33330935405934
 11
230.07655930407194
 21
155.77742190375943
  0
LINE
  8
_0-0_0
  6
CONTINUOUS
 62
    7
 10
230.32655930407194
 20
58.13330935405935
 11
230.32655930407194
 21
53.783309354059327
  0
LINE
  8
_0-0_0
  6
CONTINUOUS
 62
    7
 10
230.32655930407194
 20
129.53330935405933
 11
230.32655930407194
 21
133.88330935405935
  0
LINE
  8
_0-0_0
  6
CONTINUOUS
 62
    7
 10
308.77655930407195
 20
58.13330935405935
 11
300.62655930407186
 21
58.13330935405935
  0
LINE
  8
_0-0_0
  6
CONTINUOUS
 62
    7
 10
298.82655930407202
 20
58.13330935405935
 11
295.82655930407202
 21
58.13330935405935
  0
LINE
  8
_0-0_0
  6
CONTINUOUS
 62
    7
 10
276.32655930407191
 20
58.13330935405935
 11
273.32655930407202
 21
58.13330935405935
  0
LINE
  8
_0-0_0
  6
CONTINUOUS
 62
    7
 10
252.82655930407194
 20
58.13330935405935
 11
249.82655930407194
 21
58.13330935405935
  0
LINE
  8
_0-0_0
  6
CONTINUOUS
 62
    7
 10
230.32655930407194
 20
58.13330935405935
 11
227.32655930407194
 21
58.13330935405935
  0
LINE
  8
_0-0_0
  6
CONTINUOUS
 62
    7
 10
225.52655930407204
 20
58.13330935405935
 11
217.37655930407195
 21
58.13330935405935
  0
LINE
  8
_0-0_0
  6
CONTINUOUS
 62
    7
 10
215.07655930407194
 20
59.333309354059338
 11
311.07655930407202
 21
59.333309354059338
  0
LINE
  8
_0-0_0
  6
CONTINUOUS
 62
    7
 10
232.32655930407194
 20
52.083309354059338
 11
232.32655930407194
 21
53.783309354059327
  0
LINE
  8
_0-0_0
  6
CONTINUOUS
 62
    7
 10
232.32655930407194
 20
133.88330935405935
 11
232.32655930407194
 21
135.58330935405934
  0
LINE
  8
_0-0_0
  6
CONTINUOUS
 62
    7
 10
234.22655930407186
 20
43.333309354059338
 11
234.22655930407186
 21
45.733309354059315
  0
LINE
  8
_0-0_0
  6
CONTINUOUS
 62
    7
 10
234.22655930407186
 20
141.93330935405936
 11
234.22655930407186
 21
144.33330935405934
  0
LINE
  8
_0-4_DEFAULT_1
  6
DOT_CENTER
 62
    3
 10
240.07655930407194
 20
135.58330935405934
 11
240.07655930407194
 21
130.58320935405936
  0
LINE
  8
_0-4_DEFAULT_1
  6
DOT_CENTER
 62
    3
 10
240.07655930407194
 20
52.083309354059338
 11
240.07655930407194
 21
47.083209354059363
  0
LINE
  8
_0-4_DEFAULT_1
  6
DOT_CENTER
 62
    3
 10
240.07655930407194
 20
52.083309354059338
 11
240.07655930407194
 21
57.083409354059427
  0
LINE
  8
_0-4_DEFAULT_1
  6
DOT_CENTER
 62
    3
 10
240.07655930407194
 20
135.58330935405934
 11
240.07655930407194
 21
140.58340935405931
  0
LINE
  8
_0-0_0
  6
CONTINUOUS
 62
    7
 10
245.92655930407184
 20
144.33330935405934
 11
245.92655930407184
 21
141.93330935405936
  0
LINE
  8
_0-0_0
  6
CONTINUOUS
 62
    7
 10
245.92655930407184
 20
45.733309354059315
 11
245.92655930407184
 21
43.333309354059338
  0
LINE
  8
_0-0_0
  6
CONTINUOUS
 62
    7
 10
247.82655930407194
 20
135.58330935405934
 11
247.82655930407194
 21
133.88330935405935
  0
LINE
  8
_0-0_0
  6
CONTINUOUS
 62
    7
 10
247.82655930407194
 20
53.783309354059327
 11
247.82655930407194
 21
52.083309354059338
  0
LINE
  8
_0-0_0
  6
CONTINUOUS
 62
    7
 10
249.82655930407194
 20
133.88330935405935
 11
249.82655930407194
 21
129.53330935405933
  0
LINE
  8
_0-0_0
  6
CONTINUOUS
 62
    7
 10
249.82655930407194
 20
53.783309354059327
 11
249.82655930407194
 21
58.13330935405935
  0
LINE
  8
_0-4_DEFAULT_1
  6
DOT_CENTER
 62
    3
 10
250.07655930407194
 20
144.33330935405934
 11
250.07655930407194
 21
132.88919680435936
  0
LINE
  8
_0-4_DEFAULT_1
  6
DOT_CENTER
 62
    3
 10
250.07655930407194
 20
43.333309354059338
 11
250.07655930407194
 21
31.889196804359329
  0
LINE
  8
_0-4_DEFAULT_1
  6
DOT_CENTER
 62
    3
 10
250.07655930407194
 20
43.333309354059338
 11
250.07655930407194
 21
54.777421903759318
  0
LINE
  8
_0-4_DEFAULT_1
  6
DOT_CENTER
 62
    3
 10
250.07655930407194
 20
144.33330935405934
 11
250.07655930407194
 21
155.77742190375943
  0
LINE
  8
_0-0_0
  6
CONTINUOUS
 62
    7
 10
252.82655930407194
 20
135.58330935405934
 11
252.82655930407194
 21
129.53330935405933
  0
LINE
  8
_0-0_0
  6
CONTINUOUS
 62
    7
 10
252.82655930407194
 20
58.13330935405935
 11
252.82655930407194
 21
52.083309354059338
  0
LINE
  8
_0-0_0
  6
CONTINUOUS
 62
    7
 10
254.22655930407186
 20
43.333309354059338
 11
254.22655930407186
 21
45.083309354059338
  0
LINE
  8
_0-0_0
  6
CONTINUOUS
 62
    7
 10
254.22655930407186
 20
142.58330935405934
 11
254.22655930407186
 21
144.33330935405934
  0
LINE
  8
_0-0_0
  6
CONTINUOUS
 62
    7
 10
260.57655930407191
 20
36.833309354059338
 11
260.57655930407191
 21
39.333309354059338
  0
LINE
  8
_0-0_0
  6
CONTINUOUS
 62
    7
 10
260.57655930407191
 20
148.33330935405934
 11
260.57655930407191
 21
150.83330935405934
  0
LINE
  8
_0-4_DEFAULT_1
  6
DOT_CENTER
 62
    3
 10
263.07655930407191
 20
93.833309354059338
 11
263.07655930407191
 21
28.631791509659337
  0
LINE
  8
_0-0_0
  6
CONTINUOUS
 62
    7
 10
317.47655930407188
 20
91.333309354059338
 11
312.27655930407184
 21
91.333309354059338
  0
LINE
  8
_0-0_0
  6
CONTINUOUS
 62
    7
 10
213.87655930407195
 20
91.333309354059338
 11
208.67655930407184
 21
91.333309354059338
  0
LINE
  8
_0-4_DEFAULT_1
  6
DOT_CENTER
 62
    3
 10
263.07655930407191
 20
93.833309354059338
 11
200.38137639837194
 21
93.833309354059338
  0
LINE
  8
_0-4_DEFAULT_1
  6
DOT_CENTER
 62
    3
 10
263.07655930407191
 20
93.833309354059338
 11
326.61609062057175
 21
93.833309354059338
  0
LINE
  8
_0-0_0
  6
CONTINUOUS
 62
    7
 10
265.57655930407191
 20
36.833309354059338
 11
265.57655930407191
 21
39.333309354059338
  0
LINE
  8
_0-0_0
  6
CONTINUOUS
 62
    7
 10
265.57655930407191
 20
148.33330935405934
 11
265.57655930407191
 21
150.83330935405934
  0
LINE
  8
_0-0_0
  6
CONTINUOUS
 62
    7
 10
208.67655930407184
 20
96.333309354059338
 11
213.87655930407195
 21
96.333309354059338
  0
LINE
  8
_0-0_0
  6
CONTINUOUS
 62
    7
 10
312.27655930407184
 20
96.333309354059338
 11
317.47655930407188
 21
96.333309354059338
  0
LINE
  8
_0-0_0
  6
CONTINUOUS
 62
    7
 10
271.92655930407182
 20
144.33330935405934
 11
271.92655930407182
 21
142.58330935405934
  0
LINE
  8
_0-0_0
  6
CONTINUOUS
 62
    7
 10
271.92655930407182
 20
45.083309354059338
 11
271.92655930407182
 21
43.333309354059338
  0
LINE
  8
_0-0_0
  6
CONTINUOUS
 62
    7
 10
273.32655930407202
 20
52.083309354059338
 11
273.32655930407202
 21
58.13330935405935
  0
LINE
  8
_0-0_0
  6
CONTINUOUS
 62
    7
 10
273.32655930407202
 20
129.53330935405933
 11
273.32655930407202
 21
135.58330935405934
  0
LINE
  8
_0-4_DEFAULT_1
  6
DOT_CENTER
 62
    3
 10
276.07655930407191
 20
144.33330935405934
 11
276.07655930407191
 21
132.88919680435936
  0
LINE
  8
_0-4_DEFAULT_1
  6
DOT_CENTER
 62
    3
 10
276.07655930407191
 20
43.333309354059338
 11
276.07655930407191
 21
31.889196804359329
  0
LINE
  8
_0-4_DEFAULT_1
  6
DOT_CENTER
 62
    3
 10
276.07655930407191
 20
43.333309354059338
 11
276.07655930407191
 21
54.777421903759318
  0
LINE
  8
_0-4_DEFAULT_1
  6
DOT_CENTER
 62
    3
 10
276.07655930407191
 20
144.33330935405934
 11
276.07655930407191
 21
155.77742190375943
  0
LINE
  8
_0-0_0
  6
CONTINUOUS
 62
    7
 10
276.32655930407191
 20
133.88330935405935
 11
276.32655930407191
 21
129.53330935405933
  0
LINE
  8
_0-0_0
  6
CONTINUOUS
 62
    7
 10
276.32655930407191
 20
53.783309354059327
 11
276.32655930407191
 21
58.13330935405935
  0
LINE
  8
_0-0_0
  6
CONTINUOUS
 62
    7
 10
278.32655930407191
 20
52.083309354059338
 11
278.32655930407191
 21
53.783309354059327
  0
LINE
  8
_0-0_0
  6
CONTINUOUS
 62
    7
 10
278.32655930407191
 20
133.88330935405935
 11
278.32655930407191
 21
135.58330935405934
  0
LINE
  8
_0-0_0
  6
CONTINUOUS
 62
    7
 10
280.22655930407188
 20
43.333309354059338
 11
280.22655930407188
 21
45.733309354059315
  0
LINE
  8
_0-0_0
  6
CONTINUOUS
 62
    7
 10
280.22655930407188
 20
142.63330935405935
 11
280.22655930407188
 21
144.33330935405934
  0
LINE
  8
_0-4_DEFAULT_1
  6
DOT_CENTER
 62
    3
 10
286.07655930407202
 20
135.58330935405934
 11
286.07655930407202
 21
130.58320935405936
  0
LINE
  8
_0-4_DEFAULT_1
  6
DOT_CENTER
 62
    3
 10
286.07655930407202
 20
52.083309354059338
 11
286.07655930407202
 21
47.083209354059363
  0
LINE
  8
_0-4_DEFAULT_1
  6
DOT_CENTER
 62
    3
 10
286.07655930407202
 20
52.083309354059338
 11
286.07655930407202
 21
57.083409354059427
  0
LINE
  8
_0-4_DEFAULT_1
  6
DOT_CENTER
 62
    3
 10
286.07655930407202
 20
135.58330935405934
 11
286.07655930407202
 21
140.58340935405931
  0
LINE
  8
_0-0_0
  6
CONTINUOUS
 62
    7
 10
291.92655930407182
 20
144.33330935405934
 11
291.92655930407182
 21
142.63330935405935
  0
LINE
  8
_0-0_0
  6
CONTINUOUS
 62
    7
 10
291.92655930407182
 20
45.733309354059315
 11
291.92655930407182
 21
43.333309354059338
  0
LINE
  8
_0-0_0
  6
CONTINUOUS
 62
    7
 10
293.82655930407202
 20
135.58330935405934
 11
293.82655930407202
 21
133.88330935405935
  0
LINE
  8
_0-0_0
  6
CONTINUOUS
 62
    7
 10
293.82655930407202
 20
53.783309354059327
 11
293.82655930407202
 21
52.083309354059338
  0
LINE
  8
_0-0_0
  6
CONTINUOUS
 62
    7
 10
295.82655930407202
 20
58.13330935405935
 11
295.82655930407202
 21
53.783309354059327
  0
LINE
  8
_0-0_0
  6
CONTINUOUS
 62
    7
 10
295.82655930407202
 20
129.53330935405933
 11
295.82655930407202
 21
133.88330935405935
  0
LINE
  8
_0-4_DEFAULT_1
  6
DOT_CENTER
 62
    3
 10
296.07655930407202
 20
144.33330935405934
 11
296.07655930407202
 21
132.88919680435936
  0
LINE
  8
_0-4_DEFAULT_1
  6
DOT_CENTER
 62
    3
 10
296.07655930407202
 20
43.333309354059338
 11
296.07655930407202
 21
31.889196804359329
  0
LINE
  8
_0-4_DEFAULT_1
  6
DOT_CENTER
 62
    3
 10
296.07655930407202
 20
43.333309354059338
 11
296.07655930407202
 21
54.777421903759318
  0
LINE
  8
_0-4_DEFAULT_1
  6
DOT_CENTER
 62
    3
 10
296.07655930407202
 20
144.33330935405934
 11
296.07655930407202
 21
155.77742190375943
  0
LINE
  8
_0-0_0
  6
CONTINUOUS
 62
    7
 10
298.82655930407202
 20
135.58330935405934
 11
298.82655930407202
 21
129.53330935405933
  0
LINE
  8
_0-0_0
  6
CONTINUOUS
 62
    7
 10
298.82655930407202
 20
58.13330935405935
 11
298.82655930407202
 21
52.083309354059338
  0
LINE
  8
_0-0_0
  6
CONTINUOUS
 62
    7
 10
300.62655930407186
 20
45.733309354059315
 11
300.62655930407186
 21
58.13330935405935
  0
LINE
  8
_0-0_0
  6
CONTINUOUS
 62
    7
 10
300.62655930407186
 20
129.53330935405933
 11
300.62655930407186
 21
142.63330935405935
  0
LINE
  8
_0-0_0
  6
CONTINUOUS
 62
    7
 10
302.57655930407202
 20
36.833309354059338
 11
302.57655930407202
 21
39.333309354059338
  0
LINE
  8
_0-0_0
  6
CONTINUOUS
 62
    7
 10
302.57655930407202
 20
148.33330935405934
 11
302.57655930407202
 21
150.83330935405934
  0
LINE
  8
_0-0_0
  6
CONTINUOUS
 62
    7
 10
215.07655930407194
 20
128.33330935405934
 11
311.07655930407202
 21
128.33330935405934
  0
LINE
  8
_0-0_0
  6
CONTINUOUS
 62
    7
 10
217.37655930407195
 20
129.53330935405933
 11
225.52655930407204
 21
129.53330935405933
  0
LINE
  8
_0-0_0
  6
CONTINUOUS
 62
    7
 10
227.32655930407194
 20
129.53330935405933
 11
230.32655930407194
 21
129.53330935405933
  0
LINE
  8
_0-0_0
  6
CONTINUOUS
 62
    7
 10
249.82655930407194
 20
129.53330935405933
 11
252.82655930407194
 21
129.53330935405933
  0
LINE
  8
_0-0_0
  6
CONTINUOUS
 62
    7
 10
273.32655930407202
 20
129.53330935405933
 11
276.32655930407191
 21
129.53330935405933
  0
LINE
  8
_0-0_0
  6
CONTINUOUS
 62
    7
 10
295.82655930407202
 20
129.53330935405933
 11
298.82655930407202
 21
129.53330935405933
  0
LINE
  8
_0-0_0
  6
CONTINUOUS
 62
    7
 10
300.62655930407186
 20
129.53330935405933
 11
308.77655930407195
 21
129.53330935405933
  0
LINE
  8
_0-0_0
  6
CONTINUOUS
 62
    7
 10
238.07655930407194
 20
133.43330935405936
 11
242.07655930407194
 21
133.43330935405936
  0
LINE
  8
_0-0_0
  6
CONTINUOUS
 62
    7
 10
284.07655930407202
 20
133.43330935405936
 11
288.07655930407202
 21
133.43330935405936
  0
LINE
  8
_0-0_0
  6
CONTINUOUS
 62
    7
 10
307.57655930407202
 20
36.833309354059338
 11
307.57655930407202
 21
39.333309354059338
  0
LINE
  8
_0-0_0
  6
CONTINUOUS
 62
    7
 10
307.57655930407202
 20
148.33330935405934
 11
307.57655930407202
 21
150.83330935405934
  0
LINE
  8
_0-0_0
  6
CONTINUOUS
 62
    7
 10
307.87655930407209
 20
150.58330935405934
 11
307.87655930407209
 21
129.53330935405933
  0
LINE
  8
_0-0_0
  6
CONTINUOUS
 62
    7
 10
307.87655930407209
 20
58.13330935405935
 11
307.87655930407209
 21
37.083309354059338
  0
LINE
  8
_0-0_0
  6
CONTINUOUS
 62
    7
 10
300.18192175417187
 20
42.726268042559326
 11
300.62655930407186
 21
45.733309354059315
  0
LINE
  8
_0-0_0
  6
CONTINUOUS
 62
    7
 10
295.82655930407202
 20
133.88330935405935
 11
292.40466512537171
 21
133.88330935405935
  0
LINE
  8
_0-0_0
  6
CONTINUOUS
 62
    7
 10
279.74845348287181
 20
133.88330935405935
 11
276.32655930407191
 21
133.88330935405935
  0
LINE
  8
_0-0_0
  6
CONTINUOUS
 62
    7
 10
230.32655930407194
 20
133.88330935405935
 11
234.51110000687194
 21
133.88330935405935
  0
LINE
  8
_0-0_0
  6
CONTINUOUS
 62
    7
 10
245.64201860127216
 20
133.88330935405935
 11
249.82655930407194
 21
133.88330935405935
  0
LINE
  8
_0-4_DEFAULT_1
  6
DOT_CENTER
 62
    3
 10
286.07655930407202
 20
135.58330935405934
 11
281.07645930407182
 21
135.58330935405934
  0
LINE
  8
_0-4_DEFAULT_1
  6
DOT_CENTER
 62
    3
 10
270.57655930407202
 20
135.58330935405934
 11
255.57655930407194
 21
135.58330935405934
  0
LINE
  8
_0-4_DEFAULT_1
  6
DOT_CENTER
 62
    3
 10
255.57655930407194
 20
135.58330935405934
 11
253.07655930407194
 21
135.58330935405934
  0
LINE
  8
_0-0_0
  6
CONTINUOUS
 62
    7
 10
252.82655930407194
 20
135.58330935405934
 11
246.02655930407204
 21
135.58330935405934
  0
LINE
  8
_0-4_DEFAULT_1
  6
DOT_CENTER
 62
    3
 10
240.07655930407194
 20
135.58330935405934
 11
235.07645930407185
 21
135.58330935405934
  0
LINE
  8
_0-0_0
  6
CONTINUOUS
 62
    7
 10
234.12655930407195
 20
135.58330935405934
 11
227.32655930407194
 21
135.58330935405934
  0
LINE
  8
_0-4_DEFAULT_1
  6
DOT_CENTER
 62
    3
 10
240.07655930407194
 20
135.58330935405934
 11
245.07665930407185
 21
135.58330935405934
  0
LINE
  8
_0-4_DEFAULT_1
  6
DOT_CENTER
 62
    3
 10
270.57655930407202
 20
135.58330935405934
 11
273.07655930407202
 21
135.58330935405934
  0
LINE
  8
_0-0_0
  6
CONTINUOUS
 62
    7
 10
273.32655930407202
 20
135.58330935405934
 11
279.42655930407182
 21
135.58330935405934
  0
LINE
  8
_0-4_DEFAULT_1
  6
DOT_CENTER
 62
    3
 10
286.07655930407202
 20
135.58330935405934
 11
291.076659304072
 21
135.58330935405934
  0
LINE
  8
_0-0_0
  6
CONTINUOUS
 62
    7
 10
292.72655930407188
 20
135.58330935405934
 11
298.82655930407202
 21
135.58330935405934
  0
LINE
  8
_0-0_0
  6
CONTINUOUS
 62
    7
 10
288.07655930407202
 20
137.73330935405943
 11
284.07655930407202
 21
137.73330935405943
  0
LINE
  8
_0-0_0
  6
CONTINUOUS
 62
    7
 10
242.07655930407194
 20
137.73330935405943
 11
238.07655930407194
 21
137.73330935405943
  0
LINE
  8
_0-0_0
  6
CONTINUOUS
 62
    7
 10
308.77655930407195
 20
58.13330935405935
 11
308.77655930407195
 21
59.333309354059338
  0
LINE
  8
_0-0_0
  6
CONTINUOUS
 62
    7
 10
308.77655930407195
 20
128.33330935405934
 11
308.77655930407195
 21
129.53330935405933
  0
LINE
  8
_0-0_0
  6
CONTINUOUS
 62
    7
 10
311.07655930407202
 20
128.33330935405934
 11
311.07655930407202
 21
59.333309354059338
  0
LINE
  8
_0-0_0
  6
CONTINUOUS
 62
    7
 10
312.27655930407184
 20
96.333309354059338
 11
312.27655930407184
 21
91.333309354059338
  0
LINE
  8
_0-0_0
  6
CONTINUOUS
 62
    7
 10
245.92655930407184
 20
141.93330935405936
 11
234.22655930407186
 21
141.93330935405936
  0
LINE
  8
_0-0_0
  6
CONTINUOUS
 62
    7
 10
254.22655930407186
 20
142.58330935405934
 11
271.92655930407182
 21
142.58330935405934
  0
LINE
  8
_0-0_0
  6
CONTINUOUS
 62
    7
 10
291.92655930407182
 20
142.63330935405935
 11
280.22655930407188
 21
142.63330935405935
  0
LINE
  8
_0-4_DEFAULT_1
  6
DOT_CENTER
 62
    3
 10
296.07655930407202
 20
144.33330935405934
 11
284.63244675447197
 21
144.33330935405934
  0
LINE
  8
_0-4_DEFAULT_1
  6
DOT_CENTER
 62
    3
 10
276.07655930407191
 20
144.33330935405934
 11
264.63244675447197
 21
144.33330935405934
  0
LINE
  8
_0-4_DEFAULT_1
  6
DOT_CENTER
 62
    3
 10
250.07655930407194
 20
144.33330935405934
 11
238.63244675447194
 21
144.33330935405934
  0
LINE
  8
_0-4_DEFAULT_1
  6
DOT_CENTER
 62
    3
 10
230.07655930407194
 20
144.33330935405934
 11
218.63244675447194
 21
144.33330935405934
  0
LINE
  8
_0-4_DEFAULT_1
  6
DOT_CENTER
 62
    3
 10
230.07655930407194
 20
144.33330935405934
 11
238.63244675447194
 21
144.33330935405934
  0
LINE
  8
_0-4_DEFAULT_1
  6
DOT_CENTER
 62
    3
 10
250.07655930407194
 20
144.33330935405934
 11
261.52067185377189
 21
144.33330935405934
  0
LINE
  8
_0-4_DEFAULT_1
  6
DOT_CENTER
 62
    3
 10
276.07655930407191
 20
144.33330935405934
 11
284.63244675447197
 21
144.33330935405934
  0
LINE
  8
_0-4_DEFAULT_1
  6
DOT_CENTER
 62
    3
 10
296.07655930407202
 20
144.33330935405934
 11
307.52067185377189
 21
144.33330935405934
  0
LINE
  8
_0-0_0
  6
CONTINUOUS
 62
    7
 10
300.62655930407186
 20
142.63330935405935
 11
300.15278649387199
 21
145.11232918535933
  0
LINE
  8
_0-0_0
  6
CONTINUOUS
 62
    7
 10
314.97655930407188
 20
96.333309354059338
 11
314.97655930407188
 21
95.833309354059338
  0
LINE
  8
_0-0_0
  6
CONTINUOUS
 62
    7
 10
317.47655930407188
 20
91.333309354059338
 11
317.47655930407188
 21
96.333309354059338
  0
LINE
  8
_0-0_0
  6
CONTINUOUS
 62
    7
 10
317.82655930407191
 20
41.833309354059338
 11
317.82655930407191
 21
145.83330935405934
  0
LINE
  8
_0-0_0
  6
CONTINUOUS
 62
    7
 10
218.57655930407194
 20
148.33330935405934
 11
219.07655930407194
 21
148.33330935405934
  0
LINE
  8
_0-0_0
  6
CONTINUOUS
 62
    7
 10
260.57655930407191
 20
148.33330935405934
 11
261.07655930407191
 21
148.33330935405934
  0
LINE
  8
_0-0_0
  6
CONTINUOUS
 62
    7
 10
302.57655930407202
 20
148.33330935405934
 11
303.07655930407191
 21
148.33330935405934
  0
LINE
  8
_0-0_0
  6
CONTINUOUS
 62
    7
 10
319.57655930407191
 20
41.833309354059338
 11
319.57655930407191
 21
145.83330935405934
  0
LINE
  8
_0-0_0
  6
CONTINUOUS
 62
    7
 10
321.07655930407202
 20
145.83330935405934
 11
321.07655930407202
 21
41.833309354059338
  0
LINE
  8
_0-0_0
  6
CONTINUOUS
 62
    7
 10
307.87655930407209
 20
150.33330935405934
 11
307.57655930407202
 21
150.33330935405934
  0
LINE
  8
_0-0_0
  6
CONTINUOUS
 62
    7
 10
302.57655930407202
 20
150.33330935405934
 11
298.42742862267198
 21
150.33330935405934
  0
LINE
  8
_0-0_0
  6
CONTINUOUS
 62
    7
 10
293.72568998547217
 20
150.33330935405934
 11
278.42742862267198
 21
150.33330935405934
  0
LINE
  8
_0-0_0
  6
CONTINUOUS
 62
    7
 10
273.72568998547194
 20
150.33330935405934
 11
265.57655930407191
 21
150.33330935405934
  0
LINE
  8
_0-0_0
  6
CONTINUOUS
 62
    7
 10
260.57655930407191
 20
150.33330935405934
 11
252.42742862267195
 21
150.33330935405934
  0
LINE
  8
_0-0_0
  6
CONTINUOUS
 62
    7
 10
247.72568998547192
 20
150.33330935405934
 11
232.42742862267195
 21
150.33330935405934
  0
LINE
  8
_0-0_0
  6
CONTINUOUS
 62
    7
 10
227.72568998547192
 20
150.33330935405934
 11
223.57655930407194
 21
150.33330935405934
  0
LINE
  8
_0-0_0
  6
CONTINUOUS
 62
    7
 10
218.57655930407194
 20
150.33330935405934
 11
218.27655930407204
 21
150.33330935405934
  0
LINE
  8
_0-0_0
  6
CONTINUOUS
 62
    7
 10
313.07655930407202
 20
150.58330935405934
 11
307.87655930407209
 21
150.58330935405934
  0
LINE
  8
_0-0_0
  6
CONTINUOUS
 62
    7
 10
218.27655930407204
 20
150.58330935405934
 11
213.07655930407194
 21
150.58330935405934
  0
LINE
  8
_0-0_0
  6
CONTINUOUS
 62
    7
 10
307.57655930407202
 20
150.83330935405934
 11
302.57655930407202
 21
150.83330935405934
  0
LINE
  8
_0-0_0
  6
CONTINUOUS
 62
    7
 10
265.57655930407191
 20
150.83330935405934
 11
260.57655930407191
 21
150.83330935405934
  0
LINE
  8
_0-0_0
  6
CONTINUOUS
 62
    7
 10
223.57655930407194
 20
150.83330935405934
 11
218.57655930407194
 21
150.83330935405934
  0
LINE
  8
_0-0_0
  6
CONTINUOUS
 62
    7
 10
313.07655930407202
 20
152.33330935405934
 11
213.07655930407194
 21
152.33330935405934
  0
LINE
  8
_0-0_0
  6
CONTINUOUS
 62
    7
 10
313.07655930407202
 20
153.83330935405934
 11
213.07655930407194
 21
153.83330935405934
  0
LINE
  8
_0-0_0
  6
CONTINUOUS
 62
    7
 10
133.50995894632473
 20
112.98330935405943
 11
133.50995894632473
 21
99.333309354059338
  0
LINE
  8
_0-1_1
  6
DOT_CENTER
 62
    3
 10
255.87655930407206
 20
120.23330935405932
 11
255.87655930407206
 21
112.43330935405936
  0
LINE
  8
_0-1_1
  6
DOT_CENTER
 62
    3
 10
259.77655930407207
 20
116.33330935405934
 11
251.97655930407214
 21
116.33330935405934
  0
LINE
  8
_0-1_1
  6
DOT_CENTER
 62
    3
 10
126.51558386362774
 20
115.83330935405934
 11
136.57593640593274
 21
115.83330935405934
  0
LINE
  8
_0-1_1
  6
DOT_CENTER
 62
    3
 10
50.436269611757737
 20
209.26906106399912
 11
50.436269611757737
 21
191.12902992331135
  0
LINE
  8
_0-1_1
  6
DOT_CENTER
 62
    3
 10
73.736269611757621
 20
204.86172731785314
 11
73.736269611757621
 21
189.96383135650245
  0
LINE
  8
_0-1_1
  6
DOT_CENTER
 62
    3
 10
109.21791640016474
 20
93.833309354059338
 11
139.45503983692674
 21
93.833309354059338
  0
LINE
  8
_0-1_1
  6
DOT_CENTER
 62
    3
 10
43.236269611757635
 20
212.38526027888003
 11
43.236269611757635
 21
174.97063983815434
  0
LINE
  8
_0-0_0
  6
CONTINUOUS
 62
    7
 10
-14.763730388242323
 20
145.83330935405934
 11
-14.763730388242323
 21
41.833309354059338
  0
LINE
  8
_0-0_0
  6
CONTINUOUS
 62
    7
 10
-6.7637303882423225
 20
33.833309354059338
 11
93.236269611757621
 21
33.833309354059338
  0
LINE
  8
_0-0_0
  6
CONTINUOUS
 62
    7
 10
-5.4137303882422998
 20
134.83330935405934
 11
-5.4137303882422998
 21
52.833309354059338
  0
LINE
  8
_0-0_0
  6
CONTINUOUS
 62
    7
 10
-1.2637303882423225
 20
48.683309354059361
 11
87.736269611757621
 21
48.683309354059361
  0
LINE
  8
_0-0_0
  6
CONTINUOUS
 62
    7
 10
87.736269611757621
 20
138.98330935405932
 11
-1.2637303882423225
 21
138.98330935405932
  0
LINE
  8
_0-0_0
  6
CONTINUOUS
 62
    7
 10
91.88626961175774
 20
52.833309354059338
 11
91.88626961175774
 21
134.83330935405934
  0
LINE
  8
_0-0_0
  6
CONTINUOUS
 62
    7
 10
101.23626961175762
 20
145.83330935405934
 11
101.23626961175762
 21
41.833309354059338
  0
LINE
  8
_0-0_0
  6
CONTINUOUS
 62
    7
 10
-6.7637303882423225
 20
153.83330935405934
 11
93.236269611757621
 21
153.83330935405934
  0
LINE
  8
_0-0_0
  6
CONTINUOUS
 62
    7
 10
222.17655930407196
 20
150.13975356525935
 11
223.07655930407194
 21
150.13975356525935
  0
LINE
  8
_0-0_0
  6
CONTINUOUS
 62
    7
 10
219.07655930407194
 20
150.13975356525935
 11
219.97655930407214
 21
150.13975356525935
  0
LINE
  8
_0-0_0
  6
CONTINUOUS
 62
    7
 10
261.97655930407211
 20
150.13975356525935
 11
261.07655930407191
 21
150.13975356525935
  0
LINE
  8
_0-0_0
  6
CONTINUOUS
 62
    7
 10
265.07655930407191
 20
150.13975356525935
 11
264.17655930407193
 21
150.13975356525935
  0
LINE
  8
_0-0_0
  6
CONTINUOUS
 62
    7
 10
303.97655930407211
 20
150.13975356525935
 11
303.07655930407191
 21
150.13975356525935
  0
LINE
  8
_0-0_0
  6
CONTINUOUS
 62
    7
 10
307.07655930407191
 20
150.13975356525935
 11
306.17655930407182
 21
150.13975356525935
  0
LINE
  8
_0-0_0
  6
CONTINUOUS
 62
    7
 10
303.97655930407211
 20
149.87237185405934
 11
306.17655930407182
 21
149.87237185405934
  0
LINE
  8
_0-0_0
  6
CONTINUOUS
 62
    7
 10
261.97655930407211
 20
149.87237185405934
 11
264.17655930407193
 21
149.87237185405934
  0
LINE
  8
_0-0_0
  6
CONTINUOUS
 62
    7
 10
219.97655930407214
 20
149.87237185405934
 11
222.17655930407196
 21
149.87237185405934
  0
LINE
  8
_0-0_0
  6
CONTINUOUS
 62
    7
 10
261.07655930407191
 20
149.43330935405936
 11
265.07655930407191
 21
149.43330935405936
  0
LINE
  8
_0-0_0
  6
CONTINUOUS
 62
    7
 10
219.07655930407194
 20
149.43330935405936
 11
223.07655930407194
 21
149.43330935405936
  0
LINE
  8
_0-0_0
  6
CONTINUOUS
 62
    7
 10
307.07655930407191
 20
149.43330935405936
 11
303.07655930407191
 21
149.43330935405936
  0
LINE
  8
_0-0_0
  6
CONTINUOUS
 62
    7
 10
223.07655930407194
 20
149.13330935405935
 11
219.07655930407194
 21
149.13330935405935
  0
LINE
  8
_0-0_0
  6
CONTINUOUS
 62
    7
 10
265.07655930407191
 20
149.13330935405935
 11
261.07655930407191
 21
149.13330935405935
  0
LINE
  8
_0-0_0
  6
CONTINUOUS
 62
    7
 10
307.07655930407191
 20
149.13330935405935
 11
303.07655930407191
 21
149.13330935405935
  0
LINE
  8
_0-0_0
  6
CONTINUOUS
 62
    7
 10
223.07655930407194
 20
147.83330935405934
 11
219.07655930407194
 21
147.83330935405934
  0
LINE
  8
_0-0_0
  6
CONTINUOUS
 62
    7
 10
265.07655930407191
 20
147.83330935405934
 11
261.07655930407191
 21
147.83330935405934
  0
LINE
  8
_0-0_0
  6
CONTINUOUS
 62
    7
 10
307.07655930407191
 20
147.83330935405934
 11
303.07655930407191
 21
147.83330935405934
  0
LINE
  8
_0-0_0
  6
CONTINUOUS
 62
    7
 10
317.07655930407202
 20
94.933309354059361
 11
317.07655930407202
 21
95.833309354059338
  0
LINE
  8
_0-0_0
  6
CONTINUOUS
 62
    7
 10
317.07655930407202
 20
91.833309354059338
 11
317.07655930407202
 21
92.733309354059315
  0
LINE
  8
_0-0_0
  6
CONTINUOUS
 62
    7
 10
316.68300351527228
 20
91.833309354059338
 11
316.68300351527228
 21
92.733309354059315
  0
LINE
  8
_0-0_0
  6
CONTINUOUS
 62
    7
 10
316.68300351527228
 20
95.833309354059338
 11
316.68300351527228
 21
94.933309354059361
  0
LINE
  8
_0-0_0
  6
CONTINUOUS
 62
    7
 10
315.97655930407211
 20
91.333309354059338
 11
315.97655930407211
 21
96.333309354059338
  0
LINE
  8
_0-0_0
  6
CONTINUOUS
 62
    7
 10
315.67655930407182
 20
95.833309354059338
 11
315.67655930407182
 21
91.833309354059338
  0
LINE
  8
_0-0_0
  6
CONTINUOUS
 62
    7
 10
314.47655930407211
 20
95.833309354059338
 11
314.47655930407211
 21
91.833309354059338
  0
LINE
  8
_0-0_0
  6
CONTINUOUS
 62
    7
 10
310.82655930407202
 20
60.583309354059338
 11
310.82655930407202
 21
127.08330935405934
  0
LINE
  8
_0-0_0
  6
CONTINUOUS
 62
    7
 10
307.07655930407191
 20
147.83330935405934
 11
307.07655930407191
 21
150.83330935405934
  0
LINE
  8
_0-0_0
  6
CONTINUOUS
 62
    7
 10
307.07655930407191
 20
36.833309354059338
 11
307.07655930407191
 21
39.833309354059338
  0
LINE
  8
_0-0_0
  6
CONTINUOUS
 62
    7
 10
306.17655930407182
 20
149.43330935405936
 11
306.17655930407182
 21
150.83330935405934
  0
LINE
  8
_0-0_0
  6
CONTINUOUS
 62
    7
 10
306.17655930407182
 20
36.833309354059338
 11
306.17655930407182
 21
38.233309354059344
  0
LINE
  8
_0-0_0
  6
CONTINUOUS
 62
    7
 10
303.97655930407211
 20
149.43330935405936
 11
303.97655930407211
 21
150.83330935405934
  0
LINE
  8
_0-0_0
  6
CONTINUOUS
 62
    7
 10
303.97655930407211
 20
36.833309354059338
 11
303.97655930407211
 21
38.233309354059344
  0
LINE
  8
_0-0_0
  6
CONTINUOUS
 62
    7
 10
303.07655930407191
 20
147.83330935405934
 11
303.07655930407191
 21
150.83330935405934
  0
LINE
  8
_0-0_0
  6
CONTINUOUS
 62
    7
 10
303.07655930407191
 20
36.833309354059338
 11
303.07655930407191
 21
39.833309354059338
  0
LINE
  8
_0-0_0
  6
CONTINUOUS
 62
    7
 10
309.82655930407202
 20
128.08330935405934
 11
308.77655930407195
 21
128.08330935405934
  0
LINE
  8
_0-0_0
  6
CONTINUOUS
 62
    7
 10
261.87655930407209
 20
122.83330935405934
 11
249.87655930407206
 21
122.83330935405934
  0
LINE
  8
_0-0_0
  6
CONTINUOUS
 62
    7
 10
240.57655930407194
 20
120.33330935405934
 11
224.57655930407194
 21
120.33330935405934
  0
LINE
  8
_0-0_0
  6
CONTINUOUS
 62
    7
 10
239.57655930407194
 20
118.68330935405936
 11
225.57655930407194
 21
118.68330935405936
  0
LINE
  8
_0-0_0
  6
CONTINUOUS
 62
    7
 10
256.37655930407209
 20
118.33330935405934
 11
255.37655930407206
 21
118.33330935405934
  0
LINE
  8
_0-0_0
  6
CONTINUOUS
 62
    7
 10
239.07655930407194
 20
118.18330935405936
 11
226.07655930407194
 21
118.18330935405936
  0
LINE
  8
_0-0_0
  6
CONTINUOUS
 62
    7
 10
255.37655930407206
 20
116.83330935405934
 11
253.87655930407206
 21
116.83330935405934
  0
LINE
  8
_0-0_0
  6
CONTINUOUS
 62
    7
 10
257.87655930407209
 20
116.83330935405934
 11
256.37655930407209
 21
116.83330935405934
  0
LINE
  8
_0-0_0
  6
CONTINUOUS
 62
    7
 10
256.37655930407209
 20
115.83330935405934
 11
257.87655930407209
 21
115.83330935405934
  0
LINE
  8
_0-0_0
  6
CONTINUOUS
 62
    7
 10
253.87655930407206
 20
115.83330935405934
 11
255.37655930407206
 21
115.83330935405934
  0
LINE
  8
_0-0_0
  6
CONTINUOUS
 62
    7
 10
255.37655930407206
 20
114.33330935405934
 11
256.37655930407209
 21
114.33330935405934
  0
LINE
  8
_0-0_0
  6
CONTINUOUS
 62
    7
 10
226.07655930407194
 20
113.48330935405932
 11
239.07655930407194
 21
113.48330935405932
  0
LINE
  8
_0-0_0
  6
CONTINUOUS
 62
    7
 10
225.57655930407194
 20
112.98330935405943
 11
239.57655930407194
 21
112.98330935405943
  0
LINE
  8
_0-0_0
  6
CONTINUOUS
 62
    7
 10
251.07655930407194
 20
112.33330935405934
 11
260.67655930407193
 21
112.33330935405934
  0
LINE
  8
_0-0_0
  6
CONTINUOUS
 62
    7
 10
224.57655930407194
 20
111.33330935405934
 11
240.57655930407194
 21
111.33330935405934
  0
LINE
  8
_0-0_0
  6
CONTINUOUS
 62
    7
 10
251.07655930407194
 20
107.93330935405936
 11
260.67655930407193
 21
107.93330935405936
  0
LINE
  8
_0-0_0
  6
CONTINUOUS
 62
    7
 10
251.07655930407194
 20
102.33330935405934
 11
260.67655930407193
 21
102.33330935405934
  0
LINE
  8
_0-0_0
  6
CONTINUOUS
 62
    7
 10
249.87655930407206
 20
98.833309354059338
 11
261.87655930407209
 21
98.833309354059338
  0
LINE
  8
_0-0_0
  6
CONTINUOUS
 62
    7
 10
314.47655930407211
 20
95.833309354059338
 11
317.47655930407211
 21
95.833309354059338
  0
LINE
  8
_0-0_0
  6
CONTINUOUS
 62
    7
 10
208.67655930407196
 20
95.833309354059338
 11
211.67655930407196
 21
95.833309354059338
  0
LINE
  8
_0-0_0
  6
CONTINUOUS
 62
    7
 10
315.97655930407211
 20
94.933309354059361
 11
317.47655930407211
 21
94.933309354059361
  0
LINE
  8
_0-0_0
  6
CONTINUOUS
 62
    7
 10
208.67655930407196
 20
94.933309354059361
 11
210.17655930407196
 21
94.933309354059361
  0
LINE
  8
_0-0_0
  6
CONTINUOUS
 62
    7
 10
265.07655930407191
 20
147.83330935405934
 11
265.07655930407191
 21
150.83330935405934
  0
LINE
  8
_0-0_0
  6
CONTINUOUS
 62
    7
 10
265.07655930407191
 20
36.833309354059338
 11
265.07655930407191
 21
39.833309354059338
  0
LINE
  8
_0-0_0
  6
CONTINUOUS
 62
    7
 10
264.17655930407193
 20
149.43330935405936
 11
264.17655930407193
 21
150.83330935405934
  0
LINE
  8
_0-0_0
  6
CONTINUOUS
 62
    7
 10
264.17655930407193
 20
36.833309354059338
 11
264.17655930407193
 21
38.233309354059344
  0
LINE
  8
_0-0_0
  6
CONTINUOUS
 62
    7
 10
315.97655930407211
 20
92.733309354059315
 11
317.47655930407211
 21
92.733309354059315
  0
LINE
  8
_0-0_0
  6
CONTINUOUS
 62
    7
 10
208.67655930407196
 20
92.733309354059315
 11
210.17655930407196
 21
92.733309354059315
  0
LINE
  8
_0-0_0
  6
CONTINUOUS
 62
    7
 10
314.47655930407211
 20
91.833309354059338
 11
317.47655930407211
 21
91.833309354059338
  0
LINE
  8
_0-0_0
  6
CONTINUOUS
 62
    7
 10
208.67655930407196
 20
91.833309354059338
 11
211.67655930407196
 21
91.833309354059338
  0
LINE
  8
_0-0_0
  6
CONTINUOUS
 62
    7
 10
262.87655930407209
 20
99.833309354059338
 11
262.87655930407209
 21
121.83330935405934
  0
LINE
  8
_0-0_0
  6
CONTINUOUS
 62
    7
 10
261.97655930407211
 20
149.43330935405936
 11
261.97655930407211
 21
150.83330935405934
  0
LINE
  8
_0-0_0
  6
CONTINUOUS
 62
    7
 10
261.97655930407211
 20
36.833309354059338
 11
261.97655930407211
 21
38.233309354059344
  0
LINE
  8
_0-0_0
  6
CONTINUOUS
 62
    7
 10
261.07655930407191
 20
147.83330935405934
 11
261.07655930407191
 21
150.83330935405934
  0
LINE
  8
_0-0_0
  6
CONTINUOUS
 62
    7
 10
261.07655930407191
 20
36.833309354059338
 11
261.07655930407191
 21
39.833309354059338
  0
LINE
  8
_0-0_0
  6
CONTINUOUS
 62
    7
 10
260.67655930407193
 20
119.83330935405934
 11
260.67655930407193
 21
102.33331977585931
  0
LINE
  8
_0-0_0
  6
CONTINUOUS
 62
    7
 10
257.87655930407209
 20
115.83330935405934
 11
257.87655930407209
 21
116.83330935405934
  0
LINE
  8
_0-0_0
  6
CONTINUOUS
 62
    7
 10
256.37655930407209
 20
116.83330935405934
 11
256.37655930407209
 21
118.33330935405934
  0
LINE
  8
_0-0_0
  6
CONTINUOUS
 62
    7
 10
256.37655930407209
 20
114.33330935405934
 11
256.37655930407209
 21
115.83330935405934
  0
LINE
  8
_0-0_0
  6
CONTINUOUS
 62
    7
 10
255.37655930407206
 20
115.83330935405934
 11
255.37655930407206
 21
114.33330935405934
  0
LINE
  8
_0-0_0
  6
CONTINUOUS
 62
    7
 10
255.37655930407206
 20
118.33330935405934
 11
255.37655930407206
 21
116.83330935405934
  0
LINE
  8
_0-0_0
  6
CONTINUOUS
 62
    7
 10
253.87655930407206
 20
116.83330935405934
 11
253.87655930407206
 21
115.83330935405934
  0
LINE
  8
_0-0_0
  6
CONTINUOUS
 62
    7
 10
251.07655930407194
 20
119.83330935405934
 11
251.07655930407194
 21
102.33331977585931
  0
LINE
  8
_0-0_0
  6
CONTINUOUS
 62
    7
 10
248.87655930407206
 20
121.83330935405934
 11
248.87655930407206
 21
99.833309354059338
  0
LINE
  8
_0-0_0
  6
CONTINUOUS
 62
    7
 10
240.57655930407194
 20
111.33330935405934
 11
240.57655930407194
 21
120.33330935405934
  0
LINE
  8
_0-0_0
  6
CONTINUOUS
 62
    7
 10
239.57655930407194
 20
112.98330935405943
 11
239.57655930407194
 21
118.68330935405936
  0
LINE
  8
_0-0_0
  6
CONTINUOUS
 62
    7
 10
239.07655930407194
 20
113.48330935405932
 11
239.07655930407194
 21
118.18330935405936
  0
LINE
  8
_0-0_0
  6
CONTINUOUS
 62
    7
 10
216.32655930407194
 20
59.583309354059338
 11
217.37655930407195
 21
59.583309354059338
  0
LINE
  8
_0-0_0
  6
CONTINUOUS
 62
    7
 10
226.07655930407194
 20
118.18330935405936
 11
226.07655930407194
 21
113.48330935405932
  0
LINE
  8
_0-0_0
  6
CONTINUOUS
 62
    7
 10
225.57655930407194
 20
118.68330935405936
 11
225.57655930407194
 21
112.98330935405943
  0
LINE
  8
_0-0_0
  6
CONTINUOUS
 62
    7
 10
224.57655930407194
 20
120.33330935405934
 11
224.57655930407194
 21
111.33330935405934
  0
LINE
  8
_0-0_0
  6
CONTINUOUS
 62
    7
 10
223.07655930407194
 20
147.83330935405934
 11
223.07655930407194
 21
150.83330935405934
  0
LINE
  8
_0-0_0
  6
CONTINUOUS
 62
    7
 10
223.07655930407194
 20
36.833309354059338
 11
223.07655930407194
 21
39.833309354059338
  0
LINE
  8
_0-0_0
  6
CONTINUOUS
 62
    7
 10
222.17655930407196
 20
38.233309354059344
 11
222.17655930407196
 21
36.833309354059338
  0
LINE
  8
_0-0_0
  6
CONTINUOUS
 62
    7
 10
222.17655930407196
 20
150.83330935405934
 11
222.17655930407196
 21
149.43330935405936
  0
LINE
  8
_0-0_0
  6
CONTINUOUS
 62
    7
 10
219.97655930407214
 20
149.43330935405936
 11
219.97655930407214
 21
150.83330935405934
  0
LINE
  8
_0-0_0
  6
CONTINUOUS
 62
    7
 10
219.97655930407214
 20
36.833309354059338
 11
219.97655930407214
 21
38.233309354059344
  0
LINE
  8
_0-0_0
  6
CONTINUOUS
 62
    7
 10
219.07655930407194
 20
147.83330935405934
 11
219.07655930407194
 21
150.83330935405934
  0
LINE
  8
_0-0_0
  6
CONTINUOUS
 62
    7
 10
219.07655930407194
 20
36.833309354059338
 11
219.07655930407194
 21
39.833309354059338
  0
LINE
  8
_0-0_0
  6
CONTINUOUS
 62
    7
 10
215.32655930407194
 20
127.08330935405934
 11
215.32655930407194
 21
60.583309354059338
  0
LINE
  8
_0-0_0
  6
CONTINUOUS
 62
    7
 10
223.07655930407194
 20
39.833309354059338
 11
219.07655930407194
 21
39.833309354059338
  0
LINE
  8
_0-0_0
  6
CONTINUOUS
 62
    7
 10
265.07655930407191
 20
39.833309354059338
 11
261.07655930407191
 21
39.833309354059338
  0
LINE
  8
_0-0_0
  6
CONTINUOUS
 62
    7
 10
307.07655930407191
 20
39.833309354059338
 11
303.07655930407191
 21
39.833309354059338
  0
LINE
  8
_0-0_0
  6
CONTINUOUS
 62
    7
 10
211.67655930407196
 20
95.833309354059338
 11
211.67655930407196
 21
91.833309354059338
  0
LINE
  8
_0-0_0
  6
CONTINUOUS
 62
    7
 10
210.47655930407214
 20
95.833309354059338
 11
210.47655930407214
 21
91.833309354059338
  0
LINE
  8
_0-0_0
  6
CONTINUOUS
 62
    7
 10
210.17655930407196
 20
91.333309354059338
 11
210.17655930407196
 21
96.333309354059338
  0
LINE
  8
_0-0_0
  6
CONTINUOUS
 62
    7
 10
209.47011509307222
 20
91.833309354059338
 11
209.47011509307222
 21
92.733309354059315
  0
LINE
  8
_0-0_0
  6
CONTINUOUS
 62
    7
 10
209.47011509307222
 20
95.833309354059338
 11
209.47011509307222
 21
94.933309354059361
  0
LINE
  8
_0-0_0
  6
CONTINUOUS
 62
    7
 10
209.07655930407194
 20
94.933309354059361
 11
209.07655930407194
 21
95.833309354059338
  0
LINE
  8
_0-0_0
  6
CONTINUOUS
 62
    7
 10
209.07655930407194
 20
91.833309354059338
 11
209.07655930407194
 21
92.733309354059315
  0
LINE
  8
_0-0_0
  6
CONTINUOUS
 62
    7
 10
223.07655930407194
 20
38.533309354059327
 11
219.07655930407194
 21
38.533309354059327
  0
LINE
  8
_0-0_0
  6
CONTINUOUS
 62
    7
 10
265.07655930407191
 20
38.533309354059327
 11
261.07655930407191
 21
38.533309354059327
  0
LINE
  8
_0-0_0
  6
CONTINUOUS
 62
    7
 10
307.07655930407191
 20
38.533309354059327
 11
303.07655930407191
 21
38.533309354059327
  0
LINE
  8
_0-0_0
  6
CONTINUOUS
 62
    7
 10
219.07655930407194
 20
38.233309354059344
 11
223.07655930407194
 21
38.233309354059344
  0
LINE
  8
_0-0_0
  6
CONTINUOUS
 62
    7
 10
265.07655930407191
 20
38.233309354059344
 11
261.07655930407191
 21
38.233309354059344
  0
LINE
  8
_0-0_0
  6
CONTINUOUS
 62
    7
 10
307.07655930407191
 20
38.233309354059344
 11
303.07655930407191
 21
38.233309354059344
  0
LINE
  8
_0-0_0
  6
CONTINUOUS
 62
    7
 10
222.17655930407196
 20
37.794246854059338
 11
219.97655930407214
 21
37.794246854059338
  0
LINE
  8
_0-0_0
  6
CONTINUOUS
 62
    7
 10
264.17655930407193
 20
37.794246854059338
 11
261.97655930407211
 21
37.794246854059338
  0
LINE
  8
_0-0_0
  6
CONTINUOUS
 62
    7
 10
306.17655930407182
 20
37.794246854059338
 11
303.97655930407211
 21
37.794246854059338
  0
LINE
  8
_0-0_0
  6
CONTINUOUS
 62
    7
 10
222.17655930407196
 20
37.52686514285935
 11
223.07655930407194
 21
37.52686514285935
  0
LINE
  8
_0-0_0
  6
CONTINUOUS
 62
    7
 10
219.07655930407194
 20
37.52686514285935
 11
219.97655930407214
 21
37.52686514285935
  0
LINE
  8
_0-0_0
  6
CONTINUOUS
 62
    7
 10
261.97655930407211
 20
37.52686514285935
 11
261.07655930407191
 21
37.52686514285935
  0
LINE
  8
_0-0_0
  6
CONTINUOUS
 62
    7
 10
265.07655930407191
 20
37.52686514285935
 11
264.17655930407193
 21
37.52686514285935
  0
LINE
  8
_0-0_0
  6
CONTINUOUS
 62
    7
 10
303.97655930407211
 20
37.52686514285935
 11
303.07655930407191
 21
37.52686514285935
  0
LINE
  8
_0-0_0
  6
CONTINUOUS
 62
    7
 10
307.07655930407191
 20
37.52686514285935
 11
306.17655930407182
 21
37.52686514285935
  0
LINE
  8
_0-0_0
  6
CONTINUOUS
 62
    7
 10
131.90995894632474
 20
153.83330935405934
 11
129.90995894632474
 21
153.83330935405934
  0
LINE
  8
_0-0_0
  6
CONTINUOUS
 62
    7
 10
129.40995894632474
 20
153.83330935405934
 11
122.23319908992474
 21
153.58269137745941
  0
LINE
  8
_0-0_0
  6
CONTINUOUS
 62
    7
 10
129.90995894632474
 20
152.83330935405934
 11
129.40995894632474
 21
152.73330935405932
  0
LINE
  8
_0-0_0
  6
CONTINUOUS
 62
    7
 10
137.70995894632475
 20
119.33330935405934
 11
138.27495841632472
 21
118.98018468525936
  0
LINE
  8
_0-0_0
  6
CONTINUOUS
 62
    7
 10
133.00995894632473
 20
122.83330935405934
 11
132.00995894632473
 21
122.83330935405934
  0
LINE
  8
_0-0_0
  6
CONTINUOUS
 62
    7
 10
133.50995894632473
 20
121.33330935405934
 11
136.50995894632473
 21
121.33330935405934
  0
LINE
  8
_0-0_0
  6
CONTINUOUS
 62
    7
 10
133.50995894632473
 20
119.83330935405934
 11
136.50995894632473
 21
119.83330935405934
  0
LINE
  8
_0-0_0
  6
CONTINUOUS
 62
    7
 10
136.50995894632473
 20
119.33330935405934
 11
137.70995894632475
 21
119.33330935405934
  0
LINE
  8
_0-0_0
  6
CONTINUOUS
 62
    7
 10
131.90995894632474
 20
118.68330935405936
 11
134.70995894632475
 21
118.68330935405936
  0
LINE
  8
_0-0_0
  6
CONTINUOUS
 62
    7
 10
136.50995894632473
 20
112.33330935405934
 11
139.80995894632463
 21
107.93330935405936
  0
LINE
  8
_0-0_0
  6
CONTINUOUS
 62
    7
 10
135.50995894632473
 20
111.99997602065935
 11
139.00995894632473
 21
107.33330935405934
  0
LINE
  8
_0-0_0
  6
CONTINUOUS
 62
    7
 10
136.50995894632473
 20
113.33330935405934
 11
137.70995894632475
 21
113.33330935405934
  0
LINE
  8
_0-0_0
  6
CONTINUOUS
 62
    7
 10
131.90995894632474
 20
112.98330935405943
 11
134.70995894632475
 21
112.98330935405943
  0
LINE
  8
_0-0_0
  6
CONTINUOUS
 62
    7
 10
134.50995894632473
 20
111.99997602065935
 11
135.50995894632473
 21
111.99997602065935
  0
LINE
  8
_0-0_0
  6
CONTINUOUS
 62
    7
 10
138.50995894632473
 20
114.11043317485945
 11
138.50995894632473
 21
118.55618553325934
  0
LINE
  8
_0-0_0
  6
CONTINUOUS
 62
    7
 10
137.70995894632475
 20
113.33330935405934
 11
137.70995894632475
 21
119.33330935405934
  0
LINE
  8
_0-0_0
  6
CONTINUOUS
 62
    7
 10
136.50995894632473
 20
112.33330935405934
 11
136.50995894632473
 21
121.33330935405934
  0
LINE
  8
_0-0_0
  6
CONTINUOUS
 62
    7
 10
133.00995894632473
 20
98.833309354059338
 11
132.00995894632473
 21
98.833309354059338
  0
LINE
  8
_0-0_0
  6
CONTINUOUS
 62
    7
 10
134.50995894632473
 20
105.83330935405934
 11
134.50995894632473
 21
111.99997602065935
  0
LINE
  8
_0-0_0
  6
CONTINUOUS
 62
    7
 10
133.50995894632473
 20
122.33330935405934
 11
133.50995894632473
 21
118.68330935405936
  0
LINE
  8
_0-0_0
  6
CONTINUOUS
 62
    7
 10
134.70995894632475
 20
118.68330935405936
 11
134.70995894632475
 21
112.98330935405943
  0
LINE
  8
_0-0_0
  6
CONTINUOUS
 62
    7
 10
131.90995894632474
 20
33.833309354059338
 11
131.90995894632474
 21
153.83330935405934
  0
LINE
  8
_0-0_0
  6
CONTINUOUS
 62
    7
 10
129.90995894632474
 20
33.833309354059338
 11
129.90995894632474
 21
153.83330935405934
  0
LINE
  8
_0-0_0
  6
CONTINUOUS
 62
    7
 10
129.40995894632474
 20
153.83330935405934
 11
129.40995894632474
 21
33.833309354059338
  0
LINE
  8
_0-0_0
  6
CONTINUOUS
 62
    7
 10
137.70995894632475
 20
113.33330935405934
 11
138.27495841632472
 21
113.68643402285932
  0
LINE
  8
_0-0_0
  6
CONTINUOUS
 62
    7
 10
116.20995894632475
 20
140.83330935405934
 11
116.20995894632475
 21
46.833309354059338
  0
LINE
  8
_0-0_0
  6
CONTINUOUS
 62
    7
 10
129.90995894632474
 20
34.833309354059338
 11
129.40995894632474
 21
34.933309354059332
  0
LINE
  8
_0-0_0
  6
CONTINUOUS
 62
    7
 10
122.23319908992474
 20
34.08392733065935
 11
129.40995894632474
 21
33.833309354059338
  0
LINE
  8
_0-0_0
  6
CONTINUOUS
 62
    7
 10
131.90995894632474
 20
33.833309354059338
 11
129.90995894632474
 21
33.833309354059338
  0
LINE
  8
_0-0_0
  6
CONTINUOUS
 62
    7
 10
100.23626961175762
 20
194.67083015179145
 11
100.13626961175774
 21
194.17083015179145
  0
LINE
  8
_0-0_0
  6
CONTINUOUS
 62
    7
 10
101.23626961175762
 20
194.17083015179145
 11
100.97093928975772
 21
186.57276384779135
  0
LINE
  8
_0-0_0
  6
CONTINUOUS
 62
    7
 10
101.23626961175762
 20
196.67083015179122
 11
101.23626961175762
 21
194.67083015179145
  0
LINE
  8
_0-0_0
  6
CONTINUOUS
 62
    7
 10
80.736269611757621
 20
196.67083015179122
 11
80.736269611757621
 21
199.47083015179135
  0
LINE
  8
_0-0_0
  6
CONTINUOUS
 62
    7
 10
66.736269611757621
 20
196.67083015179122
 11
66.736269611757621
 21
199.47083015179135
  0
LINE
  8
_0-0_0
  6
CONTINUOUS
 62
    7
 10
53.436269611757723
 20
202.47083015179112
 11
53.083144942957745
 21
203.03582962179132
  0
LINE
  8
_0-0_0
  6
CONTINUOUS
 62
    7
 10
55.236269611757621
 20
205.27083015179136
 11
45.63626961175774
 21
205.27083015179136
  0
LINE
  8
_0-0_0
  6
CONTINUOUS
 62
    6
 10
57.436269611757723
 20
198.27083015179136
 11
57.436269611757723
 21
197.77083015179136
  0
LINE
  8
_0-0_0
  6
CONTINUOUS
 62
    7
 10
48.213393432557737
 20
203.27083015179136
 11
52.659145790957723
 21
203.27083015179136
  0
LINE
  8
_0-0_0
  6
CONTINUOUS
 62
    7
 10
47.78939428055773
 20
203.03582962179132
 11
53.083144942957745
 21
203.03582962179132
  0
LINE
  8
_0-0_0
  6
CONTINUOUS
 62
    7
 10
47.436269611757737
 20
202.47083015179112
 11
53.436269611757723
 21
202.47083015179112
  0
LINE
  8
_0-0_0
  6
CONTINUOUS
 62
    7
 10
55.236269611757621
 20
201.27083015179136
 11
45.63626961175774
 21
201.27083015179136
  0
LINE
  8
_0-0_0
  6
CONTINUOUS
 62
    7
 10
55.236269611757621
 20
198.27083015179136
 11
55.236269611757621
 21
205.27081456699136
  0
LINE
  8
_0-0_0
  6
CONTINUOUS
 62
    7
 10
53.436269611757723
 20
201.27083015179136
 11
53.436269611757723
 21
202.47083015179112
  0
LINE
  8
_0-0_0
  6
CONTINUOUS
 62
    6
 10
43.436269611757737
 20
198.27083015179136
 11
43.936269611757737
 21
198.27083015179136
  0
LINE
  8
_0-0_0
  6
CONTINUOUS
 62
    7
 10
66.736269611757621
 20
199.47083015179135
 11
80.736269611757621
 21
199.47083015179135
  0
LINE
  8
_0-0_0
  6
CONTINUOUS
 62
    7
 10
-14.763730388242323
 20
196.67083015179122
 11
101.23626961175762
 21
196.67083015179122
  0
LINE
  8
_0-0_0
  6
CONTINUOUS
 62
    7
 10
47.436269611757737
 20
201.27083015179136
 11
47.436269611757737
 21
202.47083015179112
  0
LINE
  8
_0-0_0
  6
CONTINUOUS
 62
    7
 10
45.63626961175774
 20
198.27083015179136
 11
45.63626961175774
 21
205.27081456699136
  0
LINE
  8
_0-0_0
  6
CONTINUOUS
 62
    7
 10
-14.763730388242323
 20
194.67083015179145
 11
101.23626961175762
 21
194.67083015179145
  0
LINE
  8
_0-0_0
  6
CONTINUOUS
 62
    7
 10
-14.763730388242323
 20
194.17083015179145
 11
101.23626961175762
 21
194.17083015179145
  0
LINE
  8
_0-0_0
  6
CONTINUOUS
 62
    7
 10
47.436269611757737
 20
202.47083015179112
 11
47.78939428055773
 21
203.03582962179132
  0
LINE
  8
_0-0_0
  6
CONTINUOUS
 62
    6
 10
43.436269611757737
 20
198.27083015179136
 11
43.436269611757737
 21
197.77083015179136
  0
LINE
  8
_0-0_0
  6
CONTINUOUS
 62
    7
 10
-6.1049704312422932
 20
180.97083015179135
 11
92.577509654757733
 21
180.97083015179135
  0
LINE
  8
_0-0_0
  6
CONTINUOUS
 62
    7
 10
-13.6637303882423
 20
194.17083015179145
 11
-13.763730388242323
 21
194.67083015179145
  0
LINE
  8
_0-0_0
  6
CONTINUOUS
 62
    7
 10
-14.763730388242323
 20
194.67083015179145
 11
-14.763730388242323
 21
196.67083015179122
  0
LINE
  8
_0-0_0
  6
CONTINUOUS
 62
    7
 10
-14.498400066242311
 20
186.57276384639135
 11
-14.763730388242323
 21
194.17083015179145
  0
LINE
  8
_0-1_1
  6
CONTINUOUS
 62
    7
 10
68.486269611757621
 20
99.959033513759437
 11
86.986269611757621
 21
99.959033513759437
  0
LINE
  8
_0-1_1
  6
CONTINUOUS
 62
    7
 10
2.7362696117576206
 20
69.583309354059338
 11
2.7362696117576206
 21
58.083309354059224
  0
LINE
  8
_0-1_1
  6
CONTINUOUS
 62
    7
 10
4.7852470863145982
 20
87.021470314923761
 11
12.898528428104612
 21
87.021470314923761
  0
LINE
  8
_0-1_1
  6
CONTINUOUS
 62
    7
 10
12.898528428104612
 20
87.021470314923761
 11
12.898528428104612
 21
85.021988657231645
  0
LINE
  8
_0-1_1
  6
CONTINUOUS
 62
    7
 10
4.7852470863145982
 20
85.021988657231645
 11
4.7852470863145982
 21
87.021470314923761
  0
LINE
  8
_0-1_1
  6
CONTINUOUS
 62
    7
 10
12.898528428104612
 20
85.021988657231645
 11
11.412753423308573
 21
85.021988657231645
  0
LINE
  8
_0-1_1
  6
CONTINUOUS
 62
    7
 10
11.875276143654531
 20
79.772659872543613
 11
6.7912465536145419
 21
79.772659872543613
  0
LINE
  8
_0-1_1
  6
CONTINUOUS
 62
    7
 10
6.3287238332685547
 20
85.021988657231645
 11
4.7852470863145982
 21
85.021988657231645
  0
LINE
  8
_0-1_1
  6
CONTINUOUS
 62
    7
 10
31.573238488460532
 20
84.106382276383727
 11
34.069906266028639
 21
84.106382276383727
  0
LINE
  8
_0-1_1
  6
CONTINUOUS
 62
    7
 10
31.29661600571454
 20
79.334744597734755
 11
31.29661600571454
 21
82.182779653264618
  0
LINE
  8
_0-1_1
  6
CONTINUOUS
 62
    7
 10
35.342125940048732
 20
80.547663736072934
 11
34.346528748774631
 21
82.182779653265413
  0
LINE
  8
_0-1_1
  6
CONTINUOUS
 62
    7
 10
35.905623010267732
 20
80.42284705782572
 11
36.111505069635641
 21
80.560071628856122
  0
LINE
  8
_0-1_1
  6
CONTINUOUS
 62
    7
 10
36.228532277409741
 20
81.105434141107139
 11
34.493498212117728
 21
83.872032164787015
  0
LINE
  8
_0-1_1
  6
CONTINUOUS
 62
    7
 10
31.149646542371642
 20
83.872032164787015
 11
29.414612477080638
 21
81.105434141107139
  0
LINE
  8
_0-1_1
  6
CONTINUOUS
 62
    7
 10
29.531639684854639
 20
80.560071628856122
 11
29.737521744221738
 21
80.42284705782572
  0
LINE
  8
_0-1_1
  6
CONTINUOUS
 62
    7
 10
31.29661600571454
 20
82.182779653264618
 11
30.301018814441633
 21
80.547663736072934
  0
LINE
  8
_0-1_1
  6
CONTINUOUS
 62
    7
 10
34.346528748774631
 20
82.182779653265413
 11
34.346528748774631
 21
79.334744597734755
  0
LINE
  8
_0-1_1
  6
CONTINUOUS
 62
    7
 10
67.736269611757535
 20
99.209033513759323
 11
67.736269611757535
 21
83.833309354059338
  0
LINE
  8
_0-1_1
  6
CONTINUOUS
 62
    7
 10
87.736269611757621
 20
99.209033513759323
 11
87.736269611757621
 21
83.833309354059338
  0
LINE
  8
_0-1_1
  6
CONTINUOUS
 62
    7
 10
45.486269611757635
 20
99.959033513759437
 11
63.986269611757621
 21
99.959033513759437
  0
LINE
  8
_0-1_1
  6
CONTINUOUS
 62
    7
 10
44.736269611757635
 20
99.209033513759323
 11
44.736269611757635
 21
83.833309354059338
  0
LINE
  8
_0-1_1
  6
CONTINUOUS
 62
    7
 10
64.736269611757621
 20
99.209033513759323
 11
64.736269611757621
 21
83.833309354059338
  0
LINE
  8
_0-1_1
  6
CONTINUOUS
 62
    7
 10
21.736269611757635
 20
99.209033513759323
 11
21.736269611757635
 21
83.833309354059338
  0
LINE
  8
_0-1_1
  6
CONTINUOUS
 62
    7
 10
41.736269611757635
 20
99.209033513759323
 11
41.736269611757635
 21
83.833309354059338
  0
LINE
  8
_0-1_1
  6
CONTINUOUS
 62
    7
 10
22.486269611757649
 20
99.959033513759437
 11
40.986269611757635
 21
99.959033513759437
  0
LINE
  8
_0-1_1
  6
CONTINUOUS
 62
    7
 10
21.736269611757635
 20
99.209033513759323
 11
21.736269611757635
 21
83.833309354059338
  0
LINE
  8
_0-1_1
  6
CONTINUOUS
 62
    7
 10
-1.2637303882423794
 20
99.209033513759323
 11
-1.2637303882423794
 21
83.833309354059338
  0
LINE
  8
_0-1_1
  6
CONTINUOUS
 62
    7
 10
-1.2637303882423794
 20
99.209033513759323
 11
-1.2637303882423794
 21
83.833309354059338
  0
LINE
  8
_0-1_1
  6
CONTINUOUS
 62
    7
 10
-0.5137303882423793
 20
99.959033513759437
 11
17.986269611757621
 21
99.959033513759437
  0
LINE
  8
_0-1_1
  6
CONTINUOUS
 62
    7
 10
18.736269611757649
 20
99.209033513759323
 11
18.736269611757649
 21
83.833309354059338
  0
LINE
  8
_0-3_8_ALL_NOTES_BALLOONS_SS_GT
  6
CONTINUOUS
 62
    2
 10
4.0534766119707228
 20
134.28926160495934
 11
4.222285611970733
 21
132.96221060495941
  0
LINE
  8
_0-3_8_ALL_NOTES_BALLOONS_SS_GT
  6
CONTINUOUS
 62
    2
 10
4.2794746119706133
 20
132.51159260495962
 11
4.3552666119707055
 21
131.91696960495943
  0
LINE
  8
_0-3_8_ALL_NOTES_BALLOONS_SS_GT
  6
CONTINUOUS
 62
    2
 10
5.0022556119705541
 20
131.91696960495943
 11
4.5967676119706766
 21
134.98241460495962
  0
LINE
  8
_0-3_8_ALL_NOTES_BALLOONS_SS_GT
  6
CONTINUOUS
 62
    2
 10
6.4901926119706559
 20
132.79271260495932
 11
6.8508936119706902
 21
131.91696960495943
  0
LINE
  8
_0-3_8_ALL_NOTES_BALLOONS_SS_GT
  6
CONTINUOUS
 62
    2
 10
5.5886106119706938
 20
134.98241460495962
 11
6.1832346119705335
 21
133.53823060495955
  0
LINE
  8
_0-3_8_ALL_NOTES_BALLOONS_SS_GT
  6
CONTINUOUS
 62
    2
 10
6.5918226119705423
 20
134.22035960495953
 11
6.2738406119707406
 21
134.98241460495962
  0
LINE
  8
_0-3_8_ALL_NOTES_BALLOONS_SS_GT
  6
CONTINUOUS
 62
    2
 10
7.5543826119707091
 20
131.91696960495943
 11
6.9018816119706798
 21
133.47759760495944
  0
LINE
  8
_0-3_8_ALL_NOTES_BALLOONS_SS_GT
  6
CONTINUOUS
 62
    2
 10
38.485827611970635
 20
133.04902660495947
 11
38.863754611970634
 21
134.26273460495946
  0
LINE
  8
_0-3_8_ALL_NOTES_BALLOONS_SS_GT
  6
CONTINUOUS
 62
    2
 10
2.1986366119707554
 20
131.91696960495943
 11
2.3970746119706519
 21
134.98241460495962
  0
LINE
  8
_0-3_8_ALL_NOTES_BALLOONS_SS_GT
  6
CONTINUOUS
 62
    2
 10
1.6732596119705931
 20
133.83244260495934
 11
1.5492366119707413
 21
131.91696960495943
  0
LINE
  8
_0-3_8_ALL_NOTES_BALLOONS_SS_GT
  6
CONTINUOUS
 62
    2
 10
8.2936996119707374
 20
131.05982960495942
 11
8.2936996119707374
 21
135.83886560495932
  0
LINE
  8
_0-3_8_ALL_NOTES_BALLOONS_SS_GT
  6
CONTINUOUS
 62
    2
 10
-1.26402838802926
 20
135.83886560495932
 11
-1.26402838802926
 21
131.05982960495942
  0
LINE
  8
_0-3_8_ALL_NOTES_BALLOONS_SS_GT
  6
CONTINUOUS
 62
    2
 10
0.8433366119705851
 20
132.82234060495932
 11
0.6476546119705517
 21
134.98241460495962
  0
LINE
  8
_0-3_8_ALL_NOTES_BALLOONS_SS_GT
  6
CONTINUOUS
 62
    2
 10
0.290742611970586
 20
133.82899760495945
 11
0.4709216119705388
 21
131.91696960495943
  0
LINE
  8
_0-3_8_ALL_NOTES_BALLOONS_SS_GT
  6
CONTINUOUS
 62
    2
 10
-0.0465313880293933
 20
131.91696960495943
 11
0.290742611970586
 21
133.82899760495945
  0
LINE
  8
_0-3_8_ALL_NOTES_BALLOONS_SS_GT
  6
CONTINUOUS
 62
    2
 10
-0.1822683880294562
 20
134.98241460495962
 11
-0.7228043880294308
 21
131.91696960495943
  0
LINE
  8
_0-3_8_ALL_NOTES_BALLOONS_SS_GT
  6
CONTINUOUS
 62
    2
 10
1.0083566119707257
 20
131.91696960495943
 11
1.6732596119705931
 21
133.83244260495934
  0
LINE
  8
_0-3_8_ALL_NOTES_BALLOONS_SS_GT
  6
CONTINUOUS
 62
    2
 10
1.5857546119706285
 20
134.98241460495962
 11
0.8433366119705851
 21
132.82234060495932
  0
LINE
  8
_0-3_8_ALL_NOTES_BALLOONS_SS_GT
  6
CONTINUOUS
 62
    2
 10
3.6142266119705937
 20
134.98241460495962
 11
2.5679516119706705
 21
131.91696960495943
  0
LINE
  8
_0-3_8_ALL_NOTES_BALLOONS_SS_GT
  6
CONTINUOUS
 62
    2
 10
3.6014796119706034
 20
132.96221060495941
 11
4.0534766119707228
 21
134.28926160495934
  0
LINE
  8
_0-3_8_ALL_NOTES_BALLOONS_SS_GT
  6
CONTINUOUS
 62
    2
 10
3.2445676119706093
 20
131.91696960495943
 11
3.447139611970556
 21
132.51159260495962
  0
LINE
  8
_0-3_8_ALL_NOTES_BALLOONS_SS_GT
  6
CONTINUOUS
 62
    2
 10
8.2936996119707374
 20
135.83886560495932
 11
-1.26402838802926
 21
135.83886560495932
  0
LINE
  8
_0-3_8_ALL_NOTES_BALLOONS_SS_GT
  6
CONTINUOUS
 62
    2
 10
0.6476546119705517
 20
134.98241460495962
 11
-0.1822683880294562
 21
134.98241460495962
  0
LINE
  8
_0-3_8_ALL_NOTES_BALLOONS_SS_GT
  6
CONTINUOUS
 62
    2
 10
2.3970746119706519
 20
134.98241460495962
 11
1.5857546119706285
 21
134.98241460495962
  0
LINE
  8
_0-3_8_ALL_NOTES_BALLOONS_SS_GT
  6
CONTINUOUS
 62
    2
 10
4.5967676119706766
 20
134.98241460495962
 11
3.6142266119705937
 21
134.98241460495962
  0
LINE
  8
_0-3_8_ALL_NOTES_BALLOONS_SS_GT
  6
CONTINUOUS
 62
    2
 10
6.2738406119707406
 20
134.98241460495962
 11
5.5886106119706938
 21
134.98241460495962
  0
LINE
  8
_0-3_8_ALL_NOTES_BALLOONS_SS_GT
  6
CONTINUOUS
 62
    2
 10
7.8065636119705175
 20
134.98241460495962
 11
7.0493316119706151
 21
134.98241460495962
  0
LINE
  8
_0-3_8_ALL_NOTES_BALLOONS_SS_GT
  6
CONTINUOUS
 62
    2
 10
37.524301611970529
 20
133.04902660495947
 11
38.485827611970635
 21
133.04902660495947
  0
LINE
  8
_0-3_8_ALL_NOTES_BALLOONS_SS_GT
  6
CONTINUOUS
 62
    2
 10
4.222285611970733
 20
132.96221060495941
 11
3.6014796119706034
 21
132.96221060495941
  0
LINE
  8
_0-3_8_ALL_NOTES_BALLOONS_SS_GT
  6
CONTINUOUS
 62
    2
 10
3.447139611970556
 20
132.51159260495962
 11
4.2794746119706133
 21
132.51159260495962
  0
LINE
  8
_0-3_8_ALL_NOTES_BALLOONS_SS_GT
  6
CONTINUOUS
 62
    2
 10
6.8508936119706902
 20
131.91696960495943
 11
7.5543826119707091
 21
131.91696960495943
  0
LINE
  8
_0-3_8_ALL_NOTES_BALLOONS_SS_GT
  6
CONTINUOUS
 62
    2
 10
5.2099946119707283
 20
131.91696960495943
 11
5.9630926119706089
 21
131.91696960495943
  0
LINE
  8
_0-3_8_ALL_NOTES_BALLOONS_SS_GT
  6
CONTINUOUS
 62
    2
 10
4.3552666119707055
 20
131.91696960495943
 11
5.0022556119705541
 21
131.91696960495943
  0
LINE
  8
_0-3_8_ALL_NOTES_BALLOONS_SS_GT
  6
CONTINUOUS
 62
    2
 10
2.5679516119706705
 20
131.91696960495943
 11
3.2445676119706093
 21
131.91696960495943
  0
LINE
  8
_0-3_8_ALL_NOTES_BALLOONS_SS_GT
  6
CONTINUOUS
 62
    2
 10
1.5492366119707413
 20
131.91696960495943
 11
2.1986366119707554
 21
131.91696960495943
  0
LINE
  8
_0-3_8_ALL_NOTES_BALLOONS_SS_GT
  6
CONTINUOUS
 62
    2
 10
0.4709216119705388
 20
131.91696960495943
 11
1.0083566119707257
 21
131.91696960495943
  0
LINE
  8
_0-3_8_ALL_NOTES_BALLOONS_SS_GT
  6
CONTINUOUS
 62
    2
 10
-0.7228043880294308
 20
131.91696960495943
 11
-0.0465313880293933
 21
131.91696960495943
  0
LINE
  8
_0-3_8_ALL_NOTES_BALLOONS_SS_GT
  6
CONTINUOUS
 62
    2
 10
-1.26402838802926
 20
131.05982960495942
 11
8.2936996119707374
 21
131.05982960495942
  0
LINE
  8
_0-3_8_ALL_NOTES_BALLOONS_SS_GT
  6
CONTINUOUS
 62
    2
 10
5.9630926119706089
 20
131.91696960495943
 11
6.4901926119706559
 21
132.79271260495932
  0
LINE
  8
_0-3_8_ALL_NOTES_BALLOONS_SS_GT
  6
CONTINUOUS
 62
    2
 10
6.9018816119706798
 20
133.47759760495944
 11
7.8065636119705175
 21
134.98241460495962
  0
LINE
  8
_0-3_8_ALL_NOTES_BALLOONS_SS_GT
  6
CONTINUOUS
 62
    2
 10
6.1832346119705335
 20
133.53823060495955
 11
5.2099946119707283
 21
131.91696960495943
  0
LINE
  8
_0-3_8_ALL_NOTES_BALLOONS_SS_GT
  6
CONTINUOUS
 62
    2
 10
7.0493316119706151
 20
134.98241460495962
 11
6.5918226119705423
 21
134.22035960495953
  0
LINE
  8
_0-3_8_ALL_NOTES_BALLOONS_SS_GT
  6
CONTINUOUS
 62
    2
 10
38.863754611970634
 20
134.26273460495946
 11
37.524301611970529
 21
133.04902660495947
  0
LINE
  8
_0-1_1
  6
CONTINUOUS
 62
    7
 10
38.736269611757635
 20
130.33330935405934
 11
54.736269611757621
 21
130.33330935405934
  0
LINE
  8
_0-1_1
  6
CONTINUOUS
 62
    7
 10
38.736269611757635
 20
115.33330935405934
 11
54.736269611757621
 21
115.33330935405934
  0
LINE
  8
_0-1_1
  6
CONTINUOUS
 62
    7
 10
3.4862696117576206
 20
70.333309354059338
 11
77.736269611757621
 21
70.333309354059338
  0
LINE
  8
_0-1_1
  6
CONTINUOUS
 62
    7
 10
77.736269611757621
 20
57.333309354059338
 11
3.4862696117576206
 21
57.333309354059338
  0
POINT
  8
_0-2_1__DRAFT_DIMS
 62
    7
 10
217.37655930407195
 20
59.13330935405935
  0
POINT
  8
_0-2_1__DRAFT_DIMS
 62
    7
 10
217.37655930407195
 20
128.33330935405934
  0
POINT
  8
_0-2_1__DRAFT_DIMS
 62
    7
 10
308.77655930407195
 20
128.33330935405934
  0
POINT
  8
_0-2_1__DRAFT_DIMS
 62
    7
 10
217.37655930407195
 20
59.333309354059338
  0
POINT
  8
_0-2_1__DRAFT_DIMS
 62
    7
 10
217.37655930407195
 20
59.333309354059338
  0
POINT
  8
_0-2_1__DRAFT_DIMS
 62
    7
 10
308.77655930407195
 20
59.333309354059338
  0
SOLID
  8
_0-1_1
  6
CONTINUOUS
 62
    2
 10
227.51375937902381
 20
149.06091099009473
 11
228.29948778414186
 21
149.36515622530294
 12
229.06210957988756
 22
146.22893372536885
 13
229.06210957988756
 23
146.22893372536885
  0
SOLID
  8
_0-1_1
  6
CONTINUOUS
 62
    2
 10
297.80205143476451
 20
149.29855764808275
 11
298.60885440575657
 21
149.05565179027951
 12
297.28292633605429
 22
146.11296622664656
 13
297.28292633605429
 23
146.11296622664656
  0
SOLID
  8
_0-1_1
  6
CONTINUOUS
 62
    2
 10
243.35473699657055
 20
130.46957094474612
 11
242.54411220281074
 21
130.23974115229515
 12
242.07655930407194
 22
133.43330935405936
 13
242.07655930407194
 23
133.43330935405936
  0
SOLID
  8
_0-1_1
  6
CONTINUOUS
 62
    2
 10
284.71297736820281
 20
130.21405624018126
 11
283.88768362222254
 21
130.38383410270183
 12
284.94512594395792
 22
133.43330935405936
 13
284.94512594395792
 23
133.43330935405936
  0
SOLID
  8
_0-1_1
  6
CONTINUOUS
 62
    2
 10
242.82712488170475
 20
57.372438992368643
 11
243.61401651527112
 21
57.071215077681927
 12
242.07655930407194
 22
54.233309354059315
 13
242.07655930407194
 23
54.233309354059315
  0
SOLID
  8
_0-1_1
  6
CONTINUOUS
 62
    2
 10
282.9956110220827
 20
57.274531868789836
 11
283.81956974882269
 21
57.450674726678926
 12
284.07655930407202
 22
54.233309354059315
 13
284.07655930407202
 23
54.233309354059315
  0
SOLID
  8
_0-1_1
  6
CONTINUOUS
 62
    2
 10
228.37753214673913
 20
38.373452737733629
 11
227.56742299345953
 21
38.605093514645944
 12
228.85222076205295
 22
41.56596809258005
 13
228.85222076205295
 23
41.56596809258005
  0
SOLID
  8
_0-1_1
  6
CONTINUOUS
 62
    2
 10
298.52904216750471
 20
38.54785106667714
 11
297.73297070347508
 21
38.271799415868941
 12
297.08259620451452
 22
41.433206789735948
 13
297.08259620451452
 23
41.433206789735948
  0
TEXT
  8
_0-1_1
 62
    7
 10
67.943844086651239
 20
38.974996672868343
 40
2.5
 41
0.63
 50
0
  1
BS-132HA
  0
CIRCLE
  8
_0-1_1
  6
CONTINUOUS
 62
    2
 10
210.48886632250341
 20
206.31957363499794
 40
1.80620626130368
  0
CIRCLE
  8
_0-1_1
  6
CONTINUOUS
 62
    2
 10
210.48886632250341
 20
200.58083084316274
 40
1.80620626130368
  0
LINE
  8
_0-1_1
  6
CONTINUOUS
 62
    7
 10
56.902348766927048
 20
83.508796979357442
 11
55.857336426015621
 21
86.884796581832234
  0
ARC
  8
_0-0_0
  6
CONTINUOUS
 62
    7
 10
93.236269611757621
 20
41.833309354059338
 40
8
 50
270
 51
0
  0
ARC
  8
_0-0_0
  6
CONTINUOUS
 62
    7
 10
93.236269611757621
 20
145.83330935405934
 40
8
 50
0
 51
90
  0
ARC
  8
_0-0_0
  6
CONTINUOUS
 62
    7
 10
-6.7637303882423225
 20
145.83330935405934
 40
8
 50
90
 51
180
  0
ARC
  8
_0-0_0
  6
CONTINUOUS
 62
    7
 10
-6.7637303882423225
 20
41.833309354059338
 40
8
 50
180
 51
270
  0
CIRCLE
  8
_0-1_1
  6
CONTINUOUS
 62
    7
 10
54.736269611757621
 20
83.833309354059338
 40
8.5
  0
CIRCLE
  8
_0-1_1
  6
CONTINUOUS
 62
    7
 10
77.736269611757621
 20
83.833309354059338
 40
8.5
  0
LINE
  8
_0-0_0
  6
CONTINUOUS
 62
    7
 10
55.857336426015621
 20
86.884796581832234
 11
57.015798709090149
 21
83.142287470666247
  0
LINE
  8
_0-0_0
  6
CONTINUOUS
 62
    7
 10
57.015798709090149
 20
83.142287470666247
 11
55.644653765847039
 21
79.104522470392965
  0
LINE
  8
_0-1_1
  6
CONTINUOUS
 62
    7
 10
55.250576081626747
 20
83.428906108655326
 11
54.205563740715434
 21
86.804905711130118
  0
LINE
  8
_0-0_0
  6
CONTINUOUS
 62
    7
 10
54.205563740715434
 20
86.804905711130118
 11
55.364026023789933
 21
83.062396599964018
  0
LINE
  8
_0-0_0
  6
CONTINUOUS
 62
    7
 10
55.364026023789933
 20
83.062396599964018
 11
53.992881080546823
 21
79.024631599690736
  0
LINE
  8
_0-1_1
  6
CONTINUOUS
 62
    7
 10
53.279104961827841
 20
83.508796979357442
 11
52.234092620916442
 21
86.884796581832234
  0
LINE
  8
_0-0_0
  6
CONTINUOUS
 62
    7
 10
52.234092620916442
 20
86.884796581832234
 11
53.392554903991027
 21
83.142287470666247
  0
LINE
  8
_0-0_0
  6
CONTINUOUS
 62
    7
 10
53.392554903991027
 20
83.142287470666247
 11
52.021409960747832
 21
79.104522470392965
  0
LINE
  8
_0-0_0
  6
CONTINUOUS
 62
    7
 10
73.951820304984238
 20
85.121697336765465
 11
78.104460798061837
 21
86.655019969744217
  0
LINE
  8
_0-0_0
  6
CONTINUOUS
 62
    7
 10
78.104460798061837
 20
86.655019969744217
 11
82.24856723288994
 21
85.202214048935559
  0
LINE
  8
_0-0_0
  6
CONTINUOUS
 62
    7
 10
74.059641618358938
 20
83.020067153653031
 11
78.212282111436423
 21
84.553389786631726
  0
LINE
  8
_0-0_0
  6
CONTINUOUS
 62
    7
 10
78.212282111436423
 20
84.553389786631726
 11
82.35638854626464
 21
83.100583865823012
  0
LINE
  8
_0-0_0
  6
CONTINUOUS
 62
    7
 10
73.951820304984238
 20
81.107044424617243
 11
78.104460798061837
 21
82.640367057596052
  0
LINE
  8
_0-0_0
  6
CONTINUOUS
 62
    7
 10
78.104460798061837
 20
82.640367057596052
 11
82.24856723288994
 21
81.187561136787224
  0
TEXT
  8
_0-1_1
 62
    7
 10
-3.255042299750869
 20
-20.449062863302061
 40
2.799999999999998
 41
1
 50
0
  1
 
  0
TEXT
  8
_0-1_1
 62
    7
 10
163.56992761777641
 20
-28.986690696713453
 40
3.2000000000000002
 41
1
 50
0
  1
 
  0
TEXT
  8
_0-1_1
 62
    7
 10
295.14329861035571
 20
-24.010642203768271
 40
4
 41
1
 50
0
  1
 
  0
TEXT
  8
_0-1_1
 62
    7
 10
315.28907899123772
 20
-7.7106422037682592
 40
4
 41
1
 50
0
  1
 
  0
TEXT
  8
_0-1_1
 62
    7
 10
315.48907899123776
 20
6.8893577962319341
 40
3.2000000000000002
 41
1
 50
0
  1
 
  0
TEXT
  8
_0-1_1
 62
    7
 10
323.81404346560657
 20
-33.296478273283157
 40
2.5
 41
0.9
 50
0
  1
(980123)
  0
TEXT
  8
_0-1_1
 62
    7
 10
-39.894915574593483
 20
-33.296478273283157
 40
2.5
 41
0.9
 50
0
  1
G1-151-A3
  0
TEXT
  8
_0-1_1
 62
    7
 10
332.33352894964889
 20
-18.044589832339852
 40
3.2000000000000002
 41
1
 50
0
  1
通 番
  0
TEXT
  8
_0-1_1
 62
    7
 10
273.51943939395517
 20
-19.851478273283163
 40
3.2000000000000002
 41
1
 50
0
  1
仕様書番号
  0
TEXT
  8
_0-1_1
 62
    7
 10
276.03530136734065
 20
-11.651478273283175
 40
2.799999999999998
 41
1
 50
0
  1
PARTNAME
  0
TEXT
  8
_0-1_1
 62
    7
 10
276.14012952702706
 20
-3.6014782732831634
 40
3.2000000000000002
 41
1
 50
0
  1
部品名
  0
TEXT
  8
_0-1_1
 62
    7
 10
274.64685347379833
 20
3.6735217267168281
 40
2.8999999999999999
 41
1
 50
0
  1
PROD.MARK
  0
TEXT
  8
_0-1_1
 62
    7
 10
276.37185347379835
 20
9.5235217267168366
 40
3.2000000000000002
 41
1
 50
0
  1
商品名
  0
TEXT
  8
_0-1_1
 62
    7
 10
146.88572116158272
 20
-33.276693313087662
 40
1.5
 41
1
 50
0
  1
&^ 
  0
TEXT
  8
_0-1_1
 62
    7
 10
-17.041820313615233
 20
-16.104664537709965
 40
2.2000000000000002
 41
1
 50
0
  1
 
  0
TEXT
  8
_0-1_1
 62
    7
 10
262.66760417639364
 20
-19.03610889035906
 40
3.2000000000000002
 41
1
 50
0
  1
 
  0
LINE
  8
_0-1_1
  6
CONTINUOUS
 62
    2
 10
298.59810101749781
 20
-22.832368670937456
 11
324.78548334280151
 21
-22.832368670937456
  0
LINE
  8
_0-1_1
  6
CONTINUOUS
 62
    6
 10
-45.939278838417408
 20
-31.94908771264187
 11
-45.939278838417408
 21
-33.296478273283157
  0
LINE
  8
_0-1_1
  6
CONTINUOUS
 62
    6
 10
-45.939278838417408
 20
-33.296478273283157
 11
-42.727126418975445
 21
-33.296478273283157
  0
LINE
  8
_0-1_1
  6
CONTINUOUS
 62
    7
 10
-45.739278838417249
 20
243.32352172671693
 11
-45.739278838417249
 21
-29.876478273283055
  0
LINE
  8
_0-1_1
  6
CONTINUOUS
 62
    2
 10
330.76072116158264
 20
-14.376478273283169
 11
330.76072116158264
 21
-29.876478273283055
  0
LINE
  8
_0-1_1
  6
CONTINUOUS
 62
    2
 10
330.76072116158264
 20
-18.376478273283169
 11
341.76072116158264
 21
-18.376478273283169
  0
LINE
  8
_0-1_1
  6
CONTINUOUS
 62
    2
 10
273.26072116158264
 20
2.1235217267168309
 11
341.76072116158264
 21
2.1235217267168309
  0
LINE
  8
_0-1_1
  6
CONTINUOUS
 62
    2
 10
291.26072116158264
 20
14.123521726716831
 11
291.26072116158264
 21
-29.876478273283055
  0
LINE
  8
_0-1_1
  6
CONTINUOUS
 62
    7
 10
-45.739278838417249
 20
243.32352172671693
 11
341.76072116158264
 21
243.32352172671693
  0
LINE
  8
_0-1_1
  6
CONTINUOUS
 62
    7
 10
341.76072116158264
 20
-29.876478273283055
 11
341.76072116158264
 21
243.32352172671693
  0
LINE
  8
_0-1_1
  6
CONTINUOUS
 62
    7
 10
341.76072116158264
 20
-29.876478273283055
 11
-45.739278838417249
 21
-29.876478273283055
  0
LINE
  8
_0-1_1
  6
CONTINUOUS
 62
    2
 10
273.26072116158264
 20
14.123521726716831
 11
341.76072116158264
 21
14.123521726716831
  0
LINE
  8
_0-1_1
  6
CONTINUOUS
 62
    2
 10
273.26072116158264
 20
-14.376478273283169
 11
341.76072116158264
 21
-14.376478273283169
  0
LINE
  8
_0-1_1
  6
CONTINUOUS
 62
    2
 10
273.26072116158264
 20
14.123521726716831
 11
273.26072116158264
 21
-29.876478273283055
  0
LINE
  8
_0-1_1
  6
CONTINUOUS
 62
    2
 10
229.06210957988756
 20
146.22893372536885
 11
225.43012806163304
 21
155.60870607843032
  0
LINE
  8
_0-1_1
  6
CONTINUOUS
 62
    2
 10
225.43012806163304
 20
155.60870607843032
 11
219.69425598071714
 21
155.60870607843032
  0
LINE
  8
_0-1_1
  6
CONTINUOUS
 62
    2
 10
297.28292633605429
 20
146.11296622664656
 11
300.11810532792617
 21
155.52991011850844
  0
LINE
  8
_0-1_1
  6
CONTINUOUS
 62
    2
 10
300.11810532792617
 20
155.52991011850844
 11
305.91873603621718
 21
155.52991011850844
  0
LINE
  8
_0-1_1
  6
CONTINUOUS
 62
    2
 10
242.07655930407194
 20
133.43330935405936
 11
245.37020271312414
 21
121.81641242913531
  0
LINE
  8
_0-1_1
  6
CONTINUOUS
 62
    2
 10
245.37020271312414
 20
121.81641242913531
 11
231.20025574862112
 21
121.81641242913531
  0
LINE
  8
_0-1_1
  6
CONTINUOUS
 62
    2
 10
284.94512594395792
 20
133.43330935405936
 11
282.42086400956418
 21
121.16281921628536
  0
LINE
  8
_0-1_1
  6
CONTINUOUS
 62
    2
 10
282.42086400956418
 20
121.16281921628536
 11
294.68156483376129
 21
121.16281921628536
  0
LINE
  8
_0-1_1
  6
CONTINUOUS
 62
    2
 10
242.07655930407194
 20
54.233309354059315
 11
245.87809497470616
 21
64.164116531301318
  0
LINE
  8
_0-1_1
  6
CONTINUOUS
 62
    2
 10
245.87809497470616
 20
64.164116531301318
 11
231.28263053187416
 21
64.164116531301318
  0
LINE
  8
_0-1_1
  6
CONTINUOUS
 62
    2
 10
284.07655930407202
 20
54.233309354059315
 11
281.86123644752604
 21
64.596117259370317
  0
LINE
  8
_0-1_1
  6
CONTINUOUS
 62
    2
 10
281.86123644752604
 20
64.596117259370317
 11
294.42163657466699
 21
64.596117259370317
  0
LINE
  8
_0-1_1
  6
CONTINUOUS
 62
    2
 10
228.85222076205295
 20
41.56596809258005
 11
224.12504653930202
 21
25.033787713793942
  0
LINE
  8
_0-1_1
  6
CONTINUOUS
 62
    2
 10
224.12504653930202
 20
25.033787713793942
 11
218.52650340608105
 21
25.033787713793942
  0
LINE
  8
_0-1_1
  6
CONTINUOUS
 62
    2
 10
297.08259620451452
 20
41.433206789735948
 11
302.67842248124919
 21
25.296090407588224
  0
LINE
  8
_0-1_1
  6
CONTINUOUS
 62
    2
 10
302.67842248124919
 20
25.296090407588224
 11
308.42169326012413
 21
25.296090407588224
  0
TEXT
  8
_0-1_1
 62
    7
 10
71.844978183186242
 20
65.146833163583153
 40
3.2000000000000002
 41
0.89
 50
0
  1
運転
  0
TEXT
  8
_0-1_1
 62
    7
 10
71.665961040329023
 20
59.210071258821245
 40
3.2000000000000002
 41
0.89
 50
0
  1
時間
  0
TEXT
  8
_0-1_1
 62
    7
 10
32.214277613626237
 20
111.03452875318175
 40
3.2000000000000002
 41
0.89
 50
0
  1
点滅時一時停止
  0
TEXT
  8
_0-1_1
 62
    7
 10
50.08589246890044
 20
122.70321844856153
 40
3.2000000000000002
 41
0.6674999999999999
 50
0
  1
24時間
  0
TEXT
  8
_0-1_1
 62
    7
 10
2.3560936985876992
 20
121.05660305320163
 40
3.2000000000000002
 41
0.89
 50
0
  1
リセット
  0
TEXT
  8
_0-1_1
 62
    7
 10
73.406728492250522
 20
93.470782663709144
 40
5
 41
0.89
 50
0
  1
換気
  0
TEXT
  8
_0-1_1
 62
    7
 10
50.228728492250539
 20
93.542211235137643
 40
5
 41
0.89
 50
0
  1
暖房
  0
TEXT
  8
_0-1_1
 62
    7
 10
27.330442777964834
 20
93.585068377994844
 40
5
 41
0.89
 50
0
  1
涼風
  0
TEXT
  8
_0-1_1
 62
    7
 10
4.1524427779649216
 20
93.670782663709019
 40
5
 41
0.89
 50
0
  1
乾燥
  0
TEXT
  8
_0-1_1
 62
    7
 10
12.276269611757641
 20
58.606945983452249
 40
3.2000000000000002
 41
0.9
 50
0
  1
8
  0
TEXT
  8
_0-1_1
 62
    7
 10
19.776269611757641
 20
58.606945983452249
 40
3.2000000000000002
 41
0.9
 50
0
  1
6
  0
TEXT
  8
_0-1_1
 62
    7
 10
27.276269611757641
 20
58.606945983452249
 40
3.2000000000000002
 41
0.9
 50
0
  1
4
  0
TEXT
  8
_0-1_1
 62
    7
 10
34.776269611757641
 20
58.606945983452249
 40
3.2000000000000002
 41
0.9
 50
0
  1
3
  0
TEXT
  8
_0-1_1
 62
    7
 10
42.276269611757641
 20
58.606945983452249
 40
3.2000000000000002
 41
0.9
 50
0
  1
2
  0
TEXT
  8
_0-1_1
 62
    7
 10
50.256269611757631
 20
58.606945983452249
 40
3.2000000000000002
 41
0.9
 50
0
  1
1
  0
TEXT
  8
_0-1_1
 62
    7
 10
55.596269611757634
 20
58.606945983452249
 40
3.2000000000000002
 41
0.9
 50
0
  1
0.5
  0
TEXT
  8
_0-1_1
 62
    7
 10
50.578189611757637
 20
118.35125311854154
 40
3.2000000000000002
 41
0.89
 50
0
  1
換気
  0
TEXT
  8
_0-1_1
 62
    7
 10
71.379126754614845
 20
120.23330935406005
 40
5
 41
0.89
 50
0
  1
停止
  0
TEXT
  8
_0-1_1
 62
    7
 10
213.99972604806445
 20
210.36730376787472
 40
3.2000000000000002
 41
0.89
 50
0
  1
スイッチボックスを使用する場合。
  0
TEXT
  8
_0-1_1
 62
    7
 10
214.06482319092154
 20
204.39397043454142
 40
3.2000000000000002
 41
0.89
 50
0
  1
市販のはさみ金具を使用する場合。
  0
TEXT
  8
_0-1_1
 62
    7
 10
214.26011461949301
 20
198.43892281549381
 40
3.2000000000000002
 41
0.89
 50
0
  1
壁へ直接取付ける場合。
  0
TEXT
  8
_0-1_1
 62
    7
 10
208.43673102295773
 20
210.33212677695661
 40
3.2000000000000002
 41
0.89
 50
0
  1
イ
  0
TEXT
  8
_0-1_1
 62
    7
 10
207.96477673724345
 20
204.99879344362336
 40
3.2000000000000002
 41
0.89
 50
0
  1
ロ
  0
TEXT
  8
_0-1_1
 62
    7
 10
208.48555388010053
 20
199.66546011028993
 40
3.2000000000000002
 41
0.89
 50
0
  1
ハ
  0
LINE
  8
_0-1_1
  6
CONTINUOUS
 62
    2
 10
137.57593640593274
 20
115.83330935405934
 11
154.24265723477384
 21
115.83330935405934
  0
LINE
  8
_0-1_1
  6
CONTINUOUS
 62
    2
 10
140.45503983692674
 20
93.833309354059338
 11
154.24265723477384
 21
93.833309354059338
  0
LINE
  8
_0-1_1
  6
CONTINUOUS
 62
    2
 10
153.24265723477373
 20
112.63330935405935
 11
153.24265723477373
 21
108.12497602072602
  0
LINE
  8
_0-1_1
  6
CONTINUOUS
 62
    2
 10
153.24265723477373
 20
97.033309354059327
 11
153.24265723477373
 21
101.54164268739265
  0
SOLID
  8
_0-1_1
  6
CONTINUOUS
 62
    2
 10
152.70932390144043
 20
112.63330935405935
 11
153.77599056810715
 21
112.63330935405935
 12
153.24265723477373
 22
115.83330935405934
 13
153.24265723477373
 23
115.83330935405934
  0
SOLID
  8
_0-1_1
  6
CONTINUOUS
 62
    2
 10
152.70932390144043
 20
97.033309354059327
 11
153.77599056810715
 21
97.033309354059327
 12
153.24265723477373
 22
93.833309354059338
 13
153.24265723477373
 23
93.833309354059338
  0
TEXT
  8
_0-1_1
 62
    7
 10
154.84265723477372
 20
103.23330935405934
 40
3.2000000000000002
 41
1
 50
90
  1
22
  0
LINE
  8
_0-1_1
  6
CONTINUOUS
 62
    2
 10
134.00995894632473
 20
98.833309354059338
 11
146.27594895535583
 21
98.833309354059338
  0
LINE
  8
_0-1_1
  6
CONTINUOUS
 62
    2
 10
140.45503983692674
 20
93.833309354059338
 11
146.27594895535583
 21
93.833309354059338
  0
LINE
  8
_0-1_1
  6
CONTINUOUS
 62
    2
 10
145.27594895535574
 20
102.03330935405933
 11
145.27594895535574
 21
105.23330935405932
  0
LINE
  8
_0-1_1
  6
CONTINUOUS
 62
    2
 10
145.27594895535574
 20
90.63330935405935
 11
145.27594895535574
 21
87.433309354059361
  0
SOLID
  8
_0-1_1
  6
CONTINUOUS
 62
    2
 10
144.74261562202244
 20
102.03330935405933
 11
145.80928228868905
 21
102.03330935405933
 12
145.27594895535574
 22
98.833309354059338
 13
145.27594895535574
 23
98.833309354059338
  0
SOLID
  8
_0-1_1
  6
CONTINUOUS
 62
    2
 10
144.74261562202244
 20
90.63330935405935
 11
145.80928228868905
 21
90.63330935405935
 12
145.27594895535574
 22
93.833309354059338
 13
145.27594895535574
 23
93.833309354059338
  0
TEXT
  8
_0-1_1
 62
    7
 10
146.87594895535574
 20
95.533309354059341
 40
3.2000000000000002
 41
1
 50
90
  1
5
  0
LINE
  8
_0-1_1
  6
CONTINUOUS
 62
    2
 10
101.23626961175762
 20
146.83818273785943
 11
101.23626961175762
 21
164.10211266123144
  0
LINE
  8
_0-1_1
  6
CONTINUOUS
 62
    2
 10
-14.763730388242323
 20
146.83818273785943
 11
-14.763730388242323
 21
164.10211266123144
  0
LINE
  8
_0-1_1
  6
CONTINUOUS
 62
    2
 10
98.036269611757632
 20
163.10211266123144
 11
47.061269611768836
 21
163.10211266123144
  0
LINE
  8
_0-1_1
  6
CONTINUOUS
 62
    2
 10
-11.563730388242334
 20
163.10211266123144
 11
39.411269611746334
 21
163.10211266123144
  0
SOLID
  8
_0-1_1
  6
CONTINUOUS
 62
    2
 10
98.036269611757632
 20
163.63544599456475
 11
98.036269611757632
 21
162.56877932789803
 12
101.23626961175762
 22
163.10211266123144
 13
101.23626961175762
 23
163.10211266123144
  0
SOLID
  8
_0-1_1
  6
CONTINUOUS
 62
    2
 10
-11.563730388242334
 20
163.63544599456475
 11
-11.563730388242334
 21
162.56877932789803
 12
-14.763730388242323
 22
163.10211266123144
 13
-14.763730388242323
 23
163.10211266123144
  0
TEXT
  8
_0-1_1
 62
    7
 10
40.836273490274152
 20
161.50210684347195
 40
3.2000000000000002
 41
1
 50
0.0001388888892968
  1
116
  0
LINE
  8
_0-1_1
  6
CONTINUOUS
 62
    2
 10
-7.7686037720423258
 20
33.833309354059338
 11
-27.913370923606095
 21
33.833309354059338
  0
LINE
  8
_0-1_1
  6
CONTINUOUS
 62
    2
 10
-7.7686037720423258
 20
153.83330935405934
 11
-27.913370923606095
 21
153.83330935405934
  0
LINE
  8
_0-1_1
  6
CONTINUOUS
 62
    2
 10
-26.913370923606095
 20
37.033309354059327
 11
-26.913370923606067
 21
89.741642687392755
  0
LINE
  8
_0-1_1
  6
CONTINUOUS
 62
    2
 10
-26.913370923606067
 20
150.63330935405935
 11
-26.913370923606067
 21
97.924976020726035
  0
SOLID
  8
_0-1_1
  6
CONTINUOUS
 62
    2
 10
-27.446704256939427
 20
37.033309354059327
 11
-26.380037590272735
 21
37.033309354059327
 12
-26.913370923606095
 22
33.833309354059338
 13
-26.913370923606095
 23
33.833309354059338
  0
SOLID
  8
_0-1_1
  6
CONTINUOUS
 62
    2
 10
-27.446704256939398
 20
150.63330935405935
 11
-26.380037590272735
 21
150.63330935405935
 12
-26.913370923606067
 22
153.83330935405934
 13
-26.913370923606067
 23
153.83330935405934
  0
TEXT
  8
_0-1_1
 62
    7
 10
-25.313370923606129
 20
91.433309354059332
 40
3.2000000000000002
 41
1
 50
90
  1
120
  0
LINE
  8
_0-1_1
  6
CONTINUOUS
 62
    2
 10
50.436269611757737
 20
210.26906106399946
 11
50.436269611757737
 21
215.38526027888025
  0
LINE
  8
_0-1_1
  6
CONTINUOUS
 62
    2
 10
43.236269611757635
 20
213.38526027888031
 11
43.236269611757635
 21
215.38526027888025
  0
LINE
  8
_0-1_1
  6
CONTINUOUS
 62
    2
 10
53.63626961175774
 20
214.38526027888031
 11
56.836269611757729
 21
214.38526027888031
  0
LINE
  8
_0-1_1
  6
CONTINUOUS
 62
    2
 10
40.036269611757632
 20
214.38526027888031
 11
36.836269611757629
 21
214.38526027888031
  0
SOLID
  8
_0-1_1
  6
CONTINUOUS
 62
    2
 10
53.63626961175774
 20
214.91859361221361
 11
53.63626961175774
 21
213.85192694554695
 12
50.436269611757737
 22
214.38526027888031
 13
50.436269611757737
 23
214.38526027888031
  0
SOLID
  8
_0-1_1
  6
CONTINUOUS
 62
    2
 10
40.036269611757632
 20
214.91859361221361
 11
40.036269611757632
 21
213.85192694554695
 12
43.236269611757635
 22
214.38526027888031
 13
43.236269611757635
 23
214.38526027888031
  0
TEXT
  8
_0-1_1
 62
    7
 10
30.611273490262846
 20
212.78525446112081
 40
3.2000000000000002
 41
1
 50
0.0001388888892968
  1
7.2
  0
LINE
  8
_0-1_1
  6
CONTINUOUS
 62
    2
 10
73.736269611757621
 20
205.86172731785337
 11
73.736269611757621
 21
231.75157406647133
  0
LINE
  8
_0-1_1
  6
CONTINUOUS
 62
    2
 10
43.236269611757635
 20
213.38526027888031
 11
43.236269611757635
 21
231.75157406647133
  0
LINE
  8
_0-1_1
  6
CONTINUOUS
 62
    2
 10
70.536269611757632
 20
230.75157406647116
 11
63.644602945106129
 21
230.75157406647116
  0
LINE
  8
_0-1_1
  6
CONTINUOUS
 62
    2
 10
46.436269611757638
 20
230.75157406647116
 11
53.32793627840914
 21
230.75157406647116
  0
SOLID
  8
_0-1_1
  6
CONTINUOUS
 62
    2
 10
70.536269611757632
 20
231.28490739980464
 11
70.536269611757632
 21
230.21824073313792
 12
73.736269611757621
 22
230.75157406647116
 13
73.736269611757621
 23
230.75157406647116
  0
SOLID
  8
_0-1_1
  6
CONTINUOUS
 62
    2
 10
46.436269611757638
 20
231.28490739980464
 11
46.436269611757638
 21
230.21824073313792
 12
43.236269611757635
 22
230.75157406647116
 13
43.236269611757635
 23
230.75157406647116
  0
TEXT
  8
_0-1_1
 62
    7
 10
55.286273490276486
 20
229.15156630945694
 40
3.2000000000000002
 41
1
 50
0.0001388888892968
  1
30.5
  0
LINE
  8
_0-1_1
  6
CONTINUOUS
 62
    2
 10
80.736269611757621
 20
200.47083015179146
 11
80.736269611757621
 21
215.38526027888025
  0
LINE
  8
_0-1_1
  6
CONTINUOUS
 62
    2
 10
66.736269611757621
 20
200.47083015179146
 11
66.736269611757621
 21
215.38526027888025
  0
LINE
  8
_0-1_1
  6
CONTINUOUS
 62
    2
 10
77.536269611757632
 20
214.38526027888031
 11
76.494602945099047
 21
214.38526027888031
  0
LINE
  8
_0-1_1
  6
CONTINUOUS
 62
    2
 10
69.936269611757638
 20
214.38526027888031
 11
70.977936278416138
 21
214.38526027888031
  0
SOLID
  8
_0-1_1
  6
CONTINUOUS
 62
    2
 10
77.536269611757632
 20
214.91859361221361
 11
77.536269611757632
 21
213.85192694554695
 12
80.736269611757621
 22
214.38526027888031
 13
80.736269611757621
 23
214.38526027888031
  0
SOLID
  8
_0-1_1
  6
CONTINUOUS
 62
    2
 10
69.936269611757638
 20
214.91859361221361
 11
69.936269611757638
 21
213.85192694554695
 12
66.736269611757621
 22
214.38526027888031
 13
66.736269611757621
 23
214.38526027888031
  0
TEXT
  8
_0-1_1
 62
    7
 10
72.136273490271776
 20
212.78525640037554
 40
3.2000000000000002
 41
1
 50
0.0001388888892968
  1
14
  0
LINE
  8
_0-1_1
  6
CONTINUOUS
 62
    2
 10
116.20995894632475
 20
141.83330935405945
 11
116.20995894632475
 21
164.10211266123144
  0
LINE
  8
_0-1_1
  6
CONTINUOUS
 62
    2
 10
131.90995894632474
 20
154.83330935405934
 11
131.90995894632474
 21
164.10211266123144
  0
LINE
  8
_0-1_1
  6
CONTINUOUS
 62
    2
 10
113.00995894632473
 20
163.10211266123144
 11
109.80995894632463
 21
163.10211266123144
  0
LINE
  8
_0-1_1
  6
CONTINUOUS
 62
    2
 10
135.10995894632472
 20
163.10211266123144
 11
138.30995894632474
 21
163.10211266123144
  0
SOLID
  8
_0-1_1
  6
CONTINUOUS
 62
    2
 10
113.00995894632473
 20
163.63544599456475
 11
113.00995894632473
 21
162.56877932789803
 12
116.20995894632475
 22
163.10211266123144
 13
116.20995894632475
 23
163.10211266123144
  0
SOLID
  8
_0-1_1
  6
CONTINUOUS
 62
    2
 10
135.10995894632472
 20
163.63544599456475
 11
135.10995894632472
 21
162.56877932789803
 12
131.90995894632474
 22
163.10211266123144
 13
131.90995894632474
 23
163.10211266123144
  0
TEXT
  8
_0-1_1
 62
    7
 10
120.85996282484361
 20
161.50210490421722
 40
3.2000000000000002
 41
1
 50
0.0001388888892968
  1
15.7
  0
LINE
  8
_0-1_1
  6
CONTINUOUS
 62
    2
 10
134.70995894632475
 20
115.51033785318145
 11
134.70995894632475
 21
159.92914116035342
  0
LINE
  8
_0-1_1
  6
CONTINUOUS
 62
    2
 10
131.90995894632474
 20
150.66033785318143
 11
131.90995894632474
 21
159.92914116035342
  0
LINE
  8
_0-1_1
  6
CONTINUOUS
 62
    2
 10
137.90995894632474
 20
158.92914116035342
 11
141.10995894632472
 21
158.92914116035342
  0
LINE
  8
_0-1_1
  6
CONTINUOUS
 62
    2
 10
128.70995894632475
 20
158.92914116035342
 11
125.50995894632473
 21
158.92914116035342
  0
SOLID
  8
_0-1_1
  6
CONTINUOUS
 62
    2
 10
137.90995894632474
 20
159.46247449368673
 11
137.90995894632474
 21
158.39580782702006
 12
134.70995894632475
 22
158.92914116035342
 13
134.70995894632475
 23
158.92914116035342
  0
SOLID
  8
_0-1_1
  6
CONTINUOUS
 62
    2
 10
128.70995894632475
 20
159.46247449368673
 11
128.70995894632475
 21
158.39580782702006
 12
131.90995894632474
 22
158.92914116035342
 13
131.90995894632474
 23
158.92914116035342
  0
TEXT
  8
_0-1_1
 62
    7
 10
119.28496282482993
 20
157.32913534259393
 40
3.2000000000000002
 41
1
 50
0.0001388888892968
  1
2.8
  0
LINE
  8
_0-1_1
  6
CONTINUOUS
 62
    2
 10
135.70995894632475
 20
118.68330935405936
 11
146.22411618260674
 21
118.68330935405936
  0
LINE
  8
_0-1_1
  6
CONTINUOUS
 62
    2
 10
135.70995894632475
 20
112.98330935405943
 11
146.22411618260674
 21
112.98330935405943
  0
LINE
  8
_0-1_1
  6
CONTINUOUS
 62
    2
 10
145.22411618260674
 20
121.88330935405935
 11
145.22411618260674
 21
125.08330935405934
  0
LINE
  8
_0-1_1
  6
CONTINUOUS
 62
    2
 10
145.22411618260674
 20
109.78330935405944
 11
145.22411618260674
 21
106.58330935405934
  0
SOLID
  8
_0-1_1
  6
CONTINUOUS
 62
    2
 10
144.69078284927343
 20
121.88330935405935
 11
145.75744951594004
 21
121.88330935405935
 12
145.22411618260674
 22
118.68330935405936
 13
145.22411618260674
 23
118.68330935405936
  0
SOLID
  8
_0-1_1
  6
CONTINUOUS
 62
    2
 10
144.69078284927343
 20
109.78330935405944
 11
145.75744951594004
 21
109.78330935405944
 12
145.22411618260674
 22
112.98330935405943
 13
145.22411618260674
 23
112.98330935405943
  0
TEXT
  8
_0-1_1
 62
    7
 10
142.99911618260674
 20
104.18330935405945
 40
3.2000000000000002
 41
1
 50
90
  1
5.7
  0
LINE
  8
_0-1_1
  6
CONTINUOUS
 62
    2
 10
134.00995894632473
 20
122.83330935405934
 11
162.65669874746183
 21
122.83330935405934
  0
LINE
  8
_0-1_1
  6
CONTINUOUS
 62
    2
 10
134.00995894632473
 20
98.833309354059338
 11
162.65669874746175
 21
98.833309354059338
  0
LINE
  8
_0-1_1
  6
CONTINUOUS
 62
    2
 10
161.65669874746175
 20
119.63330935405935
 11
161.65669874746175
 21
114.12497602072602
  0
LINE
  8
_0-1_1
  6
CONTINUOUS
 62
    2
 10
161.65669874746175
 20
102.03330935405933
 11
161.65669874746175
 21
107.54164268739265
  0
SOLID
  8
_0-1_1
  6
CONTINUOUS
 62
    2
 10
161.12336541412844
 20
119.63330935405935
 11
162.19003208079513
 21
119.63330935405935
 12
161.65669874746175
 22
122.83330935405934
 13
161.65669874746175
 23
122.83330935405934
  0
SOLID
  8
_0-1_1
  6
CONTINUOUS
 62
    2
 10
161.12336541412844
 20
102.03330935405933
 11
162.19003208079502
 21
102.03330935405933
 12
161.65669874746175
 22
98.833309354059338
 13
161.65669874746175
 23
98.833309354059338
  0
TEXT
  8
_0-1_1
 62
    7
 10
163.25669874746174
 20
109.23330935405934
 40
3.2000000000000002
 41
1
 50
90
  1
24
  0
LINE
  8
_0-1_1
  6
CONTINUOUS
 62
    2
 10
286.07655930407202
 20
141.58340935405943
 11
286.07655930407202
 21
168.00544433877701
  0
LINE
  8
_0-1_1
  6
CONTINUOUS
 62
    2
 10
240.07655930407194
 20
141.58340935405943
 11
240.07655930407194
 21
168.00544433877701
  0
LINE
  8
_0-1_1
  6
CONTINUOUS
 62
    2
 10
282.87655930407209
 20
167.00544433877701
 11
266.3682259707482
 21
167.00544433877701
  0
LINE
  8
_0-1_1
  6
CONTINUOUS
 62
    2
 10
243.27655930407204
 20
167.00544433877701
 11
259.7848926373955
 21
167.00544433877701
  0
SOLID
  8
_0-1_1
  6
CONTINUOUS
 62
    2
 10
282.87655930407209
 20
167.53877767211031
 11
282.87655930407209
 21
166.47211100544365
 12
286.07655930407202
 22
167.00544433877701
 13
286.07655930407202
 23
167.00544433877701
  0
SOLID
  8
_0-1_1
  6
CONTINUOUS
 62
    2
 10
243.27655930407204
 20
167.53877767211031
 11
243.27655930407204
 21
166.47211100544365
 12
240.07655930407194
 22
167.00544433877701
 13
240.07655930407194
 23
167.00544433877701
  0
TEXT
  8
_0-1_1
 62
    7
 10
261.47656318258612
 20
165.40544046027225
 40
3.2000000000000002
 41
1
 50
0.0001388888892968
  1
46
  0
LINE
  8
_0-1_1
  6
CONTINUOUS
 62
    2
 10
250.07655930407194
 20
156.77742190375943
 11
250.07655930407194
 21
177.05445154584714
  0
LINE
  8
_0-1_1
  6
CONTINUOUS
 62
    2
 10
230.07655930407194
 20
156.77742190375943
 11
230.07655930407194
 21
177.05445154584714
  0
LINE
  8
_0-1_1
  6
CONTINUOUS
 62
    2
 10
246.87655930407195
 20
176.05445154584692
 11
243.10155930408084
 21
176.05445154584692
  0
LINE
  8
_0-1_1
  6
CONTINUOUS
 62
    2
 10
233.27655930407204
 20
176.05445154584692
 11
237.05155930406303
 21
176.05445154584692
  0
SOLID
  8
_0-1_1
  6
CONTINUOUS
 62
    2
 10
246.87655930407195
 20
176.58778487918045
 11
246.87655930407195
 21
175.52111821251373
 12
250.07655930407194
 22
176.05445154584692
 13
250.07655930407194
 23
176.05445154584692
  0
SOLID
  8
_0-1_1
  6
CONTINUOUS
 62
    2
 10
233.27655930407204
 20
176.58778487918045
 11
233.27655930407204
 21
175.52111821251373
 12
230.07655930407194
 22
176.05445154584692
 13
230.07655930407194
 23
176.05445154584692
  0
TEXT
  8
_0-1_1
 62
    7
 10
238.47656318258609
 20
174.45444766734215
 40
3.2000000000000002
 41
1
 50
0.0001388888892968
  1
20
  0
LINE
  8
_0-1_1
  6
CONTINUOUS
 62
    2
 10
276.07655930407191
 20
156.77742190375943
 11
276.07655930407191
 21
177.05445154584714
  0
LINE
  8
_0-1_1
  6
CONTINUOUS
 62
    2
 10
250.07655930407194
 20
156.77742190375943
 11
250.07655930407194
 21
177.05445154584714
  0
LINE
  8
_0-1_1
  6
CONTINUOUS
 62
    2
 10
272.87655930407209
 20
176.05445154584692
 11
266.3682259707482
 21
176.05445154584692
  0
LINE
  8
_0-1_1
  6
CONTINUOUS
 62
    2
 10
253.27655930407192
 20
176.05445154584692
 11
259.7848926373955
 21
176.05445154584692
  0
SOLID
  8
_0-1_1
  6
CONTINUOUS
 62
    2
 10
272.87655930407209
 20
176.58778487918045
 11
272.87655930407209
 21
175.52111821251373
 12
276.07655930407191
 22
176.05445154584692
 13
276.07655930407191
 23
176.05445154584692
  0
SOLID
  8
_0-1_1
  6
CONTINUOUS
 62
    2
 10
253.27655930407192
 20
176.58778487918045
 11
253.27655930407192
 21
175.52111821251373
 12
250.07655930407194
 22
176.05445154584692
 13
250.07655930407194
 23
176.05445154584692
  0
TEXT
  8
_0-1_1
 62
    7
 10
261.47656318258612
 20
174.45444766734215
 40
3.2000000000000002
 41
1
 50
0.0001388888892968
  1
26
  0
LINE
  8
_0-1_1
  6
CONTINUOUS
 62
    2
 10
296.07655930407202
 20
156.77742190375943
 11
296.07655930407202
 21
177.05445154584714
  0
LINE
  8
_0-1_1
  6
CONTINUOUS
 62
    2
 10
276.07655930407191
 20
156.77742190375943
 11
276.07655930407191
 21
177.05445154584714
  0
LINE
  8
_0-1_1
  6
CONTINUOUS
 62
    2
 10
292.87655930407209
 20
176.05445154584692
 11
289.10155930408087
 21
176.05445154584692
  0
LINE
  8
_0-1_1
  6
CONTINUOUS
 62
    2
 10
279.27655930407195
 20
176.05445154584692
 11
283.05155930406318
 21
176.05445154584692
  0
SOLID
  8
_0-1_1
  6
CONTINUOUS
 62
    2
 10
292.87655930407209
 20
176.58778487918045
 11
292.87655930407209
 21
175.52111821251373
 12
296.07655930407202
 22
176.05445154584692
 13
296.07655930407202
 23
176.05445154584692
  0
SOLID
  8
_0-1_1
  6
CONTINUOUS
 62
    2
 10
279.27655930407195
 20
176.58778487918045
 11
279.27655930407195
 21
175.52111821251373
 12
276.07655930407191
 22
176.05445154584692
 13
276.07655930407191
 23
176.05445154584692
  0
TEXT
  8
_0-1_1
 62
    7
 10
284.47656318258623
 20
174.45444766734215
 40
3.2000000000000002
 41
1
 50
0.0001388888892968
  1
20
  0
LINE
  8
_0-1_1
  6
CONTINUOUS
 62
    2
 10
234.07645930407185
 20
52.083309354059338
 11
196.90311478563282
 21
52.083309354059338
  0
LINE
  8
_0-1_1
  6
CONTINUOUS
 62
    2
 10
234.07645930407185
 20
135.58330935405934
 11
196.90311478563282
 21
135.58330935405934
  0
LINE
  8
_0-1_1
  6
CONTINUOUS
 62
    2
 10
197.90311478563294
 20
55.283309354059327
 11
197.90311478563294
 21
88.408309354059327
  0
LINE
  8
_0-1_1
  6
CONTINUOUS
 62
    2
 10
197.90311478563294
 20
132.38330935405935
 11
197.90311478563294
 21
99.25830935405935
  0
SOLID
  8
_0-1_1
  6
CONTINUOUS
 62
    2
 10
197.36978145229952
 20
55.283309354059327
 11
198.43644811896624
 21
55.283309354059327
 12
197.90311478563294
 22
52.083309354059338
 13
197.90311478563294
 23
52.083309354059338
  0
SOLID
  8
_0-1_1
  6
CONTINUOUS
 62
    2
 10
197.36978145229952
 20
132.38330935405935
 11
198.43644811896624
 21
132.38330935405935
 12
197.90311478563294
 22
135.58330935405934
 13
197.90311478563294
 23
135.58330935405934
  0
TEXT
  8
_0-1_1
 62
    7
 10
199.50311478563282
 20
90.633309354059449
 40
3.2000000000000002
 41
1
 50
90
  1
83.5
  0
LINE
  8
_0-1_1
  6
CONTINUOUS
 62
    2
 10
217.63244675447183
 20
43.333309354059338
 11
185.70575053370172
 21
43.333309354059338
  0
LINE
  8
_0-1_1
  6
CONTINUOUS
 62
    2
 10
217.63244675447183
 20
144.33330935405934
 11
185.70575053370172
 21
144.33330935405934
  0
LINE
  8
_0-1_1
  6
CONTINUOUS
 62
    2
 10
186.70575053370183
 20
46.533309354059327
 11
186.70575053370183
 21
90.274976020726058
  0
LINE
  8
_0-1_1
  6
CONTINUOUS
 62
    2
 10
186.70575053370183
 20
141.13330935405935
 11
186.70575053370183
 21
97.391642687392618
  0
SOLID
  8
_0-1_1
  6
CONTINUOUS
 62
    2
 10
186.17241720036841
 20
46.533309354059327
 11
187.23908386703525
 21
46.533309354059327
 12
186.70575053370183
 22
43.333309354059338
 13
186.70575053370183
 23
43.333309354059338
  0
SOLID
  8
_0-1_1
  6
CONTINUOUS
 62
    2
 10
186.17241720036841
 20
141.13330935405935
 11
187.23908386703525
 21
141.13330935405935
 12
186.70575053370183
 22
144.33330935405934
 13
186.70575053370183
 23
144.33330935405934
  0
TEXT
  8
_0-1_1
 62
    7
 10
188.30575053370171
 20
91.433309354059446
 40
3.2000000000000002
 41
1
 50
90
  1
101
  0
LINE
  8
_0-1_1
  6
CONTINUOUS
 62
    2
 10
57.436269611757723
 20
199.27083015179136
 11
57.436269611757723
 21
224.28699759330823
  0
LINE
  8
_0-1_1
  6
CONTINUOUS
 62
    2
 10
43.436269611757737
 20
199.27083015179136
 11
43.436269611757737
 21
224.28699759330823
  0
LINE
  8
_0-1_1
  6
CONTINUOUS
 62
    2
 10
54.236269611757734
 20
223.28699759330823
 11
53.19460294509912
 21
223.28699759330823
  0
LINE
  8
_0-1_1
  6
CONTINUOUS
 62
    2
 10
46.63626961175774
 20
223.28699759330823
 11
47.67793627841624
 21
223.28699759330823
  0
SOLID
  8
_0-1_1
  6
CONTINUOUS
 62
    2
 10
54.236269611757734
 20
223.82033092664153
 11
54.236269611757734
 21
222.75366425997464
 12
57.436269611757723
 22
223.28699759330823
 13
57.436269611757723
 23
223.28699759330823
  0
SOLID
  8
_0-1_1
  6
CONTINUOUS
 62
    2
 10
46.63626961175774
 20
223.82033092664153
 11
46.63626961175774
 21
222.75366425997464
 12
43.436269611757737
 22
223.28699759330823
 13
43.436269611757737
 23
223.28699759330823
  0
TEXT
  8
_0-1_1
 62
    7
 10
48.836273490271893
 20
221.68699371480346
 40
3.2000000000000002
 41
1
 50
0.0001388888892968
  1
14
  0
LINE
  8
_0-5__U_30EC_U_30A4_U_30E4_FC_1
  6
CONTINUOUS
 62
    2
 10
81.567202797429331
 20
37.73387359260775
 11
81.567202797429331
 21
42.730640084414148
  0
LINE
  8
_0-5__U_30EC_U_30A4_U_30E4_FC_1
  6
CONTINUOUS
 62
    2
 10
81.567202797429331
 20
42.730640084414148
 11
58.868792407164733
 21
42.730640084414148
  0
LINE
  8
_0-5__U_30EC_U_30A4_U_30E4_FC_1
  6
CONTINUOUS
 62
    2
 10
58.868792407164733
 20
42.730640084414148
 11
58.868792407164733
 21
37.73387359260775
  0
LINE
  8
_0-5__U_30EC_U_30A4_U_30E4_FC_1
  6
CONTINUOUS
 62
    2
 10
58.868792407164733
 20
37.73387359260775
 11
81.567202797429331
 21
37.73387359260775
  0
TEXT
  8
_0-1_1
 62
    7
 10
304.2980737610917
 20
5.9622609407199434
 40
3.2000000000000002
 41
0.9
 50
0
  1
BS-132HA-1
  0
ENDSEC
  0
EOF
