  0
SECTION
  2
HEADER
  9
$ACADVER
  1
AC1009
  9
$INSBASE
 10
0
 20
0
 30
0
  9
$EXTMIN
 10
0
 20
0
  9
$EXTMAX
 10
420
 20
297
  9
$LIMMIN
 10
0
 20
0
  9
$LIMMAX
 10
420
 20
297
  9
$LTSCALE
 40
1
  0
ENDSEC
  0
SECTION
  2
TABLES
  0
TABLE
  2
LTYPE
 70
     9
  0
LTYPE
  2
CONTINUOUS
 70
    64
  3
実線
 72
    65
 73
     0
 40
0.0
  0
LTYPE
  2
DASHED1
 70
    64
  3
--  --  --  --  --  --  --  --  
 72
    65
 73
     2
 40
2.5
 49
1.25
 49
-1.25
  0
LTYPE
  2
DASHED2
 70
    64
  3
----    ----    ----    ----    
 72
    65
 73
     2
 40
5.0
 49
2.5
 49
-2.5
  0
LTYPE
  2
DASHED3
 70
    64
  3
------  ------  ------  ------  
 72
    65
 73
     2
 40
5.0
 49
3.75
 49
-1.25
  0
LTYPE
  2
CENTER1
 70
    64
  3
----- - ----- - ----- - ----- - 
 72
    65
 73
     4
 40
10.0
 49
6.25
 49
-1.25
 49
1.25
 49
-1.25
  0
LTYPE
  2
CENTER2
 70
    64
  3
----------  --  ----------  --  
 72
    65
 73
     4
 40
20.0
 49
12.5
 49
-2.5
 49
2.5
 49
-2.5
  0
LTYPE
  2
PHANTOM1
 70
    64
  3
--- - - --- - - --- - - --- - - 
 72
    65
 73
     6
 40
10.0
 49
3.25
 49
-1.25
 49
1.25
 49
-1.25
 49
1.25
 49
-1.25
  0
LTYPE
  2
PHANTOM2
 70
    64
  3
--------  -  -  --------  -  -  
 72
    65
 73
     6
 40
20.0
 49
10.0
 49
-2.5
 49
1.25
 49
-2.5
 49
1.25
 49
-2.5
  0
LTYPE
  2
DOT
 70
    64
  3
-   -   -   -   -   -   -   -   
 72
    65
 73
     2
 40
2.5
 49
0.625
 49
-1.875
  0
LTYPE
  2
DUMMY
 70
    64
  3
ダミー
 72
    65
 73
     0
 40
0.0
  0
LTYPE
  2
RAND1
 70
    64
  3
ランダム線1
 72
    65
 73
     4
 40
10.0
 49
1.0
 49
-2.0
 49
3.0
 49
-4.0
  0
LTYPE
  2
RAND2
 70
    64
  3
ランダム線2
 72
    65
 73
     4
 40
14.0
 49
2.0
 49
-3.0
 49
4.0
 49
-5.0
  0
LTYPE
  2
RAND3
 70
    64
  3
ランダム線3
 72
    65
 73
     4
 40
18.0
 49
3.0
 49
-4.0
 49
5.0
 49
-6.0
  0
LTYPE
  2
RAND4
 70
    64
  3
ランダム線4
 72
    65
 73
     4
 40
22.0
 49
4.0
 49
-5.0
 49
6.0
 49
-7.0
  0
LTYPE
  2
RAND5
 70
    64
  3
ランダム線5
 72
    65
 73
     4
 40
26.0
 49
5.0
 49
-6.0
 49
7.0
 49
-8.0
  0
LTYPE
  2
LONG1
 70
    64
  3
----------  --  ----------  --  
 72
    65
 73
     4
 40
40.0
 49
32.5
 49
-2.5
 49
2.5
 49
-2.5
  0
LTYPE
  2
LONG2
 70
    64
  3
--------  -  -  --------  -  -  
 72
    65
 73
     6
 40
40.0
 49
30.0
 49
-2.5
 49
1.25
 49
-2.5
 49
1.25
 49
-2.5
  0
LTYPE
  2
LONG3
 70
    64
  3
+++++++++++++++..+++++++++++++++
 72
    65
 73
     2
 40
40.0
 49
37.5
 49
-2.5
  0
LTYPE
  2
LONG4
 70
    64
  3
+++++++++++++++..+++++++++++++++
 72
    65
 73
     2
 40
80.0
 49
75.0
 49
-5.0
  0
LTYPE
  2
LONG5
 70
    64
  3
----------  --  ----------  --  
 72
    65
 73
     4
 40
60.0
 49
37.5
 49
-7.5
 49
7.5
 49
-7.5
  0
LTYPE
  2
dashed
 70
   64
  3
-------   -------------   ------
 72
   65
 73
    2
 40
7.5
 49
6
 49
-1.5
  0
LTYPE
  2
dashed_spaced
 70
   64
  3
----        --------        ----
 72
   65
 73
    2
 40
12
 49
6
 49
-6
  0
LTYPE
  2
long_dashed_dotted
 70
   64
  3
------------- --- --------------
 72
   65
 73
    4
 40
15.25
 49
12
 49
-1.5
 49
0.25
 49
-1.5
  0
LTYPE
  2
long_dashed_double-dotted
 70
   64
  3
----------- --- --- ------------
 72
   65
 73
    6
 40
17
 49
12
 49
-1.5
 49
0.25
 49
-1.5
 49
0.25
 49
-1.5
  0
LTYPE
  2
long_dashed_triplicate-dotted
 70
   64
  3
--------- --- --- --- ----------
 72
   65
 73
    8
 40
18.75
 49
12
 49
-1.5
 49
0.25
 49
-1.5
 49
0.25
 49
-1.5
 49
0.25
 49
-1.5
  0
LTYPE
  2
dotted
 70
   64
  3
   -       -       -       -    
 72
   65
 73
    2
 40
1.75
 49
0.25
 49
-1.5
  0
LTYPE
  2
chain
 70
   64
  3
-------------- -- --------------
 72
   65
 73
    4
 40
18.5
 49
12
 49
-1.5
 49
3.5
 49
-1.5
  0
LTYPE
  2
chain_double_dash
 70
   64
  3
------------ -- -- -------------
 72
   65
 73
    6
 40
23.5
 49
12
 49
-1.5
 49
3.5
 49
-1.5
 49
3.5
 49
-1.5
  0
LTYPE
  2
dashed_dotted
 70
   64
  3
-----------     -     ----------
 72
   65
 73
    4
 40
9.25
 49
6
 49
-1.5
 49
0.25
 49
-1.5
  0
LTYPE
  2
double-dashed_dotted
 70
   64
  3
------   -----------   -   -----
 72
   65
 73
    6
 40
16.75
 49
6
 49
-1.5
 49
6
 49
-1.5
 49
0.25
 49
-1.5
  0
LTYPE
  2
dashed_double-dotted
 70
   64
  3
---------    -    -    ---------
 72
   65
 73
    6
 40
11
 49
6
 49
-1.5
 49
0.25
 49
-1.5
 49
0.25
 49
-1.5
  0
LTYPE
  2
double-dashed_double-dotted
 70
   64
  3
-----   ---------   -   -   ----
 72
   65
 73
    8
 40
18.5
 49
6
 49
-1.5
 49
6
 49
-1.5
 49
0.25
 49
-1.5
 49
0.25
 49
-1.5
  0
LTYPE
  2
dashed_triplicate-dotted
 70
   64
  3
-------    -    -    -    ------
 72
   65
 73
    8
 40
12.75
 49
6
 49
-1.5
 49
0.25
 49
-1.5
 49
0.25
 49
-1.5
 49
0.25
 49
-1.5
  0
LTYPE
  2
double-dashed_triplicate-dotted
 70
   64
  3
-----  ---------  -  -  -  -----
 72
   65
 73
   10
 40
20.25
 49
6
 49
-1.5
 49
6
 49
-1.5
 49
0.25
 49
-1.5
 49
0.25
 49
-1.5
 49
0.25
 49
-1.5
  0
LTYPE
  2
undefined
 70
   64
  3
--------------------------------
 72
   65
 73
    0
 40
0
  0
LTYPE
  2
_
 70
   64
  3
                                
 72
   65
 73
    0
 40
0
  0
LTYPE
  2
__18
 70
   64
  3
                                
 72
   65
 73
    0
 40
0
  0
LTYPE
  2
__19
 70
   64
  3
                                
 72
   65
 73
    0
 40
0
  0
LTYPE
  2
__20
 70
   64
  3
                                
 72
   65
 73
    0
 40
0
  0
LTYPE
  2
__21
 70
   64
  3
                                
 72
   65
 73
    0
 40
0
  0
LTYPE
  2
__22
 70
   64
  3
                                
 72
   65
 73
    0
 40
0
  0
LTYPE
  2
__23
 70
   64
  3
                                
 72
   65
 73
    0
 40
0
  0
LTYPE
  2
__24
 70
   64
  3
                                
 72
   65
 73
    0
 40
0
  0
LTYPE
  2
__25
 70
   64
  3
                                
 72
   65
 73
    0
 40
0
  0
LTYPE
  2
__26
 70
   64
  3
                                
 72
   65
 73
    0
 40
0
  0
LTYPE
  2
__27
 70
   64
  3
                                
 72
   65
 73
    0
 40
0
  0
LTYPE
  2
__28
 70
   64
  3
                                
 72
   65
 73
    0
 40
0
  0
LTYPE
  2
__29
 70
   64
  3
                                
 72
   65
 73
    0
 40
0
  0
LTYPE
  2
__30
 70
   64
  3
                                
 72
   65
 73
    0
 40
0
  0
LTYPE
  2
__31
 70
   64
  3
                                
 72
   65
 73
    0
 40
0
  0
LTYPE
  2
__32
 70
   64
  3
                                
 72
   65
 73
    0
 40
0
  0
ENDTAB
  0
TABLE
  2
STYLE
  5
3
100
AcDbSymbolTable
 70
     1
  0
STYLE
  5
10
100
AcDbSymbolTableRecord
100
AcDbTextStyleTableRecord
  2
STANDARD
 70
     0
 40
0.0
 41
1.0
 50
0.0
 71
     0
 42
0.2
  3
txt
  4
bigfont.shx
  0
STYLE
  5
26
100
AcDbSymbolTableRecord
100
AcDbTextStyleTableRecord
  2
TATEGAKI
 70
    68
 40
0.0
 41
1.0
 50
0.0
 71
     0
 42
1.0
  3
txt
  4
bigfont.shx
  0
ENDTAB
  0
TABLE
  2
LAYER
 70
    4
  0
LAYER
  2
_0-0_0
 70
   64
 62
    7
  6
CONTINUOUS
  0
LAYER
  2
_0-1_0-00
 70
   64
 62
    7
  6
CONTINUOUS
  0
LAYER
  2
_0-3_0-10
 70
   64
 62
    7
  6
CONTINUOUS
  0
LAYER
  2
ADD_LINE
 70
   64
 62
    7
  6
CONTINUOUS
  0
ENDTAB
  0
ENDSEC
  0
SECTION
  2
BLOCKS
  0
BLOCK
  2
-000-EDTIP_ARROW_S_0
 70
   64
 10
0
 20
0
 30
0
  0
LINE
  8
_0-1_0-00
  6
CONTINUOUS
 62
    7
 10
0
 20
0
 11
-1
 21
0
  0
LINE
  8
_0-1_0-00
  6
CONTINUOUS
 62
    7
 10
0
 20
0
 11
-0.9659259999999999
 21
0.258819
  0
LINE
  8
_0-1_0-00
  6
CONTINUOUS
 62
    7
 10
0
 20
0
 11
-0.9659259999999999
 21
-0.258819
  0
ENDBLK
  0
BLOCK
  2
-001-EDTIP_ARROW_E_1
 70
   64
 10
0
 20
0
 30
0
  0
LINE
  8
_0-0_0
  6
CONTINUOUS
 62
    7
 10
0
 20
0
 11
-1
 21
0
  0
LINE
  8
_0-0_0
  6
CONTINUOUS
 62
    7
 10
0
 20
0
 11
-0.9659259999999999
 21
-0.258819
  0
LINE
  8
_0-0_0
  6
CONTINUOUS
 62
    7
 10
0
 20
0
 11
-0.9659259999999999
 21
0.258819
  0
ENDBLK
  0
BLOCK
  2
-002-EDTIP_ARROW_S
 70
   64
 10
0
 20
0
 30
0
  0
LINE
  8
_0-0_0
  6
CONTINUOUS
 62
    7
 10
0
 20
0
 11
-1
 21
0
  0
LINE
  8
_0-0_0
  6
CONTINUOUS
 62
    7
 10
0
 20
0
 11
-0.9659259999999999
 21
0.258819
  0
LINE
  8
_0-0_0
  6
CONTINUOUS
 62
    7
 10
0
 20
0
 11
-0.9659259999999999
 21
-0.258819
  0
ENDBLK
  0
BLOCK
  2
-003-EDTIP_ARROW_E
 70
   64
 10
0
 20
0
 30
0
  0
LINE
  8
_0-0_0
  6
CONTINUOUS
 62
    7
 10
0
 20
0
 11
-1
 21
0
  0
LINE
  8
_0-0_0
  6
CONTINUOUS
 62
    7
 10
0
 20
0
 11
-0.9659259999999999
 21
-0.258819
  0
LINE
  8
_0-0_0
  6
CONTINUOUS
 62
    7
 10
0
 20
0
 11
-0.9659259999999999
 21
0.258819
  0
ENDBLK
  0
BLOCK
  2
-004-BLKF019_2
 70
   64
 10
0
 20
0
 30
0
  0
LINE
  8
_0-0_0
  6
CONTINUOUS
 62
    4
 10
111.728244
 20
214.25727900000001
 11
111.85897699999999
 21
214.26013299999999
  0
LINE
  8
_0-0_0
  6
CONTINUOUS
 62
    4
 10
111.85897699999999
 20
214.26013299999999
 11
111.98871599999999
 21
214.268673
  0
LINE
  8
_0-0_0
  6
CONTINUOUS
 62
    4
 10
111.98871599999999
 20
214.268673
 11
112.116472
 21
214.282834
  0
LINE
  8
_0-0_0
  6
CONTINUOUS
 62
    4
 10
112.116472
 20
214.282834
 11
112.241274
 21
214.30250899999998
  0
LINE
  8
_0-0_0
  6
CONTINUOUS
 62
    4
 10
112.241274
 20
214.30250899999998
 11
112.362171
 21
214.327548
  0
LINE
  8
_0-0_0
  6
CONTINUOUS
 62
    4
 10
112.362171
 20
214.327548
 11
112.478244
 21
214.35776000000001
  0
LINE
  8
_0-0_0
  6
CONTINUOUS
 62
    4
 10
112.478244
 20
214.35776000000001
 11
112.58860799999999
 21
214.39291499999998
  0
LINE
  8
_0-0_0
  6
CONTINUOUS
 62
    4
 10
112.58860799999999
 20
214.39291499999998
 11
112.692425
 21
214.43274500000001
  0
LINE
  8
_0-0_0
  6
CONTINUOUS
 62
    4
 10
112.692425
 20
214.43274500000001
 11
112.788904
 21
214.47694899999999
  0
LINE
  8
_0-0_0
  6
CONTINUOUS
 62
    4
 10
112.788904
 20
214.47694899999999
 11
112.87730999999999
 21
214.52518800000001
  0
LINE
  8
_0-0_0
  6
CONTINUOUS
 62
    4
 10
112.87730999999999
 20
214.52518800000001
 11
112.95697199999999
 21
214.57709600000001
  0
LINE
  8
_0-0_0
  6
CONTINUOUS
 62
    4
 10
112.95697199999999
 20
214.57709600000001
 11
113.02728199999998
 21
214.63227900000001
  0
LINE
  8
_0-0_0
  6
CONTINUOUS
 62
    4
 10
113.02728199999998
 20
214.63227900000001
 11
113.08770499999998
 21
214.69031499999999
  0
LINE
  8
_0-0_0
  6
CONTINUOUS
 62
    4
 10
113.08770499999998
 20
214.69031499999999
 11
113.13778299999998
 21
214.750764
  0
LINE
  8
_0-0_0
  6
CONTINUOUS
 62
    4
 10
113.13778299999998
 20
214.750764
 11
113.177132
 21
214.813164
  0
LINE
  8
_0-0_0
  6
CONTINUOUS
 62
    4
 10
113.177132
 20
214.813164
 11
113.205455
 21
214.87704299999998
  0
LINE
  8
_0-0_0
  6
CONTINUOUS
 62
    4
 10
113.205455
 20
214.87704299999998
 11
113.222536
 21
214.941912
  0
LINE
  8
_0-0_0
  6
CONTINUOUS
 62
    4
 10
113.222536
 20
214.941912
 11
113.228244
 21
215.00727900000001
  0
ENDBLK
  0
BLOCK
  2
-005-BLKF020_3
 70
   64
 10
0
 20
0
 30
0
  0
LINE
  8
_0-0_0
  6
CONTINUOUS
 62
    4
 10
111.728244
 20
214.58203800000001
 11
111.85897699999999
 21
214.58489199999999
  0
LINE
  8
_0-0_0
  6
CONTINUOUS
 62
    4
 10
111.85897699999999
 20
214.58489199999999
 11
111.98871599999999
 21
214.593432
  0
LINE
  8
_0-0_0
  6
CONTINUOUS
 62
    4
 10
111.98871599999999
 20
214.593432
 11
112.116472
 21
214.607594
  0
LINE
  8
_0-0_0
  6
CONTINUOUS
 62
    4
 10
112.116472
 20
214.607594
 11
112.241274
 21
214.62726900000001
  0
LINE
  8
_0-0_0
  6
CONTINUOUS
 62
    4
 10
112.241274
 20
214.62726900000001
 11
112.362171
 21
214.652307
  0
LINE
  8
_0-0_0
  6
CONTINUOUS
 62
    4
 10
112.362171
 20
214.652307
 11
112.478244
 21
214.68251900000001
  0
LINE
  8
_0-0_0
  6
CONTINUOUS
 62
    4
 10
112.478244
 20
214.68251900000001
 11
112.58860799999999
 21
214.71767399999998
  0
LINE
  8
_0-0_0
  6
CONTINUOUS
 62
    4
 10
112.58860799999999
 20
214.71767399999998
 11
112.692425
 21
214.757505
  0
LINE
  8
_0-0_0
  6
CONTINUOUS
 62
    4
 10
112.692425
 20
214.757505
 11
112.788904
 21
214.80170799999999
  0
LINE
  8
_0-0_0
  6
CONTINUOUS
 62
    4
 10
112.788904
 20
214.80170799999999
 11
112.87730999999999
 21
214.84994800000001
  0
LINE
  8
_0-0_0
  6
CONTINUOUS
 62
    4
 10
112.87730999999999
 20
214.84994800000001
 11
112.95697199999999
 21
214.901856
  0
LINE
  8
_0-0_0
  6
CONTINUOUS
 62
    4
 10
112.95697199999999
 20
214.901856
 11
113.02728199999998
 21
214.95703800000001
  0
LINE
  8
_0-0_0
  6
CONTINUOUS
 62
    4
 10
113.02728199999998
 20
214.95703800000001
 11
113.08770499999998
 21
215.01507499999999
  0
LINE
  8
_0-0_0
  6
CONTINUOUS
 62
    4
 10
113.08770499999998
 20
215.01507499999999
 11
113.13778299999998
 21
215.075523
  0
LINE
  8
_0-0_0
  6
CONTINUOUS
 62
    4
 10
113.13778299999998
 20
215.075523
 11
113.177132
 21
215.13792399999999
  0
LINE
  8
_0-0_0
  6
CONTINUOUS
 62
    4
 10
113.177132
 20
215.13792399999999
 11
113.205455
 21
215.20180199999998
  0
LINE
  8
_0-0_0
  6
CONTINUOUS
 62
    4
 10
113.205455
 20
215.20180199999998
 11
113.222536
 21
215.266671
  0
LINE
  8
_0-0_0
  6
CONTINUOUS
 62
    4
 10
113.222536
 20
215.266671
 11
113.228244
 21
215.33203800000001
  0
LINE
  8
_0-0_0
  6
CONTINUOUS
 62
    4
 10
113.228244
 20
215.33203800000001
 11
113.222536
 21
215.39740499999999
  0
LINE
  8
_0-0_0
  6
CONTINUOUS
 62
    4
 10
113.222536
 20
215.39740499999999
 11
113.205455
 21
215.462274
  0
LINE
  8
_0-0_0
  6
CONTINUOUS
 62
    4
 10
113.205455
 20
215.462274
 11
113.177132
 21
215.52615299999999
  0
LINE
  8
_0-0_0
  6
CONTINUOUS
 62
    4
 10
113.177132
 20
215.52615299999999
 11
113.13778299999998
 21
215.58855299999999
  0
LINE
  8
_0-0_0
  6
CONTINUOUS
 62
    4
 10
113.13778299999998
 20
215.58855299999999
 11
113.08770499999998
 21
215.64900199999999
  0
LINE
  8
_0-0_0
  6
CONTINUOUS
 62
    4
 10
113.08770499999998
 20
215.64900199999999
 11
113.02728199999998
 21
215.70703800000001
  0
LINE
  8
_0-0_0
  6
CONTINUOUS
 62
    4
 10
113.02728199999998
 20
215.70703800000001
 11
112.95697199999999
 21
215.76222100000001
  0
LINE
  8
_0-0_0
  6
CONTINUOUS
 62
    4
 10
112.95697199999999
 20
215.76222100000001
 11
112.87730999999999
 21
215.814129
  0
LINE
  8
_0-0_0
  6
CONTINUOUS
 62
    4
 10
112.87730999999999
 20
215.814129
 11
112.788904
 21
215.862368
  0
LINE
  8
_0-0_0
  6
CONTINUOUS
 62
    4
 10
112.788904
 20
215.862368
 11
112.692425
 21
215.90657200000001
  0
LINE
  8
_0-0_0
  6
CONTINUOUS
 62
    4
 10
112.692425
 20
215.90657200000001
 11
112.58860799999999
 21
215.946402
  0
LINE
  8
_0-0_0
  6
CONTINUOUS
 62
    4
 10
112.58860799999999
 20
215.946402
 11
112.478244
 21
215.981557
  0
LINE
  8
_0-0_0
  6
CONTINUOUS
 62
    4
 10
112.478244
 20
215.981557
 11
112.434126
 21
215.99380300000001
  0
ENDBLK
  0
BLOCK
  2
-006-BLKF021_4
 70
   64
 10
0
 20
0
 30
0
  0
LINE
  8
_0-0_0
  6
CONTINUOUS
 62
    4
 10
120.75561999999999
 20
205.25727900000001
 11
120.919037
 21
205.26084599999998
  0
LINE
  8
_0-0_0
  6
CONTINUOUS
 62
    4
 10
120.919037
 20
205.26084599999998
 11
121.08121099999999
 21
205.271522
  0
LINE
  8
_0-0_0
  6
CONTINUOUS
 62
    4
 10
121.08121099999999
 20
205.271522
 11
121.24090599999999
 21
205.28922299999999
  0
LINE
  8
_0-0_0
  6
CONTINUOUS
 62
    4
 10
121.24090599999999
 20
205.28922299999999
 11
121.39690799999999
 21
205.313817
  0
LINE
  8
_0-0_0
  6
CONTINUOUS
 62
    4
 10
121.39690799999999
 20
205.313817
 11
121.54802899999998
 21
205.34511499999999
  0
LINE
  8
_0-0_0
  6
CONTINUOUS
 62
    4
 10
121.54802899999998
 20
205.34511499999999
 11
121.69311999999999
 21
205.38288
  0
LINE
  8
_0-0_0
  6
CONTINUOUS
 62
    4
 10
121.69311999999999
 20
205.38288
 11
121.83107599999999
 21
205.42682400000001
  0
LINE
  8
_0-0_0
  6
CONTINUOUS
 62
    4
 10
121.83107599999999
 20
205.42682400000001
 11
121.960847
 21
205.47661199999998
  0
LINE
  8
_0-0_0
  6
CONTINUOUS
 62
    4
 10
121.960847
 20
205.47661199999998
 11
122.081445
 21
205.531866
  0
LINE
  8
_0-0_0
  6
CONTINUOUS
 62
    4
 10
122.081445
 20
205.531866
 11
122.19195399999999
 21
205.59216499999999
  0
LINE
  8
_0-0_0
  6
CONTINUOUS
 62
    4
 10
122.19195399999999
 20
205.59216499999999
 11
122.29152999999999
 21
205.65705099999999
  0
LINE
  8
_0-0_0
  6
CONTINUOUS
 62
    4
 10
122.29152999999999
 20
205.65705099999999
 11
122.379418
 21
205.72602900000001
  0
LINE
  8
_0-0_0
  6
CONTINUOUS
 62
    4
 10
122.379418
 20
205.72602900000001
 11
122.454947
 21
205.798574
  0
LINE
  8
_0-0_0
  6
CONTINUOUS
 62
    4
 10
122.454947
 20
205.798574
 11
122.517544
 21
205.87413499999999
  0
LINE
  8
_0-0_0
  6
CONTINUOUS
 62
    4
 10
122.517544
 20
205.87413499999999
 11
122.566731
 21
205.95213599999999
  0
LINE
  8
_0-0_0
  6
CONTINUOUS
 62
    4
 10
122.566731
 20
205.95213599999999
 11
122.602135
 21
206.03198399999999
  0
LINE
  8
_0-0_0
  6
CONTINUOUS
 62
    4
 10
122.602135
 20
206.03198399999999
 11
122.623485
 21
206.11306999999999
  0
LINE
  8
_0-0_0
  6
CONTINUOUS
 62
    4
 10
122.623485
 20
206.11306999999999
 11
122.63061999999999
 21
206.19477900000001
  0
ENDBLK
  0
BLOCK
  2
-007-BLKF022_5
 70
   64
 10
0
 20
0
 30
0
  0
LINE
  8
_0-0_0
  6
CONTINUOUS
 62
    4
 10
120.75561999999999
 20
205.58203800000001
 11
120.919037
 21
205.58560600000001
  0
LINE
  8
_0-0_0
  6
CONTINUOUS
 62
    4
 10
120.919037
 20
205.58560600000001
 11
121.08121099999999
 21
205.596281
  0
LINE
  8
_0-0_0
  6
CONTINUOUS
 62
    4
 10
121.08121099999999
 20
205.596281
 11
121.24090599999999
 21
205.61398299999999
  0
LINE
  8
_0-0_0
  6
CONTINUOUS
 62
    4
 10
121.24090599999999
 20
205.61398299999999
 11
121.39690799999999
 21
205.638576
  0
LINE
  8
_0-0_0
  6
CONTINUOUS
 62
    4
 10
121.39690799999999
 20
205.638576
 11
121.54802899999998
 21
205.66987499999999
  0
LINE
  8
_0-0_0
  6
CONTINUOUS
 62
    4
 10
121.54802899999998
 20
205.66987499999999
 11
121.69311999999999
 21
205.707639
  0
LINE
  8
_0-0_0
  6
CONTINUOUS
 62
    4
 10
121.69311999999999
 20
205.707639
 11
121.83107599999999
 21
205.75158300000001
  0
LINE
  8
_0-0_0
  6
CONTINUOUS
 62
    4
 10
121.83107599999999
 20
205.75158300000001
 11
121.960847
 21
205.80137199999998
  0
LINE
  8
_0-0_0
  6
CONTINUOUS
 62
    4
 10
121.960847
 20
205.80137199999998
 11
122.081445
 21
205.856626
  0
LINE
  8
_0-0_0
  6
CONTINUOUS
 62
    4
 10
122.081445
 20
205.856626
 11
122.19195399999999
 21
205.91692499999999
  0
LINE
  8
_0-0_0
  6
CONTINUOUS
 62
    4
 10
122.19195399999999
 20
205.91692499999999
 11
122.29152999999999
 21
205.98180999999999
  0
LINE
  8
_0-0_0
  6
CONTINUOUS
 62
    4
 10
122.29152999999999
 20
205.98180999999999
 11
122.379418
 21
206.05078800000001
  0
LINE
  8
_0-0_0
  6
CONTINUOUS
 62
    4
 10
122.379418
 20
206.05078800000001
 11
122.454947
 21
206.12333399999999
  0
LINE
  8
_0-0_0
  6
CONTINUOUS
 62
    4
 10
122.454947
 20
206.12333399999999
 11
122.517544
 21
206.19889399999999
  0
LINE
  8
_0-0_0
  6
CONTINUOUS
 62
    4
 10
122.517544
 20
206.19889399999999
 11
122.566731
 21
206.27689499999999
  0
LINE
  8
_0-0_0
  6
CONTINUOUS
 62
    4
 10
122.566731
 20
206.27689499999999
 11
122.602135
 21
206.35674299999999
  0
LINE
  8
_0-0_0
  6
CONTINUOUS
 62
    4
 10
122.602135
 20
206.35674299999999
 11
122.623485
 21
206.43782999999999
  0
LINE
  8
_0-0_0
  6
CONTINUOUS
 62
    4
 10
122.623485
 20
206.43782999999999
 11
122.63061999999999
 21
206.51953800000001
  0
LINE
  8
_0-0_0
  6
CONTINUOUS
 62
    4
 10
122.63061999999999
 20
206.51953800000001
 11
122.623485
 21
206.601247
  0
LINE
  8
_0-0_0
  6
CONTINUOUS
 62
    4
 10
122.623485
 20
206.601247
 11
122.602135
 21
206.68233299999999
  0
LINE
  8
_0-0_0
  6
CONTINUOUS
 62
    4
 10
122.602135
 20
206.68233299999999
 11
122.566731
 21
206.76218099999999
  0
LINE
  8
_0-0_0
  6
CONTINUOUS
 62
    4
 10
122.566731
 20
206.76218099999999
 11
122.517544
 21
206.84018199999999
  0
LINE
  8
_0-0_0
  6
CONTINUOUS
 62
    4
 10
122.517544
 20
206.84018199999999
 11
122.454947
 21
206.91574299999999
  0
LINE
  8
_0-0_0
  6
CONTINUOUS
 62
    4
 10
122.454947
 20
206.91574299999999
 11
122.379418
 21
206.98828800000001
  0
LINE
  8
_0-0_0
  6
CONTINUOUS
 62
    4
 10
122.379418
 20
206.98828800000001
 11
122.29152999999999
 21
207.05726599999999
  0
ENDBLK
  0
BLOCK
  2
-008-BLKF023_6
 70
   64
 10
0
 20
0
 30
0
  0
LINE
  8
_0-0_0
  6
CONTINUOUS
 62
    4
 10
115.881061
 20
208.76953800000001
 11
115.91374399999999
 21
208.77025199999999
  0
LINE
  8
_0-0_0
  6
CONTINUOUS
 62
    4
 10
115.91374399999999
 20
208.77025199999999
 11
115.946179
 21
208.772387
  0
LINE
  8
_0-0_0
  6
CONTINUOUS
 62
    4
 10
115.946179
 20
208.772387
 11
115.97811799999999
 21
208.77592699999999
  0
LINE
  8
_0-0_0
  6
CONTINUOUS
 62
    4
 10
115.97811799999999
 20
208.77592699999999
 11
116.00931799999999
 21
208.78084599999999
  0
LINE
  8
_0-0_0
  6
CONTINUOUS
 62
    4
 10
116.00931799999999
 20
208.78084599999999
 11
116.03954299999999
 21
208.78710599999999
  0
LINE
  8
_0-0_0
  6
CONTINUOUS
 62
    4
 10
116.03954299999999
 20
208.78710599999999
 11
116.068561
 21
208.79465899999999
  0
LINE
  8
_0-0_0
  6
CONTINUOUS
 62
    4
 10
116.068561
 20
208.79465899999999
 11
116.096152
 21
208.803447
  0
LINE
  8
_0-0_0
  6
CONTINUOUS
 62
    4
 10
116.096152
 20
208.803447
 11
116.122106
 21
208.81340499999998
  0
LINE
  8
_0-0_0
  6
CONTINUOUS
 62
    4
 10
116.122106
 20
208.81340499999998
 11
116.14622599999998
 21
208.82445599999999
  0
LINE
  8
_0-0_0
  6
CONTINUOUS
 62
    4
 10
116.14622599999998
 20
208.82445599999999
 11
116.168327
 21
208.83651599999998
  0
LINE
  8
_0-0_0
  6
CONTINUOUS
 62
    4
 10
116.168327
 20
208.83651599999998
 11
116.18824299999998
 21
208.84949299999999
  0
LINE
  8
_0-0_0
  6
CONTINUOUS
 62
    4
 10
116.18824299999998
 20
208.84949299999999
 11
116.20582
 21
208.86328800000001
  0
LINE
  8
_0-0_0
  6
CONTINUOUS
 62
    4
 10
116.20582
 20
208.86328800000001
 11
116.220926
 21
208.87779699999998
  0
LINE
  8
_0-0_0
  6
CONTINUOUS
 62
    4
 10
116.220926
 20
208.87779699999998
 11
116.233446
 21
208.89291
  0
LINE
  8
_0-0_0
  6
CONTINUOUS
 62
    4
 10
116.233446
 20
208.89291
 11
116.243283
 21
208.90851
  0
LINE
  8
_0-0_0
  6
CONTINUOUS
 62
    4
 10
116.243283
 20
208.90851
 11
116.250364
 21
208.92447899999999
  0
LINE
  8
_0-0_0
  6
CONTINUOUS
 62
    4
 10
116.250364
 20
208.92447899999999
 11
116.25463399999999
 21
208.940697
  0
LINE
  8
_0-0_0
  6
CONTINUOUS
 62
    4
 10
116.25463399999999
 20
208.940697
 11
116.256061
 21
208.95703800000001
  0
ENDBLK
  0
BLOCK
  2
-009-BLKF024_7
 70
   64
 10
0
 20
0
 30
0
  0
LINE
  8
_0-0_0
  6
CONTINUOUS
 62
    4
 10
125.409913
 20
196.25727900000001
 11
125.606013
 21
196.26156
  0
LINE
  8
_0-0_0
  6
CONTINUOUS
 62
    4
 10
125.606013
 20
196.26156
 11
125.800621
 21
196.27437
  0
LINE
  8
_0-0_0
  6
CONTINUOUS
 62
    4
 10
125.800621
 20
196.27437
 11
125.99225599999998
 21
196.295612
  0
LINE
  8
_0-0_0
  6
CONTINUOUS
 62
    4
 10
125.99225599999998
 20
196.295612
 11
126.17945799999999
 21
196.32512500000001
  0
LINE
  8
_0-0_0
  6
CONTINUOUS
 62
    4
 10
126.17945799999999
 20
196.32512500000001
 11
126.360804
 21
196.362683
  0
LINE
  8
_0-0_0
  6
CONTINUOUS
 62
    4
 10
126.360804
 20
196.362683
 11
126.534913
 21
196.40799999999998
  0
LINE
  8
_0-0_0
  6
CONTINUOUS
 62
    4
 10
126.534913
 20
196.40799999999998
 11
126.70046
 21
196.460733
  0
LINE
  8
_0-0_0
  6
CONTINUOUS
 62
    4
 10
126.70046
 20
196.460733
 11
126.85618499999999
 21
196.52047899999999
  0
LINE
  8
_0-0_0
  6
CONTINUOUS
 62
    4
 10
126.85618499999999
 20
196.52047899999999
 11
127.00090299999999
 21
196.58678399999999
  0
LINE
  8
_0-0_0
  6
CONTINUOUS
 62
    4
 10
127.00090299999999
 20
196.58678399999999
 11
127.13351299999999
 21
196.659143
  0
LINE
  8
_0-0_0
  6
CONTINUOUS
 62
    4
 10
127.13351299999999
 20
196.659143
 11
127.253005
 21
196.73700500000001
  0
LINE
  8
_0-0_0
  6
CONTINUOUS
 62
    4
 10
127.253005
 20
196.73700500000001
 11
127.35846999999999
 21
196.81977900000001
  0
LINE
  8
_0-0_0
  6
CONTINUOUS
 62
    4
 10
127.35846999999999
 20
196.81977900000001
 11
127.449105
 21
196.906833
  0
LINE
  8
_0-0_0
  6
CONTINUOUS
 62
    4
 10
127.449105
 20
196.906833
 11
127.52422099999998
 21
196.99750599999998
  0
LINE
  8
_0-0_0
  6
CONTINUOUS
 62
    4
 10
127.52422099999998
 20
196.99750599999998
 11
127.583246
 21
197.09110699999999
  0
LINE
  8
_0-0_0
  6
CONTINUOUS
 62
    4
 10
127.583246
 20
197.09110699999999
 11
127.62573
 21
197.186925
  0
LINE
  8
_0-0_0
  6
CONTINUOUS
 62
    4
 10
127.62573
 20
197.186925
 11
127.651351
 21
197.28422900000001
  0
LINE
  8
_0-0_0
  6
CONTINUOUS
 62
    4
 10
127.651351
 20
197.28422900000001
 11
127.659913
 21
197.38227900000001
  0
ENDBLK
  0
BLOCK
  2
-010-BLKF025_8
 70
   64
 10
0
 20
0
 30
0
  0
LINE
  8
_0-0_0
  6
CONTINUOUS
 62
    4
 10
125.409913
 20
196.58203800000001
 11
125.606013
 21
196.586319
  0
LINE
  8
_0-0_0
  6
CONTINUOUS
 62
    4
 10
125.606013
 20
196.586319
 11
125.800621
 21
196.59913
  0
LINE
  8
_0-0_0
  6
CONTINUOUS
 62
    4
 10
125.800621
 20
196.59913
 11
125.99225599999998
 21
196.620372
  0
LINE
  8
_0-0_0
  6
CONTINUOUS
 62
    4
 10
125.99225599999998
 20
196.620372
 11
126.17945799999999
 21
196.64988399999998
  0
LINE
  8
_0-0_0
  6
CONTINUOUS
 62
    4
 10
126.17945799999999
 20
196.64988399999998
 11
126.360804
 21
196.687442
  0
LINE
  8
_0-0_0
  6
CONTINUOUS
 62
    4
 10
126.360804
 20
196.687442
 11
126.534913
 21
196.73276000000001
  0
LINE
  8
_0-0_0
  6
CONTINUOUS
 62
    4
 10
126.534913
 20
196.73276000000001
 11
126.70046
 21
196.785492
  0
LINE
  8
_0-0_0
  6
CONTINUOUS
 62
    4
 10
126.70046
 20
196.785492
 11
126.85618499999999
 21
196.84523799999999
  0
LINE
  8
_0-0_0
  6
CONTINUOUS
 62
    4
 10
126.85618499999999
 20
196.84523799999999
 11
127.00090299999999
 21
196.91154299999999
  0
LINE
  8
_0-0_0
  6
CONTINUOUS
 62
    4
 10
127.00090299999999
 20
196.91154299999999
 11
127.13351299999999
 21
196.983902
  0
LINE
  8
_0-0_0
  6
CONTINUOUS
 62
    4
 10
127.13351299999999
 20
196.983902
 11
127.253005
 21
197.061765
  0
LINE
  8
_0-0_0
  6
CONTINUOUS
 62
    4
 10
127.253005
 20
197.061765
 11
127.35846999999999
 21
197.14453800000001
  0
LINE
  8
_0-0_0
  6
CONTINUOUS
 62
    4
 10
127.35846999999999
 20
197.14453800000001
 11
127.449105
 21
197.231593
  0
LINE
  8
_0-0_0
  6
CONTINUOUS
 62
    4
 10
127.449105
 20
197.231593
 11
127.52422099999998
 21
197.32226600000001
  0
LINE
  8
_0-0_0
  6
CONTINUOUS
 62
    4
 10
127.52422099999998
 20
197.32226600000001
 11
127.583246
 21
197.41586699999999
  0
LINE
  8
_0-0_0
  6
CONTINUOUS
 62
    4
 10
127.583246
 20
197.41586699999999
 11
127.62573
 21
197.511684
  0
LINE
  8
_0-0_0
  6
CONTINUOUS
 62
    4
 10
127.62573
 20
197.511684
 11
127.651351
 21
197.60898800000001
  0
LINE
  8
_0-0_0
  6
CONTINUOUS
 62
    4
 10
127.651351
 20
197.60898800000001
 11
127.659913
 21
197.70703800000001
  0
LINE
  8
_0-0_0
  6
CONTINUOUS
 62
    4
 10
127.659913
 20
197.70703800000001
 11
127.651351
 21
197.805089
  0
ENDBLK
  0
BLOCK
  2
-011-BLKF026_9
 70
   64
 10
0
 20
0
 30
0
  0
LINE
  8
_0-0_0
  6
CONTINUOUS
 62
    4
 10
123.519023
 20
199.76953800000001
 11
123.55170699999999
 21
199.77025199999999
  0
LINE
  8
_0-0_0
  6
CONTINUOUS
 62
    4
 10
123.55170699999999
 20
199.77025199999999
 11
123.584141
 21
199.772387
  0
LINE
  8
_0-0_0
  6
CONTINUOUS
 62
    4
 10
123.584141
 20
199.772387
 11
123.61608099999999
 21
199.77592699999999
  0
LINE
  8
_0-0_0
  6
CONTINUOUS
 62
    4
 10
123.61608099999999
 20
199.77592699999999
 11
123.647281
 21
199.78084599999999
  0
LINE
  8
_0-0_0
  6
CONTINUOUS
 62
    4
 10
123.647281
 20
199.78084599999999
 11
123.67750499999999
 21
199.78710599999999
  0
LINE
  8
_0-0_0
  6
CONTINUOUS
 62
    4
 10
123.67750499999999
 20
199.78710599999999
 11
123.706523
 21
199.79465899999999
  0
LINE
  8
_0-0_0
  6
CONTINUOUS
 62
    4
 10
123.706523
 20
199.79465899999999
 11
123.734115
 21
199.803447
  0
LINE
  8
_0-0_0
  6
CONTINUOUS
 62
    4
 10
123.734115
 20
199.803447
 11
123.760069
 21
199.81340499999998
  0
LINE
  8
_0-0_0
  6
CONTINUOUS
 62
    4
 10
123.760069
 20
199.81340499999998
 11
123.784188
 21
199.82445599999999
  0
LINE
  8
_0-0_0
  6
CONTINUOUS
 62
    4
 10
123.784188
 20
199.82445599999999
 11
123.80629
 21
199.83651599999998
  0
LINE
  8
_0-0_0
  6
CONTINUOUS
 62
    4
 10
123.80629
 20
199.83651599999998
 11
123.826205
 21
199.84949299999999
  0
LINE
  8
_0-0_0
  6
CONTINUOUS
 62
    4
 10
123.826205
 20
199.84949299999999
 11
123.843783
 21
199.86328800000001
  0
LINE
  8
_0-0_0
  6
CONTINUOUS
 62
    4
 10
123.843783
 20
199.86328800000001
 11
123.858889
 21
199.87779699999998
  0
LINE
  8
_0-0_0
  6
CONTINUOUS
 62
    4
 10
123.858889
 20
199.87779699999998
 11
123.871408
 21
199.89291
  0
LINE
  8
_0-0_0
  6
CONTINUOUS
 62
    4
 10
123.871408
 20
199.89291
 11
123.881246
 21
199.90851
  0
LINE
  8
_0-0_0
  6
CONTINUOUS
 62
    4
 10
123.881246
 20
199.90851
 11
123.888326
 21
199.92447899999999
  0
ENDBLK
  0
BLOCK
  2
-012-BLKF027_10
 70
   64
 10
0
 20
0
 30
0
  0
LINE
  8
_0-0_0
  6
CONTINUOUS
 62
    4
 10
127.592415
 20
187.25727900000001
 11
127.85388299999999
 21
187.262987
  0
LINE
  8
_0-0_0
  6
CONTINUOUS
 62
    4
 10
127.85388299999999
 20
187.262987
 11
128.11336
 21
187.280067
  0
LINE
  8
_0-0_0
  6
CONTINUOUS
 62
    4
 10
128.11336
 20
187.280067
 11
128.36887200000001
 21
187.30839
  0
LINE
  8
_0-0_0
  6
CONTINUOUS
 62
    4
 10
128.36887200000001
 20
187.30839
 11
128.61847599999998
 21
187.34773999999998
  0
LINE
  8
_0-0_0
  6
CONTINUOUS
 62
    4
 10
128.61847599999998
 20
187.34773999999998
 11
128.86027000000001
 21
187.397817
  0
LINE
  8
_0-0_0
  6
CONTINUOUS
 62
    4
 10
128.86027000000001
 20
187.397817
 11
129.09241499999998
 21
187.45824099999998
  0
LINE
  8
_0-0_0
  6
CONTINUOUS
 62
    4
 10
129.09241499999998
 20
187.45824099999998
 11
129.31314499999999
 21
187.52855099999999
  0
LINE
  8
_0-0_0
  6
CONTINUOUS
 62
    4
 10
129.31314499999999
 20
187.52855099999999
 11
129.520778
 21
187.608212
  0
LINE
  8
_0-0_0
  6
CONTINUOUS
 62
    4
 10
129.520778
 20
187.608212
 11
129.71373600000001
 21
187.69661899999999
  0
LINE
  8
_0-0_0
  6
CONTINUOUS
 62
    4
 10
129.71373600000001
 20
187.69661899999999
 11
129.89054899999999
 21
187.79309699999998
  0
LINE
  8
_0-0_0
  6
CONTINUOUS
 62
    4
 10
129.89054899999999
 20
187.79309699999998
 11
130.04987099999999
 21
187.896914
  0
LINE
  8
_0-0_0
  6
CONTINUOUS
 62
    4
 10
130.04987099999999
 20
187.896914
 11
130.190491
 21
188.00727900000001
  0
LINE
  8
_0-0_0
  6
CONTINUOUS
 62
    4
 10
130.190491
 20
188.00727900000001
 11
130.311339
 21
188.12335100000001
  0
LINE
  8
_0-0_0
  6
CONTINUOUS
 62
    4
 10
130.311339
 20
188.12335100000001
 11
130.411493
 21
188.24424899999999
  0
LINE
  8
_0-0_0
  6
CONTINUOUS
 62
    4
 10
130.411493
 20
188.24424899999999
 11
130.490193
 21
188.36904999999998
  0
LINE
  8
_0-0_0
  6
CONTINUOUS
 62
    4
 10
130.490193
 20
188.36904999999998
 11
130.51552499999999
 21
188.41985199999999
  0
ENDBLK
  0
BLOCK
  2
-013-BLKF028_11
 70
   64
 10
0
 20
0
 30
0
  0
LINE
  8
_0-0_0
  6
CONTINUOUS
 62
    4
 10
127.592415
 20
187.58203800000001
 11
127.85388299999999
 21
187.587746
  0
LINE
  8
_0-0_0
  6
CONTINUOUS
 62
    4
 10
127.85388299999999
 20
187.587746
 11
128.11336
 21
187.604827
  0
LINE
  8
_0-0_0
  6
CONTINUOUS
 62
    4
 10
128.11336
 20
187.604827
 11
128.36887200000001
 21
187.63315
  0
LINE
  8
_0-0_0
  6
CONTINUOUS
 62
    4
 10
128.36887200000001
 20
187.63315
 11
128.61847599999998
 21
187.6724989999999
  0
LINE
  8
_0-0_0
  6
CONTINUOUS
 62
    4
 10
128.61847599999998
 20
187.6724989999999
 11
128.86027000000001
 21
187.722577
  0
LINE
  8
_0-0_0
  6
CONTINUOUS
 62
    4
 10
128.86027000000001
 20
187.722577
 11
129.09241499999998
 21
187.78299999999998
  0
LINE
  8
_0-0_0
  6
CONTINUOUS
 62
    4
 10
129.09241499999998
 20
187.78299999999998
 11
129.31314499999999
 21
187.85330999999999
  0
LINE
  8
_0-0_0
  6
CONTINUOUS
 62
    4
 10
129.31314499999999
 20
187.85330999999999
 11
129.520778
 21
187.932972
  0
LINE
  8
_0-0_0
  6
CONTINUOUS
 62
    4
 10
129.520778
 20
187.932972
 11
129.71373600000001
 21
188.02137799999999
  0
LINE
  8
_0-0_0
  6
CONTINUOUS
 62
    4
 10
129.71373600000001
 20
188.02137799999999
 11
129.89054899999999
 21
188.11785699999998
  0
LINE
  8
_0-0_0
  6
CONTINUOUS
 62
    4
 10
129.89054899999999
 20
188.11785699999998
 11
130.04987099999999
 21
188.221674
  0
LINE
  8
_0-0_0
  6
CONTINUOUS
 62
    4
 10
130.04987099999999
 20
188.221674
 11
130.190491
 21
188.33203800000001
  0
LINE
  8
_0-0_0
  6
CONTINUOUS
 62
    4
 10
130.190491
 20
188.33203800000001
 11
130.311339
 21
188.44811100000001
  0
LINE
  8
_0-0_0
  6
CONTINUOUS
 62
    4
 10
130.311339
 20
188.44811100000001
 11
130.411493
 21
188.56900799999999
  0
LINE
  8
_0-0_0
  6
CONTINUOUS
 62
    4
 10
130.411493
 20
188.56900799999999
 11
130.490193
 21
188.69381000000001
  0
LINE
  8
_0-0_0
  6
CONTINUOUS
 62
    4
 10
130.490193
 20
188.69381000000001
 11
130.51552499999999
 21
188.74461199999998
  0
ENDBLK
  0
BLOCK
  2
-014-BLKF029_12
 70
   64
 10
0
 20
0
 30
0
  0
LINE
  8
_0-0_0
  6
CONTINUOUS
 62
    4
 10
127.655415
 20
190.76953800000001
 11
127.70117199999998
 21
190.77053699999999
  0
LINE
  8
_0-0_0
  6
CONTINUOUS
 62
    4
 10
127.70117199999998
 20
190.77053699999999
 11
127.746581
 21
190.773526
  0
LINE
  8
_0-0_0
  6
CONTINUOUS
 62
    4
 10
127.746581
 20
190.773526
 11
127.791295
 21
190.77848299999999
  0
LINE
  8
_0-0_0
  6
CONTINUOUS
 62
    4
 10
127.791295
 20
190.77848299999999
 11
127.83497599999998
 21
190.785369
  0
LINE
  8
_0-0_0
  6
CONTINUOUS
 62
    4
 10
127.83497599999998
 20
190.785369
 11
127.87729
 21
190.79413299999998
  0
LINE
  8
_0-0_0
  6
CONTINUOUS
 62
    4
 10
127.87729
 20
190.79413299999998
 11
127.91791499999999
 21
190.804707
  0
LINE
  8
_0-0_0
  6
CONTINUOUS
 62
    4
 10
127.91791499999999
 20
190.804707
 11
127.95654299999999
 21
190.817011
  0
LINE
  8
_0-0_0
  6
CONTINUOUS
 62
    4
 10
127.95654299999999
 20
190.817011
 11
127.992879
 21
190.83095199999999
  0
LINE
  8
_0-0_0
  6
CONTINUOUS
 62
    4
 10
127.992879
 20
190.83095199999999
 11
128.02664599999999
 21
190.84642299999998
  0
LINE
  8
_0-0_0
  6
CONTINUOUS
 62
    4
 10
128.02664599999999
 20
190.84642299999998
 11
128.057589
 21
190.86330699999999
  0
LINE
  8
_0-0_0
  6
CONTINUOUS
 62
    4
 10
128.057589
 20
190.86330699999999
 11
128.08546999999998
 21
190.88147399999999
  0
LINE
  8
_0-0_0
  6
CONTINUOUS
 62
    4
 10
128.08546999999998
 20
190.88147399999999
 11
128.11007900000001
 21
190.900788
  0
LINE
  8
_0-0_0
  6
CONTINUOUS
 62
    4
 10
128.11007900000001
 20
190.900788
 11
128.13122699999999
 21
190.92110099999999
  0
LINE
  8
_0-0_0
  6
CONTINUOUS
 62
    4
 10
128.13122699999999
 20
190.92110099999999
 11
128.13867999999999
 21
190.929471
  0
ENDBLK
  0
BLOCK
  2
-015-BLKF030_13
 70
   64
 10
0
 20
0
 30
0
  0
LINE
  8
_0-0_0
  6
CONTINUOUS
 62
    4
 10
127.828252
 20
178.25727900000001
 11
128.15508600000001
 21
178.26441399999998
  0
LINE
  8
_0-0_0
  6
CONTINUOUS
 62
    4
 10
128.15508600000001
 20
178.26441399999998
 11
128.479433
 21
178.285764
  0
LINE
  8
_0-0_0
  6
CONTINUOUS
 62
    4
 10
128.479433
 20
178.285764
 11
128.79882399999999
 21
178.321168
  0
LINE
  8
_0-0_0
  6
CONTINUOUS
 62
    4
 10
128.79882399999999
 20
178.321168
 11
129.11082799999999
 21
178.37035499999998
  0
LINE
  8
_0-0_0
  6
CONTINUOUS
 62
    4
 10
129.11082799999999
 20
178.37035499999998
 11
129.413071
 21
178.432952
  0
LINE
  8
_0-0_0
  6
CONTINUOUS
 62
    4
 10
129.413071
 20
178.432952
 11
129.70325199999999
 21
178.50848099999998
  0
LINE
  8
_0-0_0
  6
CONTINUOUS
 62
    4
 10
129.70325199999999
 20
178.50848099999998
 11
129.97916399999999
 21
178.596369
  0
LINE
  8
_0-0_0
  6
CONTINUOUS
 62
    4
 10
129.97916399999999
 20
178.596369
 11
130.238706
 21
178.69594499999999
  0
LINE
  8
_0-0_0
  6
CONTINUOUS
 62
    4
 10
130.238706
 20
178.69594499999999
 11
130.479903
 21
178.806454
  0
LINE
  8
_0-0_0
  6
CONTINUOUS
 62
    4
 10
130.479903
 20
178.806454
 11
130.70091899999999
 21
178.927052
  0
LINE
  8
_0-0_0
  6
CONTINUOUS
 62
    4
 10
130.70091899999999
 20
178.927052
 11
130.90007199999999
 21
179.056823
  0
LINE
  8
_0-0_0
  6
CONTINUOUS
 62
    4
 10
130.90007199999999
 20
179.056823
 11
131.07584700000001
 21
179.19477900000001
  0
LINE
  8
_0-0_0
  6
CONTINUOUS
 62
    4
 10
131.07584700000001
 20
179.19477900000001
 11
131.22690600000001
 21
179.33986999999999
  0
LINE
  8
_0-0_0
  6
CONTINUOUS
 62
    4
 10
131.22690600000001
 20
179.33986999999999
 11
131.280145
 21
179.39965799999998
  0
ENDBLK
  0
BLOCK
  2
-016-BLKF031_14
 70
   64
 10
0
 20
0
 30
0
  0
LINE
  8
_0-0_0
  6
CONTINUOUS
 62
    4
 10
127.828252
 20
178.58203800000001
 11
128.15508600000001
 21
178.58917299999998
  0
LINE
  8
_0-0_0
  6
CONTINUOUS
 62
    4
 10
128.15508600000001
 20
178.58917299999998
 11
128.479433
 21
178.61052399999999
  0
LINE
  8
_0-0_0
  6
CONTINUOUS
 62
    4
 10
128.479433
 20
178.61052399999999
 11
128.79882399999999
 21
178.645927
  0
LINE
  8
_0-0_0
  6
CONTINUOUS
 62
    4
 10
128.79882399999999
 20
178.645927
 11
129.11082799999999
 21
178.69511499999998
  0
LINE
  8
_0-0_0
  6
CONTINUOUS
 62
    4
 10
129.11082799999999
 20
178.69511499999998
 11
129.413071
 21
178.757711
  0
LINE
  8
_0-0_0
  6
CONTINUOUS
 62
    4
 10
129.413071
 20
178.757711
 11
129.70325199999999
 21
178.83324099999998
  0
LINE
  8
_0-0_0
  6
CONTINUOUS
 62
    4
 10
129.70325199999999
 20
178.83324099999998
 11
129.97916399999999
 21
178.92112800000001
  0
LINE
  8
_0-0_0
  6
CONTINUOUS
 62
    4
 10
129.97916399999999
 20
178.92112800000001
 11
130.238706
 21
179.02070499999999
  0
LINE
  8
_0-0_0
  6
CONTINUOUS
 62
    4
 10
130.238706
 20
179.02070499999999
 11
130.479903
 21
179.131213
  0
LINE
  8
_0-0_0
  6
CONTINUOUS
 62
    4
 10
130.479903
 20
179.131213
 11
130.70091899999999
 21
179.251812
  0
LINE
  8
_0-0_0
  6
CONTINUOUS
 62
    4
 10
130.70091899999999
 20
179.251812
 11
130.90007199999999
 21
179.381582
  0
LINE
  8
_0-0_0
  6
CONTINUOUS
 62
    4
 10
130.90007199999999
 20
179.381582
 11
131.07584700000001
 21
179.51953800000001
  0
LINE
  8
_0-0_0
  6
CONTINUOUS
 62
    4
 10
131.07584700000001
 20
179.51953800000001
 11
131.22690600000001
 21
179.66462899999999
  0
LINE
  8
_0-0_0
  6
CONTINUOUS
 62
    4
 10
131.22690600000001
 20
179.66462899999999
 11
131.280145
 21
179.72441699999998
  0
ENDBLK
  0
BLOCK
  2
-017-BLKF032_15
 70
   64
 10
0
 20
0
 30
0
  0
LINE
  8
_0-0_0
  6
CONTINUOUS
 62
    4
 10
129.13613499999999
 20
181.76953800000001
 11
129.201502
 21
181.77096499999998
  0
LINE
  8
_0-0_0
  6
CONTINUOUS
 62
    4
 10
129.201502
 20
181.77096499999998
 11
129.26637099999999
 21
181.775235
  0
LINE
  8
_0-0_0
  6
CONTINUOUS
 62
    4
 10
129.26637099999999
 20
181.775235
 11
129.330249
 21
181.782316
  0
LINE
  8
_0-0_0
  6
CONTINUOUS
 62
    4
 10
129.330249
 20
181.782316
 11
129.39265
 21
181.79215400000001
  0
LINE
  8
_0-0_0
  6
CONTINUOUS
 62
    4
 10
129.39265
 20
181.79215400000001
 11
129.453099
 21
181.804673
  0
LINE
  8
_0-0_0
  6
CONTINUOUS
 62
    4
 10
129.453099
 20
181.804673
 11
129.51113499999999
 21
181.81977900000001
  0
LINE
  8
_0-0_0
  6
CONTINUOUS
 62
    4
 10
129.51113499999999
 20
181.81977900000001
 11
129.56631699999999
 21
181.83735599999999
  0
LINE
  8
_0-0_0
  6
CONTINUOUS
 62
    4
 10
129.56631699999999
 20
181.83735599999999
 11
129.61822599999999
 21
181.85727199999999
  0
LINE
  8
_0-0_0
  6
CONTINUOUS
 62
    4
 10
129.61822599999999
 20
181.85727199999999
 11
129.66646499999998
 21
181.87937299999998
  0
LINE
  8
_0-0_0
  6
CONTINUOUS
 62
    4
 10
129.66646499999998
 20
181.87937299999998
 11
129.71066799999999
 21
181.90349299999999
  0
ENDBLK
  0
BLOCK
  2
-018-BLKF033_16
 70
   64
 10
0
 20
0
 30
0
  0
LINE
  8
_0-0_0
  6
CONTINUOUS
 62
    4
 10
125.71591899999998
 20
169.25727900000001
 11
126.17348699999999
 21
169.267268
  0
LINE
  8
_0-0_0
  6
CONTINUOUS
 62
    4
 10
126.17348699999999
 20
169.267268
 11
126.627572
 21
169.29715799999999
  0
LINE
  8
_0-0_0
  6
CONTINUOUS
 62
    4
 10
126.627572
 20
169.29715799999999
 11
127.074719
 21
169.34672299999999
  0
LINE
  8
_0-0_0
  6
CONTINUOUS
 62
    4
 10
127.074719
 20
169.34672299999999
 11
127.511525
 21
169.41558599999999
  0
LINE
  8
_0-0_0
  6
CONTINUOUS
 62
    4
 10
127.511525
 20
169.41558599999999
 11
127.93466499999999
 21
169.50322099999999
  0
LINE
  8
_0-0_0
  6
CONTINUOUS
 62
    4
 10
127.93466499999999
 20
169.50322099999999
 11
128.34091900000001
 21
169.60896199999999
  0
LINE
  8
_0-0_0
  6
CONTINUOUS
 62
    4
 10
128.34091900000001
 20
169.60896199999999
 11
128.72719499999999
 21
169.73200499999998
  0
LINE
  8
_0-0_0
  6
CONTINUOUS
 62
    4
 10
128.72719499999999
 20
169.73200499999998
 11
129.09055399999999
 21
169.87141199999999
  0
LINE
  8
_0-0_0
  6
CONTINUOUS
 62
    4
 10
129.09055399999999
 20
169.87141199999999
 11
129.42823000000001
 21
170.02612300000001
  0
LINE
  8
_0-0_0
  6
CONTINUOUS
 62
    4
 10
129.42823000000001
 20
170.02612300000001
 11
129.73765199999999
 21
170.194961
  0
LINE
  8
_0-0_0
  6
CONTINUOUS
 62
    4
 10
129.73765199999999
 20
170.194961
 11
130.016467
 21
170.376641
  0
LINE
  8
_0-0_0
  6
CONTINUOUS
 62
    4
 10
130.016467
 20
170.376641
 11
130.16817199999999
 21
170.491241
  0
ENDBLK
  0
BLOCK
  2
-019-BLKF034_17
 70
   64
 10
0
 20
0
 30
0
  0
LINE
  8
_0-0_0
  6
CONTINUOUS
 62
    4
 10
125.71591899999998
 20
169.58203800000001
 11
126.17348699999999
 21
169.592027
  0
LINE
  8
_0-0_0
  6
CONTINUOUS
 62
    4
 10
126.17348699999999
 20
169.592027
 11
126.627572
 21
169.62191799999999
  0
LINE
  8
_0-0_0
  6
CONTINUOUS
 62
    4
 10
126.627572
 20
169.62191799999999
 11
127.074719
 21
169.67148299999999
  0
LINE
  8
_0-0_0
  6
CONTINUOUS
 62
    4
 10
127.074719
 20
169.67148299999999
 11
127.511525
 21
169.74034499999999
  0
LINE
  8
_0-0_0
  6
CONTINUOUS
 62
    4
 10
127.511525
 20
169.74034499999999
 11
127.93466499999999
 21
169.82797999999999
  0
LINE
  8
_0-0_0
  6
CONTINUOUS
 62
    4
 10
127.93466499999999
 20
169.82797999999999
 11
128.34091900000001
 21
169.93372199999998
  0
LINE
  8
_0-0_0
  6
CONTINUOUS
 62
    4
 10
128.34091900000001
 20
169.93372199999998
 11
128.72719499999999
 21
170.05676399999998
  0
LINE
  8
_0-0_0
  6
CONTINUOUS
 62
    4
 10
128.72719499999999
 20
170.05676399999998
 11
129.09055399999999
 21
170.19617199999999
  0
LINE
  8
_0-0_0
  6
CONTINUOUS
 62
    4
 10
129.09055399999999
 20
170.19617199999999
 11
129.42823000000001
 21
170.35088300000001
  0
LINE
  8
_0-0_0
  6
CONTINUOUS
 62
    4
 10
129.42823000000001
 20
170.35088300000001
 11
129.73765199999999
 21
170.519721
  0
LINE
  8
_0-0_0
  6
CONTINUOUS
 62
    4
 10
129.73765199999999
 20
170.519721
 11
130.016467
 21
170.7014
  0
LINE
  8
_0-0_0
  6
CONTINUOUS
 62
    4
 10
130.016467
 20
170.7014
 11
130.16817199999999
 21
170.816
  0
ENDBLK
  0
BLOCK
  2
-020-BLKF035_18
 70
   64
 10
0
 20
0
 30
0
  0
LINE
  8
_0-0_0
  6
CONTINUOUS
 62
    4
 10
128.69442900000001
 20
172.76953800000001
 11
128.77286899999998
 21
172.771251
  0
LINE
  8
_0-0_0
  6
CONTINUOUS
 62
    4
 10
128.77286899999998
 20
172.771251
 11
128.85071199999998
 21
172.776375
  0
LINE
  8
_0-0_0
  6
CONTINUOUS
 62
    4
 10
128.85071199999998
 20
172.776375
 11
128.927366
 21
172.784872
  0
LINE
  8
_0-0_0
  6
CONTINUOUS
 62
    4
 10
128.927366
 20
172.784872
 11
129.00224700000001
 21
172.79667699999998
  0
LINE
  8
_0-0_0
  6
CONTINUOUS
 62
    4
 10
129.00224700000001
 20
172.79667699999998
 11
129.07478499999999
 21
172.8117
  0
LINE
  8
_0-0_0
  6
CONTINUOUS
 62
    4
 10
129.07478499999999
 20
172.8117
 11
129.144429
 21
172.82982699999999
  0
LINE
  8
_0-0_0
  6
CONTINUOUS
 62
    4
 10
129.144429
 20
172.82982699999999
 11
129.21064799999999
 21
172.85092
  0
LINE
  8
_0-0_0
  6
CONTINUOUS
 62
    4
 10
129.21064799999999
 20
172.85092
 11
129.27293800000001
 21
172.874818
  0
ENDBLK
  0
BLOCK
  2
-021-BLKF036_19
 70
   64
 10
0
 20
0
 30
0
  0
LINE
  8
_0-0_0
  6
CONTINUOUS
 62
    4
 10
120.62591199999998
 20
160.25727900000001
 11
121.27957999999999
 21
160.27154899999999
  0
LINE
  8
_0-0_0
  6
CONTINUOUS
 62
    4
 10
121.27957999999999
 20
160.27154899999999
 11
121.928274
 21
160.31424999999998
  0
LINE
  8
_0-0_0
  6
CONTINUOUS
 62
    4
 10
121.928274
 20
160.31424999999998
 11
122.56705499999999
 21
160.38505699999998
  0
LINE
  8
_0-0_0
  6
CONTINUOUS
 62
    4
 10
122.56705499999999
 20
160.38505699999998
 11
123.19106299999998
 21
160.48343099999999
  0
LINE
  8
_0-0_0
  6
CONTINUOUS
 62
    4
 10
123.19106299999998
 20
160.48343099999999
 11
123.79554899999999
 21
160.60862499999998
  0
LINE
  8
_0-0_0
  6
CONTINUOUS
 62
    4
 10
123.79554899999999
 20
160.60862499999998
 11
124.37591199999998
 21
160.75968399999999
  0
LINE
  8
_0-0_0
  6
CONTINUOUS
 62
    4
 10
124.37591199999998
 20
160.75968399999999
 11
124.92773599999999
 21
160.935459
  0
LINE
  8
_0-0_0
  6
CONTINUOUS
 62
    4
 10
124.92773599999999
 20
160.935459
 11
125.446819
 21
161.134612
  0
LINE
  8
_0-0_0
  6
CONTINUOUS
 62
    4
 10
125.446819
 20
161.134612
 11
125.929213
 21
161.35562799999999
  0
LINE
  8
_0-0_0
  6
CONTINUOUS
 62
    4
 10
125.929213
 20
161.35562799999999
 11
126.02096099999998
 21
161.40230999999999
  0
ENDBLK
  0
BLOCK
  2
-022-BLKF037_20
 70
   64
 10
0
 20
0
 30
0
  0
LINE
  8
_0-0_0
  6
CONTINUOUS
 62
    4
 10
120.62591199999998
 20
160.58203800000001
 11
121.27957999999999
 21
160.59630799999999
  0
LINE
  8
_0-0_0
  6
CONTINUOUS
 62
    4
 10
121.27957999999999
 20
160.59630799999999
 11
121.928274
 21
160.63900899999998
  0
LINE
  8
_0-0_0
  6
CONTINUOUS
 62
    4
 10
121.928274
 20
160.63900899999998
 11
122.56705499999999
 21
160.70981599999998
  0
LINE
  8
_0-0_0
  6
CONTINUOUS
 62
    4
 10
122.56705499999999
 20
160.70981599999998
 11
123.19106299999998
 21
160.80819099999999
  0
LINE
  8
_0-0_0
  6
CONTINUOUS
 62
    4
 10
123.19106299999998
 20
160.80819099999999
 11
123.79554899999999
 21
160.93338399999998
  0
LINE
  8
_0-0_0
  6
CONTINUOUS
 62
    4
 10
123.79554899999999
 20
160.93338399999998
 11
124.37591199999998
 21
161.08444299999999
  0
LINE
  8
_0-0_0
  6
CONTINUOUS
 62
    4
 10
124.37591199999998
 20
161.08444299999999
 11
124.92773599999999
 21
161.260218
  0
LINE
  8
_0-0_0
  6
CONTINUOUS
 62
    4
 10
124.92773599999999
 20
161.260218
 11
125.446819
 21
161.459372
  0
LINE
  8
_0-0_0
  6
CONTINUOUS
 62
    4
 10
125.446819
 20
161.459372
 11
125.929213
 21
161.68038799999999
  0
LINE
  8
_0-0_0
  6
CONTINUOUS
 62
    4
 10
125.929213
 20
161.68038799999999
 11
126.02096099999998
 21
161.727069
  0
ENDBLK
  0
BLOCK
  2
-023-BLKF038_21
 70
   64
 10
0
 20
0
 30
0
  0
LINE
  8
_0-0_0
  6
CONTINUOUS
 62
    4
 10
126.062606
 20
163.76953800000001
 11
126.160656
 21
163.771679
  0
LINE
  8
_0-0_0
  6
CONTINUOUS
 62
    4
 10
126.160656
 20
163.771679
 11
126.25795999999999
 21
163.778084
  0
LINE
  8
_0-0_0
  6
CONTINUOUS
 62
    4
 10
126.25795999999999
 20
163.778084
 11
126.35377699999999
 21
163.78870499999999
  0
LINE
  8
_0-0_0
  6
CONTINUOUS
 62
    4
 10
126.35377699999999
 20
163.78870499999999
 11
126.44737899999998
 21
163.80346099999999
  0
LINE
  8
_0-0_0
  6
CONTINUOUS
 62
    4
 10
126.44737899999998
 20
163.80346099999999
 11
126.53805199999999
 21
163.82223999999999
  0
LINE
  8
_0-0_0
  6
CONTINUOUS
 62
    4
 10
126.53805199999999
 20
163.82223999999999
 11
126.625106
 21
163.84489899999999
  0
LINE
  8
_0-0_0
  6
CONTINUOUS
 62
    4
 10
126.625106
 20
163.84489899999999
 11
126.707879
 21
163.87126499999999
  0
ENDBLK
  0
BLOCK
  2
-024-BLKF039_22
 70
   64
 10
0
 20
0
 30
0
  0
LINE
  8
_0-0_0
  6
CONTINUOUS
 62
    4
 10
109.40005899999998
 20
151.25727900000001
 11
111.03422899999999
 21
151.29295300000001
  0
LINE
  8
_0-0_0
  6
CONTINUOUS
 62
    4
 10
111.03422899999999
 20
151.29295300000001
 11
112.65596299999998
 21
151.399706
  0
LINE
  8
_0-0_0
  6
CONTINUOUS
 62
    4
 10
112.65596299999998
 20
151.399706
 11
114.25291599999998
 21
151.57672400000001
  0
LINE
  8
_0-0_0
  6
CONTINUOUS
 62
    4
 10
114.25291599999998
 20
151.57672400000001
 11
115.812937
 21
151.82266000000001
  0
LINE
  8
_0-0_0
  6
CONTINUOUS
 62
    4
 10
115.812937
 20
151.82266000000001
 11
117.32415199999998
 21
152.13564299999998
  0
LINE
  8
_0-0_0
  6
CONTINUOUS
 62
    4
 10
117.32415199999998
 20
152.13564299999998
 11
118.77505899999998
 21
152.513291
  0
LINE
  8
_0-0_0
  6
CONTINUOUS
 62
    4
 10
118.77505899999998
 20
152.513291
 11
119.88492599999999
 21
152.86005199999999
  0
ENDBLK
  0
BLOCK
  2
-025-BLKF040_23
 70
   64
 10
0
 20
0
 30
0
  0
LINE
  8
_0-0_0
  6
CONTINUOUS
 62
    4
 10
109.40005899999998
 20
151.58203800000001
 11
111.03422899999999
 21
151.617713
  0
LINE
  8
_0-0_0
  6
CONTINUOUS
 62
    4
 10
111.03422899999999
 20
151.617713
 11
112.65596299999998
 21
151.724466
  0
LINE
  8
_0-0_0
  6
CONTINUOUS
 62
    4
 10
112.65596299999998
 20
151.724466
 11
114.25291599999998
 21
151.90148400000001
  0
LINE
  8
_0-0_0
  6
CONTINUOUS
 62
    4
 10
114.25291599999998
 20
151.90148400000001
 11
115.812937
 21
152.14742000000001
  0
LINE
  8
_0-0_0
  6
CONTINUOUS
 62
    4
 10
115.812937
 20
152.14742000000001
 11
117.32415199999998
 21
152.46040300000001
  0
LINE
  8
_0-0_0
  6
CONTINUOUS
 62
    4
 10
117.32415199999998
 20
152.46040300000001
 11
118.77505899999998
 21
152.83805
  0
LINE
  8
_0-0_0
  6
CONTINUOUS
 62
    4
 10
118.77505899999998
 20
152.83805
 11
119.88492599999999
 21
153.18481099999999
  0
ENDBLK
  0
BLOCK
  2
-026-BLKF041_24
 70
   64
 10
0
 20
0
 30
0
  0
LINE
  8
_0-0_0
  6
CONTINUOUS
 62
    4
 10
120.77756399999998
 20
154.76953800000001
 11
120.89522499999999
 21
154.772107
  0
LINE
  8
_0-0_0
  6
CONTINUOUS
 62
    4
 10
120.89522499999999
 20
154.772107
 11
121.01198899999998
 21
154.77979300000001
  0
LINE
  8
_0-0_0
  6
CONTINUOUS
 62
    4
 10
121.01198899999998
 20
154.77979300000001
 11
121.12697
 21
154.792538
  0
LINE
  8
_0-0_0
  6
CONTINUOUS
 62
    4
 10
121.12697
 20
154.792538
 11
121.239292
 21
154.810246
  0
LINE
  8
_0-0_0
  6
CONTINUOUS
 62
    4
 10
121.239292
 20
154.810246
 11
121.348099
 21
154.83278100000001
  0
LINE
  8
_0-0_0
  6
CONTINUOUS
 62
    4
 10
121.348099
 20
154.83278100000001
 11
121.45256399999999
 21
154.859971
  0
LINE
  8
_0-0_0
  6
CONTINUOUS
 62
    4
 10
121.45256399999999
 20
154.859971
 11
121.49295499999999
 21
154.872106
  0
ENDBLK
  0
BLOCK
  2
-027-BLKF042_25
 70
   64
 10
0
 20
0
 30
0
  0
LINE
  8
_0-0_0
  6
CONTINUOUS
 62
    4
 10
93.728244000000003
 20
142.58203800000001
 11
97.192683999999999
 21
142.65766899999999
  0
LINE
  8
_0-0_0
  6
CONTINUOUS
 62
    4
 10
97.192683999999999
 20
142.65766899999999
 11
100.63075899999998
 21
142.88398399999999
  0
LINE
  8
_0-0_0
  6
CONTINUOUS
 62
    4
 10
100.63075899999998
 20
142.88398399999999
 11
104.01630099999998
 21
143.259263
  0
LINE
  8
_0-0_0
  6
CONTINUOUS
 62
    4
 10
104.01630099999998
 20
143.259263
 11
107.32354399999998
 21
143.78064699999998
  0
LINE
  8
_0-0_0
  6
CONTINUOUS
 62
    4
 10
107.32354399999998
 20
143.78064699999998
 11
110.52732
 21
144.44417100000001
  0
LINE
  8
_0-0_0
  6
CONTINUOUS
 62
    4
 10
110.52732
 20
144.44417100000001
 11
113.603244
 21
145.24478300000001
  0
LINE
  8
_0-0_0
  6
CONTINUOUS
 62
    4
 10
113.603244
 20
145.24478300000001
 11
115.888176
 21
145.957039
  0
ENDBLK
  0
BLOCK
  2
-028-BLKF043_26
 70
   64
 10
0
 20
0
 30
0
  0
LINE
  8
_0-0_0
  6
CONTINUOUS
 62
    4
 10
93.728244000000003
 20
142.25727900000001
 11
97.192683999999999
 21
142.332909
  0
LINE
  8
_0-0_0
  6
CONTINUOUS
 62
    4
 10
97.192683999999999
 20
142.332909
 11
100.63075899999998
 21
142.55922499999999
  0
LINE
  8
_0-0_0
  6
CONTINUOUS
 62
    4
 10
100.63075899999998
 20
142.55922499999999
 11
104.01630099999998
 21
142.934503
  0
LINE
  8
_0-0_0
  6
CONTINUOUS
 62
    4
 10
104.01630099999998
 20
142.934503
 11
107.32354399999998
 21
143.45588799999998
  0
LINE
  8
_0-0_0
  6
CONTINUOUS
 62
    4
 10
107.32354399999998
 20
143.45588799999998
 11
110.52732
 21
144.11941200000001
  0
LINE
  8
_0-0_0
  6
CONTINUOUS
 62
    4
 10
110.52732
 20
144.11941200000001
 11
113.603244
 21
144.92002400000001
  0
LINE
  8
_0-0_0
  6
CONTINUOUS
 62
    4
 10
113.603244
 20
144.92002400000001
 11
115.888176
 21
145.63228
  0
ENDBLK
  0
BLOCK
  2
-029-BLKF044_27
 70
   64
 10
0
 20
0
 30
0
  0
LINE
  8
_0-0_0
  6
CONTINUOUS
 62
    4
 10
111.398007
 20
145.76953800000001
 11
111.52874099999999
 21
145.77239199999999
  0
LINE
  8
_0-0_0
  6
CONTINUOUS
 62
    4
 10
111.52874099999999
 20
145.77239199999999
 11
111.65847999999998
 21
145.780932
  0
LINE
  8
_0-0_0
  6
CONTINUOUS
 62
    4
 10
111.65847999999998
 20
145.780932
 11
111.786236
 21
145.795094
  0
LINE
  8
_0-0_0
  6
CONTINUOUS
 62
    4
 10
111.786236
 20
145.795094
 11
111.911038
 21
145.81476900000001
  0
LINE
  8
_0-0_0
  6
CONTINUOUS
 62
    4
 10
111.911038
 20
145.81476900000001
 11
112.031935
 21
145.839807
  0
LINE
  8
_0-0_0
  6
CONTINUOUS
 62
    4
 10
112.031935
 20
145.839807
 11
112.055564
 21
145.84544299999998
  0
ENDBLK
  0
BLOCK
  2
-030-BLKF018_35
 70
   64
 10
0
 20
0
 30
0
  0
LINE
  8
_0-3_0-10
  6
CONTINUOUS
 62
    4
 10
111.728244
 20
214.25727900000001
 11
111.85897699999999
 21
214.26013299999999
  0
LINE
  8
_0-3_0-10
  6
CONTINUOUS
 62
    4
 10
111.85897699999999
 20
214.26013299999999
 11
111.98871599999999
 21
214.268673
  0
LINE
  8
_0-3_0-10
  6
CONTINUOUS
 62
    4
 10
111.98871599999999
 20
214.268673
 11
112.116472
 21
214.282834
  0
LINE
  8
_0-3_0-10
  6
CONTINUOUS
 62
    4
 10
112.116472
 20
214.282834
 11
112.241274
 21
214.30250899999998
  0
LINE
  8
_0-3_0-10
  6
CONTINUOUS
 62
    4
 10
112.241274
 20
214.30250899999998
 11
112.362171
 21
214.327548
  0
LINE
  8
_0-3_0-10
  6
CONTINUOUS
 62
    4
 10
112.362171
 20
214.327548
 11
112.478244
 21
214.35776000000001
  0
LINE
  8
_0-3_0-10
  6
CONTINUOUS
 62
    4
 10
112.478244
 20
214.35776000000001
 11
112.58860799999999
 21
214.39291499999998
  0
LINE
  8
_0-3_0-10
  6
CONTINUOUS
 62
    4
 10
112.58860799999999
 20
214.39291499999998
 11
112.692425
 21
214.43274500000001
  0
LINE
  8
_0-3_0-10
  6
CONTINUOUS
 62
    4
 10
112.692425
 20
214.43274500000001
 11
112.788904
 21
214.47694899999999
  0
LINE
  8
_0-3_0-10
  6
CONTINUOUS
 62
    4
 10
112.788904
 20
214.47694899999999
 11
112.87730999999999
 21
214.52518800000001
  0
LINE
  8
_0-3_0-10
  6
CONTINUOUS
 62
    4
 10
112.87730999999999
 20
214.52518800000001
 11
112.95697199999999
 21
214.57709600000001
  0
LINE
  8
_0-3_0-10
  6
CONTINUOUS
 62
    4
 10
112.95697199999999
 20
214.57709600000001
 11
113.02728199999998
 21
214.63227900000001
  0
LINE
  8
_0-3_0-10
  6
CONTINUOUS
 62
    4
 10
113.02728199999998
 20
214.63227900000001
 11
113.08770499999998
 21
214.69031499999999
  0
LINE
  8
_0-3_0-10
  6
CONTINUOUS
 62
    4
 10
113.08770499999998
 20
214.69031499999999
 11
113.13778299999998
 21
214.750764
  0
LINE
  8
_0-3_0-10
  6
CONTINUOUS
 62
    4
 10
113.13778299999998
 20
214.750764
 11
113.177132
 21
214.813164
  0
LINE
  8
_0-3_0-10
  6
CONTINUOUS
 62
    4
 10
113.177132
 20
214.813164
 11
113.205455
 21
214.87704299999998
  0
LINE
  8
_0-3_0-10
  6
CONTINUOUS
 62
    4
 10
113.205455
 20
214.87704299999998
 11
113.222536
 21
214.941912
  0
LINE
  8
_0-3_0-10
  6
CONTINUOUS
 62
    4
 10
113.222536
 20
214.941912
 11
113.228244
 21
215.00727900000001
  0
ENDBLK
  0
BLOCK
  2
-031-_D31
 70
   64
 10
0
 20
0
 30
0
  0
LINE
  8
_0-0_0
  6
CONTINUOUS
 62
    7
 10
470.13887737658779
 20
256.4999993084931
 11
502.19313070992467
 21
256.4999993084931
  0
LINE
  8
_0-0_0
  6
CONTINUOUS
 62
    7
 10
470.13887737658779
 20
111.4999993084976
 11
502.19313070992478
 21
111.4999993084977
  0
LINE
  8
_0-0_0
  6
CONTINUOUS
 62
    7
 10
501.19313070992467
 20
253.4999993084931
 11
501.19313070992478
 21
114.4999993084977
  0
INSERT
  2
-002-EDTIP_ARROW_S
  8
_0-0_0
 10
501.19313070992467
 20
256.4999993084931
 41
3
 42
3
 50
90
  0
INSERT
  2
-003-EDTIP_ARROW_E
  8
_0-0_0
 10
501.19313070992478
 20
111.4999993084977
 41
3
 42
3
 50
270
  0
TEXT
  8
_0-0_0
 62
    7
 10
500.69313070992467
 20
181.7499993084952
 40
3
 41
1
 50
90
  1
145
  0
POINT
  8
_0-5__0-5__0-2_Defpoints
 62
    7
 10
469.13887737658779
 20
256.4999993084931
  0
POINT
  8
_0-5__0-5__0-2_Defpoints
 62
    7
 10
469.13887737658779
 20
111.4999993084976
  0
POINT
  8
_0-5__0-5__0-2_Defpoints
 62
    7
 10
501.19313070992478
 20
111.4999993084977
  0
ENDBLK
  0
BLOCK
  2
-032-_D32
 70
   64
 10
0
 20
0
 30
0
  0
LINE
  8
_0-0_0
  6
CONTINUOUS
 62
    7
 10
416.3388773765879
 20
282.49999930849287
 11
502.1997973765919
 21
282.49999930849287
  0
LINE
  8
_0-0_0
  6
CONTINUOUS
 62
    7
 10
470.13887737658779
 20
256.4999993084931
 11
502.1997973765919
 21
256.4999993084931
  0
LINE
  8
_0-0_0
  6
CONTINUOUS
 62
    7
 10
501.1997973765919
 20
279.49999930849287
 11
501.1997973765919
 21
259.4999993084931
  0
INSERT
  2
-002-EDTIP_ARROW_S
  8
_0-0_0
 10
501.1997973765919
 20
282.49999930849287
 41
3
 42
3
 50
90
  0
INSERT
  2
-003-EDTIP_ARROW_E
  8
_0-0_0
 10
501.1997973765919
 20
256.4999993084931
 41
3
 42
3
 50
270
  0
TEXT
  8
_0-0_0
 62
    7
 10
500.6997973765919
 20
267.99999930849281
 40
3
 41
1
 50
90
  1
26
  0
POINT
  8
_0-5__0-5__0-2_Defpoints
 62
    7
 10
415.3388773765879
 20
282.49999930849287
  0
POINT
  8
_0-5__0-5__0-2_Defpoints
 62
    7
 10
469.13887737658779
 20
256.4999993084931
  0
POINT
  8
_0-5__0-5__0-2_Defpoints
 62
    7
 10
501.1997973765919
 20
256.4999993084931
  0
ENDBLK
  0
BLOCK
  2
-033-_D33
 70
   64
 10
0
 20
0
 30
0
  0
LINE
  8
_0-0_0
  6
CONTINUOUS
 62
    7
 10
415.33887737658761
 20
283.4999993084927
 11
415.33887737658761
 21
294.63409930849252
  0
LINE
  8
_0-0_0
  6
CONTINUOUS
 62
    7
 10
331.82507204325429
 20
283.4999993084927
 11
331.82507204325429
 21
294.63409930849252
  0
LINE
  8
_0-0_0
  6
CONTINUOUS
 62
    7
 10
412.33887737658761
 20
293.63409930849252
 11
334.82507204325429
 21
293.63409930849252
  0
INSERT
  2
-002-EDTIP_ARROW_S
  8
_0-0_0
 10
415.33887737658761
 20
293.63409930849252
 41
3
 42
3
 50
0
  0
INSERT
  2
-003-EDTIP_ARROW_E
  8
_0-0_0
 10
331.82507204325429
 20
293.63409930849252
 41
3
 42
3
 50
180
  0
TEXT
  8
_0-0_0
 62
    7
 10
372.08197470992098
 20
294.13409930849252
 40
3
 41
1
 50
0
  1
84
  0
POINT
  8
_0-5__0-5__0-2_Defpoints
 62
    7
 10
415.33887737658761
 20
282.4999993084927
  0
POINT
  8
_0-5__0-5__0-2_Defpoints
 62
    7
 10
331.82507204325429
 20
282.4999993084927
  0
POINT
  8
_0-5__0-5__0-2_Defpoints
 62
    7
 10
331.82507204325429
 20
293.63409930849252
  0
ENDBLK
  0
BLOCK
  2
-034-_D34
 70
   64
 10
0
 20
0
 30
0
  0
LINE
  8
_0-0_0
  6
CONTINUOUS
 62
    7
 10
415.33887737658761
 20
283.4999993084927
 11
415.33887737658761
 21
294.63409930849252
  0
LINE
  8
_0-0_0
  6
CONTINUOUS
 62
    7
 10
469.13887737658757
 20
228.49999930849298
 11
469.13887737658757
 21
294.63409930849252
  0
LINE
  8
_0-0_0
  6
CONTINUOUS
 62
    7
 10
418.33887737658767
 20
293.63409930849252
 11
466.13887737658757
 21
293.63409930849252
  0
INSERT
  2
-002-EDTIP_ARROW_S
  8
_0-0_0
 10
415.33887737658761
 20
293.63409930849252
 41
3
 42
3
 50
180
  0
INSERT
  2
-003-EDTIP_ARROW_E
  8
_0-0_0
 10
469.13887737658757
 20
293.63409930849252
 41
3
 42
3
 50
0
  0
TEXT
  8
_0-0_0
 62
    7
 10
440.73887737658759
 20
294.13409930849252
 40
3
 41
1
 50
0
  1
54
  0
POINT
  8
_0-5__0-5__0-2_Defpoints
 62
    7
 10
415.33887737658761
 20
282.4999993084927
  0
POINT
  8
_0-5__0-5__0-2_Defpoints
 62
    7
 10
469.13887737658757
 20
227.49999930849298
  0
POINT
  8
_0-5__0-5__0-2_Defpoints
 62
    7
 10
469.13887737658757
 20
293.63409930849252
  0
ENDBLK
  0
BLOCK
  2
-035-_D35
 70
   64
 10
0
 20
0
 30
0
  0
LINE
  8
_0-0_0
  6
CONTINUOUS
 62
    7
 10
330.8250720432544
 20
282.49999930849281
 11
316.08891604325708
 21
282.49999930849281
  0
LINE
  8
_0-0_0
  6
CONTINUOUS
 62
    7
 10
330.8250720432544
 20
76.499999308492874
 11
316.08891604325708
 21
76.499999308492874
  0
LINE
  8
_0-0_0
  6
CONTINUOUS
 62
    7
 10
317.08891604325708
 20
279.49999930849281
 11
317.08891604325708
 21
79.499999308492874
  0
INSERT
  2
-002-EDTIP_ARROW_S
  8
_0-0_0
 10
317.08891604325708
 20
282.49999930849281
 41
3
 42
3
 50
90
  0
INSERT
  2
-003-EDTIP_ARROW_E
  8
_0-0_0
 10
317.08891604325708
 20
76.499999308492874
 41
3
 42
3
 50
270
  0
TEXT
  8
_0-0_0
 62
    7
 10
316.58891604325708
 20
177.2499993084927
 40
3
 41
1
 50
90
  1
206
  0
POINT
  8
_0-5__0-5__0-2_Defpoints
 62
    7
 10
331.8250720432544
 20
282.49999930849281
  0
POINT
  8
_0-5__0-5__0-2_Defpoints
 62
    7
 10
331.8250720432544
 20
76.499999308492874
  0
POINT
  8
_0-5__0-5__0-2_Defpoints
 62
    7
 10
317.08891604325708
 20
76.499999308492874
  0
ENDBLK
  0
BLOCK
  2
-036-_D36
 70
   64
 10
0
 20
0
 30
0
  0
LINE
  8
_0-0_0
  6
CONTINUOUS
 62
    7
 10
397.33887737658767
 20
63.751024641826312
 11
397.33887737658767
 21
50.958455308492922
  0
LINE
  8
_0-0_0
  6
CONTINUOUS
 62
    7
 10
415.33887737658761
 20
78.577691308492916
 11
415.33887737658761
 21
50.958455308492922
  0
LINE
  8
_0-0_0
  6
CONTINUOUS
 62
    7
 10
400.33887737658761
 20
51.958455308492908
 11
412.33887737658761
 21
51.958455308492908
  0
INSERT
  2
-002-EDTIP_ARROW_S
  8
_0-0_0
 10
397.33887737658767
 20
51.958455308492908
 41
3
 42
3
 50
180
  0
INSERT
  2
-003-EDTIP_ARROW_E
  8
_0-0_0
 10
415.33887737658761
 20
51.958455308492908
 41
3
 42
3
 50
0
  0
TEXT
  8
_0-0_0
 62
    7
 10
404.83887737658761
 20
52.458455308492922
 40
3
 41
1
 50
0
  1
18
  0
POINT
  8
_0-5__0-5__0-2_Defpoints
 62
    7
 10
397.33887737658767
 20
64.751024641826319
  0
POINT
  8
_0-5__0-5__0-2_Defpoints
 62
    7
 10
415.33887737658761
 20
79.577691308492916
  0
POINT
  8
_0-5__0-5__0-2_Defpoints
 62
    7
 10
415.33887737658761
 20
51.958455308492908
  0
ENDBLK
  0
BLOCK
  2
-037-_D37
 70
   64
 10
0
 20
0
 30
0
  0
LINE
  8
_0-0_0
  6
CONTINUOUS
 62
    7
 10
264.77602838820172
 20
283.49999930849281
 11
264.77602838820172
 21
294.63409930849269
  0
LINE
  8
_0-0_0
  6
CONTINUOUS
 62
    7
 10
68.776028388201652
 20
283.49999930849281
 11
68.776028388201652
 21
294.63409930849269
  0
LINE
  8
_0-0_0
  6
CONTINUOUS
 62
    7
 10
261.77602838820172
 20
293.63409930849269
 11
71.776028388201652
 21
293.63409930849269
  0
INSERT
  2
-002-EDTIP_ARROW_S
  8
_0-0_0
 10
264.77602838820172
 20
293.63409930849269
 41
3
 42
3
 50
0
  0
INSERT
  2
-003-EDTIP_ARROW_E
  8
_0-0_0
 10
68.776028388201652
 20
293.63409930849269
 41
3
 42
3
 50
180
  0
TEXT
  8
_0-0_0
 62
    7
 10
164.5260283882016
 20
294.13409930849269
 40
3
 41
1
 50
0
  1
196
  0
POINT
  8
_0-5__0-5__0-2_Defpoints
 62
    7
 10
264.77602838820172
 20
282.49999930849281
  0
POINT
  8
_0-5__0-5__0-2_Defpoints
 62
    7
 10
68.776028388201652
 20
282.49999930849281
  0
POINT
  8
_0-5__0-5__0-2_Defpoints
 62
    7
 10
68.776028388201652
 20
293.63409930849269
  0
ENDBLK
  0
BLOCK
  2
-038-_D38
 70
   64
 10
0
 20
0
 30
0
  0
LINE
  8
_0-0_0
  6
CONTINUOUS
 62
    7
 10
67.77602838820168
 20
282.49999930849287
 11
43.844817721534411
 21
282.49999930849287
  0
LINE
  8
_0-0_0
  6
CONTINUOUS
 62
    7
 10
61.77602838820168
 20
61.499999308492839
 11
43.844817721534461
 21
61.499999308492839
  0
LINE
  8
_0-0_0
  6
CONTINUOUS
 62
    7
 10
44.844817721534411
 20
279.49999930849287
 11
44.844817721534461
 21
64.499999308492846
  0
INSERT
  2
-002-EDTIP_ARROW_S
  8
_0-0_0
 10
44.844817721534411
 20
282.49999930849287
 41
3
 42
3
 50
90
  0
INSERT
  2
-003-EDTIP_ARROW_E
  8
_0-0_0
 10
44.844817721534461
 20
61.499999308492839
 41
3
 42
3
 50
270
  0
TEXT
  8
_0-0_0
 62
    7
 10
44.344817721534468
 20
169.74999930849278
 40
3
 41
1
 50
90
  1
221
  0
POINT
  8
_0-5__0-5__0-2_Defpoints
 62
    7
 10
68.77602838820168
 20
282.49999930849287
  0
POINT
  8
_0-5__0-5__0-2_Defpoints
 62
    7
 10
62.77602838820168
 20
61.499999308492839
  0
POINT
  8
_0-5__0-5__0-2_Defpoints
 62
    7
 10
44.844817721534461
 20
61.499999308492839
  0
ENDBLK
  0
BLOCK
  2
-039-_D39
 70
   64
 10
0
 20
0
 30
0
  0
LINE
  8
_0-0_0
  6
CONTINUOUS
 62
    7
 10
270.7760283882016
 20
80.660253975159633
 11
270.7760283882016
 21
50.958455308492922
  0
LINE
  8
_0-0_0
  6
CONTINUOUS
 62
    7
 10
62.776028388201652
 20
80.660253975159633
 11
62.776028388201652
 21
50.958455308492922
  0
LINE
  8
_0-0_0
  6
CONTINUOUS
 62
    7
 10
267.77602838820172
 20
51.958455308492908
 11
65.776028388201652
 21
51.958455308492908
  0
INSERT
  2
-002-EDTIP_ARROW_S
  8
_0-0_0
 10
270.7760283882016
 20
51.958455308492908
 41
3
 42
3
 50
0
  0
INSERT
  2
-003-EDTIP_ARROW_E
  8
_0-0_0
 10
62.776028388201652
 20
51.958455308492908
 41
3
 42
3
 50
180
  0
TEXT
  8
_0-0_0
 62
    7
 10
164.5260283882016
 20
52.458455308492922
 40
3
 41
1
 50
0
  1
208
  0
POINT
  8
_0-5__0-5__0-2_Defpoints
 62
    7
 10
270.7760283882016
 20
81.660253975159633
  0
POINT
  8
_0-5__0-5__0-2_Defpoints
 62
    7
 10
62.776028388201652
 20
81.660253975159633
  0
POINT
  8
_0-5__0-5__0-2_Defpoints
 62
    7
 10
62.776028388201652
 20
51.958455308492908
  0
ENDBLK
  0
ENDSEC
  0
SECTION
  2
ENTITIES
  0
LINE
  8
_0-3_0-10
  6
CONTINUOUS
 62
    3
 10
-43.750000000000113
 20
326
 11
463.75000000000011
 21
326
  0
LINE
  8
_0-3_0-10
  6
CONTINUOUS
 62
    3
 10
209.99999999999994
 20
-29
 11
209.99999999999994
 21
-26.5
  0
LINE
  8
_0-3_0-10
  6
CONTINUOUS
 62
    3
 10
463.74999999999988
 20
-29
 11
463.74999999999988
 21
326
  0
LINE
  8
_0-3_0-10
  6
CONTINUOUS
 62
    3
 10
-43.750000000000056
 20
-29
 11
-43.750000000000056
 21
326
  0
LINE
  8
_0-3_0-10
  6
CONTINUOUS
 62
    3
 10
-43.750000000000056
 20
-29
 11
463.74999999999988
 21
-29
  0
LINE
  8
_0-1_0-00
  6
CONTINUOUS
 62
    3
 10
220.00000000000125
 20
-16.5
 11
463.74999999999988
 21
-16.5
  0
LINE
  8
_0-1_0-00
  6
CONTINUOUS
 62
    3
 10
220.00000000000125
 20
-16.5
 11
220.00000000000125
 21
-29
  0
LINE
  8
_0-1_0-00
  6
CONTINUOUS
 62
    3
 10
295.00000000000113
 20
-16.5
 11
295.00000000000113
 21
-29
  0
LINE
  8
_0-1_0-00
  6
CONTINUOUS
 62
    3
 10
370.00000000000102
 20
-16.5
 11
370.00000000000102
 21
-29
  0
LINE
  8
_0-3_0-10
  6
CONTINUOUS
 62
    3
 10
280.82507302114322
 20
246.99999999999971
 11
364.33887835447654
 21
246.99999999999971
  0
LINE
  8
_0-3_0-10
  6
CONTINUOUS
 62
    3
 10
280.82507302114322
 20
246.99999999999971
 11
280.82507302114322
 21
40.999999999999857
  0
LINE
  8
_0-3_0-10
  6
CONTINUOUS
 62
    5
 10
354.8388783544766
 20
246.49999999999971
 11
358.3388783544766
 21
246.49999999999971
  0
ARC
  8
_0-3_0-10
  6
CONTINUOUS
 62
    5
 10
358.8388783544766
 20
246.49999999999971
 40
0.5
 50
90
 51
180
  0
LINE
  8
_0-3_0-10
  6
CONTINUOUS
 62
    3
 10
281.32507302114322
 20
246.99999999999971
 11
281.32507302114322
 21
40.999999999999857
  0
LINE
  8
_0-3_0-10
  6
CONTINUOUS
 62
    3
 10
360.33887835447654
 20
40.999999999999857
 11
363.73887835447641
 21
44.399999999999934
  0
ARC
  8
_0-3_0-10
  6
CONTINUOUS
 62
    6
 10
415.1388783544765
 20
218.00000000000011
 40
3
 50
0
 51
90
  0
ARC
  8
_0-3_0-10
  6
CONTINUOUS
 62
    6
 10
415.1388783544765
 20
79.000000000004618
 40
3
 50
270
 51
0
  0
LINE
  8
_0-3_0-10
  6
CONTINUOUS
 62
    6
 10
415.1388783544765
 20
76.000000000004618
 11
363.1388783544765
 21
76.000000000004618
  0
LINE
  8
_0-3_0-10
  6
CONTINUOUS
 62
    6
 10
363.1388783544765
 20
221.00000000000011
 11
415.1388783544765
 21
221.00000000000011
  0
LINE
  8
_0-3_0-10
  6
CONTINUOUS
 62
    6
 10
358.6388783544765
 20
235.29999999999978
 11
358.6388783544765
 21
64.200000000004678
  0
LINE
  8
_0-3_0-10
  6
CONTINUOUS
 62
    6
 10
359.1388783544765
 20
235.29999999999978
 11
359.1388783544765
 21
225.00000000000011
  0
ARC
  8
_0-3_0-10
  6
CONTINUOUS
 62
    6
 10
363.1388783544765
 20
225.00000000000011
 40
4
 50
180
 51
270
  0
ARC
  8
_0-3_0-10
  6
CONTINUOUS
 62
    6
 10
363.1388783544765
 20
72.000000000004618
 40
4
 50
90
 51
180
  0
LINE
  8
_0-3_0-10
  6
CONTINUOUS
 62
    6
 10
359.1388783544765
 20
72.000000000004618
 11
359.1388783544765
 21
64.200000000004678
  0
LINE
  8
_0-3_0-10
  6
CONTINUOUS
 62
    6
 10
359.33887835447654
 20
245.99999999999971
 11
359.83887835447654
 21
245.99999999999971
  0
LINE
  8
_0-3_0-10
  6
CONTINUOUS
 62
    3
 10
280.82507302114322
 20
40.999999999999857
 11
360.33887835447654
 21
40.999999999999857
  0
LINE
  8
_0-3_0-10
  6
CONTINUOUS
 62
    3
 10
363.73887835447641
 20
46.187049333333192
 11
363.73887835447641
 21
44.399999999999934
  0
LINE
  8
_0-3_0-10
  6
CONTINUOUS
 62
    5
 10
358.3388783544766
 20
246.49999999999971
 11
358.3388783544766
 21
237.38366399999961
  0
LINE
  8
_0-3_0-10
  6
CONTINUOUS
 62
    5
 10
358.8388783544766
 20
236.99999999999971
 11
322.61665968780982
 21
227.29428666666632
  0
LINE
  8
_0-3_0-10
  6
CONTINUOUS
 62
    5
 10
358.8388783544766
 20
246.99999999999971
 11
364.33887835447654
 21
246.99999999999971
  0
LINE
  8
_0-3_0-10
  6
CONTINUOUS
 62
    5
 10
358.8388783544766
 20
246.49999999999971
 11
358.8388783544766
 21
236.29999999999978
  0
ARC
  8
_0-3_0-10
  6
CONTINUOUS
 62
    5
 10
358.3388783544766
 20
237.38366399999961
 40
0.5
 50
285.00000000000119
 51
0.0000000000000127
  0
LINE
  8
_0-3_0-10
  6
CONTINUOUS
 62
    5
 10
322.0042863544765
 20
227.64783999999968
 11
320.83960102114332
 21
231.99450533333293
  0
LINE
  8
_0-3_0-10
  6
CONTINUOUS
 62
    5
 10
321.3225636878098
 20
232.12391599999972
 11
320.83960102114332
 21
231.99450533333293
  0
LINE
  8
_0-3_0-10
  6
CONTINUOUS
 62
    5
 10
322.48725035447642
 20
227.77724933333303
 11
321.3225636878098
 21
232.12391599999972
  0
LINE
  8
_0-3_0-10
  6
CONTINUOUS
 62
    5
 10
322.13369702114323
 20
227.42369599999972
 11
322.13369702114323
 21
223.0659079999998
  0
LINE
  8
_0-3_0-10
  6
CONTINUOUS
 62
    5
 10
322.0042863544765
 20
223.2900519999996
 11
321.18034235447663
 21
226.36505333333303
  0
LINE
  8
_0-3_0-10
  6
CONTINUOUS
 62
    5
 10
320.83960102114332
 20
231.99450533333293
 11
320.83960102114332
 21
228.95324399999958
  0
LINE
  8
_0-3_0-10
  6
CONTINUOUS
 62
    5
 10
329.73169302114325
 20
224.46792266666631
 11
329.73169302114325
 21
224.29409466666629
  0
LINE
  8
_0-3_0-10
  6
CONTINUOUS
 62
    5
 10
329.10581168780993
 20
224.67526266666629
 11
322.61665968780982
 21
222.93649866666629
  0
LINE
  8
_0-3_0-10
  6
CONTINUOUS
 62
    5
 10
329.73169302114325
 20
224.29409466666629
 11
329.86110368780981
 21
223.81113199999958
  0
LINE
  8
_0-3_0-10
  6
CONTINUOUS
 62
    5
 10
329.86110368780981
 20
224.09570666666633
 11
329.86110368780981
 21
223.81113199999958
  0
ARC
  8
_0-3_0-10
  6
CONTINUOUS
 62
    5
 10
322.48725035447642
 20
223.419461333333
 40
0.5
 50
195.0000000000011
 51
285.00000000000119
  0
ARC
  8
_0-3_0-10
  6
CONTINUOUS
 62
    5
 10
322.48725035447642
 20
227.77724933333303
 40
0.5
 50
195.0000000000011
 51
285.00000000000119
  0
LINE
  8
_0-3_0-10
  6
CONTINUOUS
 62
    5
 10
353.8388783544766
 20
245.49999999999971
 11
353.8388783544766
 21
236.17789199999953
  0
ARC
  8
_0-3_0-10
  6
CONTINUOUS
 62
    5
 10
329.26110368780985
 20
224.09570666666633
 40
0.5999999999999997
 50
0
 51
105.00000000000119
  0
ARC
  8
_0-3_0-10
  6
CONTINUOUS
 62
    5
 10
354.8388783544766
 20
245.49999999999971
 40
1
 50
90
 51
180
  0
ARC
  8
_0-3_0-10
  6
CONTINUOUS
 62
    5
 10
330.8396010211432
 20
228.95324399999958
 40
10
 50
180
 51
195.0000000000011
  0
LINE
  8
_0-3_0-10
  6
CONTINUOUS
 62
    5
 10
358.3388783544766
 20
237.38366399999961
 11
322.48725035447642
 21
227.77724933333303
  0
LINE
  8
_0-3_0-10
  6
CONTINUOUS
 62
    3
 10
328.5846890211431
 20
246.99999999999971
 11
328.5846890211431
 21
229.41105333333291
  0
LINE
  8
_0-3_0-10
  6
CONTINUOUS
 62
    3
 10
328.5846890211431
 20
224.53562799999969
 11
328.5846890211431
 21
40.999999999999857
  0
LINE
  8
_0-3_0-10
  6
CONTINUOUS
 62
    5
 10
358.8388783544766
 20
246.49999999999971
 11
364.33887835447654
 21
246.49999999999971
  0
LINE
  8
_0-3_0-10
  6
CONTINUOUS
 62
    3
 10
364.33887835447654
 20
76.000000000004618
 11
364.33887835447654
 21
46.699999999999889
  0
ARC
  8
_0-3_0-10
  6
CONTINUOUS
 62
    3
 10
364.03887835447642
 20
46.699999999999889
 40
0.2999999999999998
 50
309.92769199999742
 51
0
  0
LINE
  8
_0-0_0
  6
CONTINUOUS
 62
    7
 10
416.1388783544765
 20
76.000000000004618
 11
451.52646502114441
 21
76.000000000004618
  0
LINE
  8
_0-0_0
  6
CONTINUOUS
 62
    7
 10
416.1388783544765
 20
221
 11
451.52646502114441
 21
221
  0
LINE
  8
_0-0_0
  6
CONTINUOUS
 62
    7
 10
450.1931316878111
 20
80.000000000004618
 11
450.1931316878111
 21
217
  0
INSERT
  2
-000-EDTIP_ARROW_S_0
  8
_0-0_0
 10
450.1931316878111
 20
76.000000000004618
 41
4
 42
4
 50
270
  0
INSERT
  2
-001-EDTIP_ARROW_E_1
  8
_0-0_0
 10
450.1931316878111
 20
221
 41
4
 42
4
 50
90
  0
CIRCLE
  8
_0-1_0-00
  6
CONTINUOUS
 62
    7
 10
414.80554502114313
 20
76.000000000004618
 40
0.0066666666666667
  0
CIRCLE
  8
_0-1_0-00
  6
CONTINUOUS
 62
    7
 10
414.80554502114313
 20
221
 40
0.0066666666666667
  0
CIRCLE
  8
_0-1_0-00
  6
CONTINUOUS
 62
    7
 10
450.1931316878111
 20
221
 40
0.0066666666666667
  0
LINE
  8
_0-3_0-10
  6
CONTINUOUS
 62
    6
 10
359.1388783544765
 20
235.29999999999978
 11
358.6388783544765
 21
235.29999999999978
  0
LINE
  8
_0-3_0-10
  6
CONTINUOUS
 62
    5
 10
357.6388783544765
 20
231.25416399999971
 11
329.86110368780981
 21
223.81113199999958
  0
LINE
  8
_0-3_0-10
  6
CONTINUOUS
 62
    7
 10
362.3847210211432
 20
246.49999999999971
 11
363.2507463544764
 21
245.99999999999971
  0
LINE
  8
_0-3_0-10
  6
CONTINUOUS
 62
    6
 10
359.1388783544765
 20
64.200000000004678
 11
358.6388783544765
 21
64.200000000004678
  0
LINE
  8
_0-3_0-10
  6
CONTINUOUS
 62
    6
 10
418.1388783544765
 20
127.23759199999992
 11
418.1388783544765
 21
79.000000000004618
  0
LINE
  8
_0-3_0-10
  6
CONTINUOUS
 62
    6
 10
418.1388783544765
 20
218.00000000000011
 11
418.1388783544765
 21
127.23759185792931
  0
LINE
  8
_0-3_0-10
  6
CONTINUOUS
 62
    3
 10
364.33887835447654
 20
246.99999999999971
 11
364.33887835447654
 21
221.00000000000011
  0
INSERT
  2
-031-_D31
  8
_0-0_0
 10
-50.999999022111069
 20
-35.499999308492988
 41
1
 42
1
 50
0
  0
INSERT
  2
-032-_D32
  8
_0-0_0
 10
-50.999999022111069
 20
-35.499999308492988
 41
1
 42
1
 50
0
  0
INSERT
  2
-033-_D33
  8
_0-0_0
 10
-50.999999022111069
 20
-35.499999308492988
 41
1
 42
1
 50
0
  0
INSERT
  2
-034-_D34
  8
_0-0_0
 10
-50.999999022111069
 20
-35.499999308492988
 41
1
 42
1
 50
0
  0
INSERT
  2
-035-_D35
  8
_0-0_0
 10
-50.999999022111069
 20
-35.499999308492988
 41
1
 42
1
 50
0
  0
INSERT
  2
-036-_D36
  8
_0-0_0
 10
-50.999999022111069
 20
-35.499999308492988
 41
1
 42
1
 50
0
  0
LINE
  8
_0-3_0-10
  6
CONTINUOUS
 62
    7
 10
2.0947880327572363
 20
148.5
 11
229.45726936609065
 21
148.5
  0
LINE
  8
_0-3_0-10
  6
CONTINUOUS
 62
    7
 10
115.77602936609054
 20
255.49079733333309
 11
115.77602936609054
 21
24.08910215412834
  0
LINE
  8
_0-3_0-10
  6
CONTINUOUS
 62
    3
 10
26.776029366090597
 20
246.99999999999982
 11
26.776029366090597
 21
40.999999999999857
  0
LINE
  8
_0-3_0-10
  6
CONTINUOUS
 62
    3
 10
204.77602936609062
 20
246.99999999999982
 11
204.77602936609062
 21
40.999999999999857
  0
LINE
  8
_0-3_0-10
  6
CONTINUOUS
 62
    3
 10
213.77602936609065
 20
246.99999999999982
 11
204.27602936609062
 21
246.99999999999982
  0
LINE
  8
_0-3_0-10
  6
CONTINUOUS
 62
    3
 10
213.77602936609065
 20
246.99999999999982
 11
213.77602936609065
 21
40.999999999999857
  0
LINE
  8
_0-3_0-10
  6
CONTINUOUS
 62
    3
 10
17.776029366090597
 20
246.99999999999982
 11
17.776029366090597
 21
40.999999999999857
  0
LINE
  8
_0-3_0-10
  6
CONTINUOUS
 62
    7
 10
22.276029366090597
 20
183.2729706666665
 11
22.276029366090597
 21
173.7270293333332
  0
ARC
  8
_0-3_0-10
  6
CONTINUOUS
 62
    3
 10
22.276029366090597
 20
178.5
 40
2.149999999999999
 50
8.0209330000002072
 51
171.97906699999998
  0
ARC
  8
_0-3_0-10
  6
CONTINUOUS
 62
    3
 10
22.276029366090597
 20
178.5
 40
2.149999999999999
 50
188.02093299999987
 51
351.97906699999981
  0
LINE
  8
_0-3_0-10
  6
CONTINUOUS
 62
    7
 10
17.503058699423945
 20
178.5
 11
27.049000032757248
 21
178.5
  0
LINE
  8
_0-3_0-10
  6
CONTINUOUS
 62
    3
 10
213.77602936609065
 20
40.999999999999857
 11
204.27602936609062
 21
40.999999999999857
  0
LINE
  8
_0-3_0-10
  6
CONTINUOUS
 62
    4
 10
219.77602936609054
 20
46.160254666666645
 11
219.77602936609054
 21
33.522965333333189
  0
LINE
  8
_0-3_0-10
  6
CONTINUOUS
 62
    4
 10
219.27602936609065
 20
46.160254666666645
 11
219.27602936609065
 21
33.522965333333189
  0
LINE
  8
_0-3_0-10
  6
CONTINUOUS
 62
    4
 10
219.27602936609065
 20
33.522965333333189
 11
219.77602936609054
 21
33.522965333333189
  0
LINE
  8
_0-3_0-10
  6
CONTINUOUS
 62
    4
 10
11.776029366090597
 20
46.160254666666645
 11
11.776029366090597
 21
33.522965333333189
  0
LINE
  8
_0-3_0-10
  6
CONTINUOUS
 62
    4
 10
12.276029366090597
 20
46.160254666666645
 11
12.276029366090597
 21
33.522965333333189
  0
LINE
  8
_0-3_0-10
  6
CONTINUOUS
 62
    4
 10
12.276029366090597
 20
33.522965333333189
 11
11.776029366090597
 21
33.522965333333189
  0
ARC
  8
_0-3_0-10
  6
CONTINUOUS
 62
    4
 10
115.7760493660903
 20
748.62712054001417
 40
722.6271205400144
 50
261.72529459576071
 51
278.27470540423928
  0
ARC
  8
_0-3_0-10
  6
CONTINUOUS
 62
    4
 10
115.77604476424892
 20
747.27767751340843
 40
720.9241241800754
 50
261.74576606327559
 51
278.25423169034672
  0
LINE
  8
_0-3_0-10
  6
CONTINUOUS
 62
    4
 10
11.776029366090597
 20
46.160254666666645
 11
17.776029366090597
 21
46.160254666666645
  0
LINE
  8
_0-3_0-10
  6
CONTINUOUS
 62
    4
 10
12.276029366090597
 20
43.75102533333333
 11
17.776029366090597
 21
43.75102533333333
  0
LINE
  8
_0-3_0-10
  6
CONTINUOUS
 62
    4
 10
98.622433101423922
 20
46.160254666666645
 11
204.27602936609062
 21
46.160254666666645
  0
LINE
  8
_0-3_0-10
  6
CONTINUOUS
 62
    4
 10
98.280186213357637
 20
43.75102533333333
 11
204.27602936609062
 21
43.75102533333333
  0
LINE
  8
_0-3_0-10
  6
CONTINUOUS
 62
    7
 10
209.27602936609054
 20
183.2729706666665
 11
209.27602936609054
 21
173.7270293333332
  0
LINE
  8
_0-3_0-10
  6
CONTINUOUS
 62
    7
 10
214.04900003275724
 20
178.5
 11
204.50305869942391
 21
178.5
  0
LINE
  8
_0-3_0-10
  6
CONTINUOUS
 62
    4
 10
204.02602936609062
 20
246.49999999999982
 11
204.27602936609062
 21
246.49999999999982
  0
LINE
  8
_0-3_0-10
  6
CONTINUOUS
 62
    4
 10
98.830403155027937
 20
47.499999999999857
 11
204.27602936609062
 21
47.499999999999857
  0
LINE
  8
_0-3_0-10
  6
CONTINUOUS
 62
    3
 10
204.27602936609062
 20
246.99999999999982
 11
204.27602936609062
 21
40.999999999999857
  0
LINE
  8
_0-3_0-10
  6
CONTINUOUS
 62
    4
 10
213.77602936609065
 20
46.160254666666645
 11
219.77602936609054
 21
46.160254666666645
  0
LINE
  8
_0-3_0-10
  6
CONTINUOUS
 62
    4
 10
213.77602936609065
 20
43.75102533333333
 11
219.27602936609065
 21
43.75102533333333
  0
LINE
  8
_0-3_0-10
  6
CONTINUOUS
 62
    7
 10
131.66236536609062
 20
246.99999999999982
 11
131.78582403275723
 21
244.62153466666649
  0
LINE
  8
_0-3_0-10
  6
CONTINUOUS
 62
    7
 10
131.78582403275723
 20
244.62153466666649
 11
131.87986403275724
 21
242.74398133333301
  0
LINE
  8
_0-3_0-10
  6
CONTINUOUS
 62
    7
 10
131.87986403275724
 20
242.74398133333301
 11
131.96697203275724
 21
240.86825066666642
  0
LINE
  8
_0-3_0-10
  6
CONTINUOUS
 62
    7
 10
131.96697203275724
 20
240.86825066666642
 11
132.04368403275722
 21
238.9952533333332
  0
LINE
  8
_0-3_0-10
  6
CONTINUOUS
 62
    7
 10
132.04368403275722
 20
238.9952533333332
 11
132.10653336609064
 21
237.12590266666649
  0
LINE
  8
_0-3_0-10
  6
CONTINUOUS
 62
    7
 10
132.10653336609064
 20
237.12590266666649
 11
132.15205469942392
 21
235.26111066666652
  0
LINE
  8
_0-3_0-10
  6
CONTINUOUS
 62
    7
 10
132.15205469942392
 20
235.26111066666652
 11
132.17678136609063
 21
233.40178533333323
  0
LINE
  8
_0-3_0-10
  6
CONTINUOUS
 62
    7
 10
132.17678136609063
 20
233.40178533333323
 11
132.17724936609053
 21
231.54884266666641
  0
LINE
  8
_0-3_0-10
  6
CONTINUOUS
 62
    7
 10
132.17724936609053
 20
231.54884266666641
 11
132.14999203275723
 21
229.7031906666665
  0
LINE
  8
_0-3_0-10
  6
CONTINUOUS
 62
    7
 10
132.14999203275723
 20
229.7031906666665
 11
132.09154403275724
 21
227.865741333333
  0
LINE
  8
_0-3_0-10
  6
CONTINUOUS
 62
    7
 10
132.09154403275724
 20
227.865741333333
 11
131.99844003275723
 21
226.0374079999998
  0
LINE
  8
_0-3_0-10
  6
CONTINUOUS
 62
    7
 10
131.99844003275723
 20
226.0374079999998
 11
131.86721336609053
 21
224.21909999999968
  0
LINE
  8
_0-3_0-10
  6
CONTINUOUS
 62
    7
 10
131.86721336609053
 20
224.21909999999968
 11
131.69439869942394
 21
222.41173066666641
  0
LINE
  8
_0-3_0-10
  6
CONTINUOUS
 62
    7
 10
131.69439869942394
 20
222.41173066666641
 11
131.47653203275723
 21
220.6162106666664
  0
LINE
  8
_0-3_0-10
  6
CONTINUOUS
 62
    7
 10
131.47653203275723
 20
220.6162106666664
 11
131.21014669942394
 21
218.8334506666664
  0
LINE
  8
_0-3_0-10
  6
CONTINUOUS
 62
    7
 10
131.21014669942394
 20
218.8334506666664
 11
130.89177603275723
 21
190.56436266666662
  0
LINE
  8
_0-3_0-10
  6
CONTINUOUS
 62
    7
 10
130.89177603275723
 20
190.56436266666662
 11
130.51795603275724
 21
188.80985866666659
  0
LINE
  8
_0-3_0-10
  6
CONTINUOUS
 62
    7
 10
130.51795603275724
 20
188.80985866666659
 11
130.08521869942393
 21
187.07085066666661
  0
LINE
  8
_0-3_0-10
  6
CONTINUOUS
 62
    7
 10
130.08521869942393
 20
187.07085066666661
 11
129.59010136609063
 21
185.3482493333332
  0
LINE
  8
_0-3_0-10
  6
CONTINUOUS
 62
    7
 10
129.59010136609063
 20
185.3482493333332
 11
129.02913736609053
 21
183.6429653333333
  0
LINE
  8
_0-3_0-10
  6
CONTINUOUS
 62
    7
 10
129.02913736609053
 20
183.6429653333333
 11
128.39886003275722
 21
181.95591199999989
  0
LINE
  8
_0-3_0-10
  6
CONTINUOUS
 62
    7
 10
128.39886003275722
 20
181.95591199999989
 11
127.83700803275722
 21
180.6045533333332
  0
LINE
  8
_0-3_0-10
  6
CONTINUOUS
 62
    7
 10
127.83700803275722
 20
180.6045533333332
 11
127.23298403275721
 21
179.26436133333331
  0
LINE
  8
_0-3_0-10
  6
CONTINUOUS
 62
    7
 10
127.23298403275721
 20
179.26436133333331
 11
126.59225869942392
 21
177.9339666666666
  0
LINE
  8
_0-3_0-10
  6
CONTINUOUS
 62
    7
 10
126.59225869942392
 20
177.9339666666666
 11
125.92030536609053
 21
176.61200533333331
  0
LINE
  8
_0-3_0-10
  6
CONTINUOUS
 62
    7
 10
125.92030536609053
 20
176.61200533333331
 11
125.22259603275722
 21
175.29711066666649
  0
LINE
  8
_0-3_0-10
  6
CONTINUOUS
 62
    7
 10
125.22259603275722
 20
175.29711066666649
 11
124.50460136609052
 21
173.98791733333339
  0
LINE
  8
_0-3_0-10
  6
CONTINUOUS
 62
    7
 10
124.50460136609052
 20
173.98791733333339
 11
123.77179603275723
 21
172.68305733333332
  0
LINE
  8
_0-3_0-10
  6
CONTINUOUS
 62
    7
 10
123.77179603275723
 20
172.68305733333332
 11
123.02965069942392
 21
171.3811666666665
  0
LINE
  8
_0-3_0-10
  6
CONTINUOUS
 62
    7
 10
123.02965069942392
 20
171.3811666666665
 11
122.28363736609051
 21
170.08087866666662
  0
LINE
  8
_0-3_0-10
  6
CONTINUOUS
 62
    7
 10
122.28363736609051
 20
170.08087866666662
 11
121.53922936609052
 21
168.78082666666659
  0
LINE
  8
_0-3_0-10
  6
CONTINUOUS
 62
    7
 10
121.53922936609052
 20
168.78082666666659
 11
120.80189869942391
 21
167.47964533333322
  0
LINE
  8
_0-3_0-10
  6
CONTINUOUS
 62
    7
 10
120.80189869942391
 20
167.47964533333322
 11
120.07711736609053
 21
166.17596799999989
  0
LINE
  8
_0-3_0-10
  6
CONTINUOUS
 62
    7
 10
120.07711736609053
 20
166.17596799999989
 11
119.3703586994239
 21
164.8684279999999
  0
LINE
  8
_0-3_0-10
  6
CONTINUOUS
 62
    7
 10
119.3703586994239
 20
164.8684279999999
 11
118.68709203275722
 21
163.55566133333331
  0
LINE
  8
_0-3_0-10
  6
CONTINUOUS
 62
    7
 10
118.68709203275722
 20
163.55566133333331
 11
118.03279203275724
 21
162.23629999999991
  0
LINE
  8
_0-3_0-10
  6
CONTINUOUS
 62
    7
 10
118.03279203275724
 20
162.23629999999991
 11
117.41293069942382
 21
160.90897866666659
  0
LINE
  8
_0-3_0-10
  6
CONTINUOUS
 62
    7
 10
117.41293069942382
 20
160.90897866666659
 11
116.83298003275723
 21
159.5723319999999
  0
LINE
  8
_0-3_0-10
  6
CONTINUOUS
 62
    7
 10
116.83298003275723
 20
159.5723319999999
 11
116.29841203275722
 21
158.2249919999999
  0
LINE
  8
_0-3_0-10
  6
CONTINUOUS
 62
    7
 10
116.29841203275722
 20
158.2249919999999
 11
115.81469869942391
 21
156.86559466666662
  0
LINE
  8
_0-3_0-10
  6
CONTINUOUS
 62
    7
 10
115.81469869942391
 20
156.86559466666662
 11
115.38731336609062
 21
155.49277199999991
  0
LINE
  8
_0-3_0-10
  6
CONTINUOUS
 62
    7
 10
115.38731336609062
 20
155.49277199999991
 11
115.02172669942393
 21
154.10515999999989
  0
LINE
  8
_0-3_0-10
  6
CONTINUOUS
 62
    7
 10
115.02172669942393
 20
154.10515999999989
 11
114.70613469942391
 21
152.62004799999991
  0
LINE
  8
_0-3_0-10
  6
CONTINUOUS
 62
    7
 10
114.70613469942391
 20
152.62004799999991
 11
114.45930403275721
 21
151.1183519999999
  0
LINE
  8
_0-3_0-10
  6
CONTINUOUS
 62
    7
 10
114.45930403275721
 20
151.1183519999999
 11
114.27469869942393
 21
149.60157199999991
  0
LINE
  8
_0-3_0-10
  6
CONTINUOUS
 62
    7
 10
114.27469869942393
 20
149.60157199999991
 11
114.14578669942392
 21
148.07120799999989
  0
LINE
  8
_0-3_0-10
  6
CONTINUOUS
 62
    7
 10
114.14578669942392
 20
148.07120799999989
 11
114.06603603275722
 21
146.52876
  0
LINE
  8
_0-3_0-10
  6
CONTINUOUS
 62
    7
 10
114.06603603275722
 20
146.52876
 11
114.02891069942393
 21
144.97572799999991
  0
LINE
  8
_0-3_0-10
  6
CONTINUOUS
 62
    7
 10
114.02891069942393
 20
144.97572799999991
 11
114.02788003275722
 21
143.41361066666661
  0
LINE
  8
_0-3_0-10
  6
CONTINUOUS
 62
    7
 10
114.02788003275722
 20
143.41361066666661
 11
114.0564080327572
 21
141.84390799999991
  0
LINE
  8
_0-3_0-10
  6
CONTINUOUS
 62
    7
 10
114.0564080327572
 20
141.84390799999991
 11
114.10796269942392
 21
140.26811999999992
  0
LINE
  8
_0-3_0-10
  6
CONTINUOUS
 62
    7
 10
114.10796269942392
 20
140.26811999999992
 11
114.17601069942392
 21
138.68774533333322
  0
LINE
  8
_0-3_0-10
  6
CONTINUOUS
 62
    7
 10
114.17601069942392
 20
138.68774533333322
 11
114.25401869942392
 21
137.10428533333322
  0
LINE
  8
_0-3_0-10
  6
CONTINUOUS
 62
    7
 10
114.25401869942392
 20
137.10428533333322
 11
114.3354520327572
 21
135.5192386666666
  0
LINE
  8
_0-3_0-10
  6
CONTINUOUS
 62
    7
 10
114.3354520327572
 20
135.5192386666666
 11
114.41377869942394
 21
133.9341039999999
  0
LINE
  8
_0-3_0-10
  6
CONTINUOUS
 62
    7
 10
114.41377869942394
 20
133.9341039999999
 11
114.48246536609053
 21
132.3503839999999
  0
LINE
  8
_0-3_0-10
  6
CONTINUOUS
 62
    7
 10
114.48246536609053
 20
132.3503839999999
 11
114.53497869942393
 21
130.76957466666669
  0
LINE
  8
_0-3_0-10
  6
CONTINUOUS
 62
    7
 10
114.53497869942393
 20
130.76957466666669
 11
114.56478403275721
 21
129.19317866666651
  0
LINE
  8
_0-3_0-10
  6
CONTINUOUS
 62
    7
 10
114.56478403275721
 20
129.19317866666651
 11
114.56534936609054
 21
127.6226946666665
  0
LINE
  8
_0-3_0-10
  6
CONTINUOUS
 62
    7
 10
114.56534936609054
 20
127.6226946666665
 11
114.53014136609053
 21
126.05962133333332
  0
LINE
  8
_0-3_0-10
  6
CONTINUOUS
 62
    7
 10
114.53014136609053
 20
126.05962133333332
 11
114.45262536609064
 21
124.50545999999991
  0
LINE
  8
_0-3_0-10
  6
CONTINUOUS
 62
    7
 10
114.45262536609064
 20
124.50545999999991
 11
114.32626803275724
 21
122.9617093333332
  0
LINE
  8
_0-3_0-10
  6
CONTINUOUS
 62
    7
 10
114.32626803275724
 20
122.9617093333332
 11
114.14453736609053
 21
121.42986799999991
  0
LINE
  8
_0-3_0-10
  6
CONTINUOUS
 62
    7
 10
114.14453736609053
 20
121.42986799999991
 11
113.84264669942392
 21
119.58413066666662
  0
LINE
  8
_0-3_0-10
  6
CONTINUOUS
 62
    7
 10
113.84264669942392
 20
119.58413066666662
 11
113.45680136609053
 21
117.7564866666665
  0
LINE
  8
_0-3_0-10
  6
CONTINUOUS
 62
    7
 10
113.45680136609053
 20
117.7564866666665
 11
112.99463603275721
 21
115.94519466666662
  0
LINE
  8
_0-3_0-10
  6
CONTINUOUS
 62
    7
 10
112.99463603275721
 20
115.94519466666662
 11
112.46378669942393
 21
114.14850933333319
  0
LINE
  8
_0-3_0-10
  6
CONTINUOUS
 62
    7
 10
112.46378669942393
 20
114.14850933333319
 11
111.87188803275722
 21
112.36468666666661
  0
LINE
  8
_0-3_0-10
  6
CONTINUOUS
 62
    7
 10
111.87188803275722
 20
112.36468666666661
 11
111.22657469942393
 21
110.59197999999992
  0
LINE
  8
_0-3_0-10
  6
CONTINUOUS
 62
    7
 10
111.22657469942393
 20
110.59197999999992
 11
110.53548136609063
 21
108.8286479999999
  0
LINE
  8
_0-3_0-10
  6
CONTINUOUS
 62
    7
 10
110.53548136609063
 20
108.8286479999999
 11
109.80624269942393
 21
107.07294533333322
  0
LINE
  8
_0-3_0-10
  6
CONTINUOUS
 62
    7
 10
109.80624269942393
 20
107.07294533333322
 11
109.04649336609054
 21
105.32312666666652
  0
LINE
  8
_0-3_0-10
  6
CONTINUOUS
 62
    7
 10
109.04649336609054
 20
105.32312666666652
 11
108.2638693660905
 21
103.5774479999998
  0
LINE
  8
_0-3_0-10
  6
CONTINUOUS
 62
    7
 10
108.2638693660905
 20
103.5774479999998
 11
107.46600536609054
 21
101.83416533333331
  0
LINE
  8
_0-3_0-10
  6
CONTINUOUS
 62
    7
 10
107.46600536609054
 20
101.83416533333331
 11
106.66053603275722
 21
100.0915346666665
  0
LINE
  8
_0-3_0-10
  6
CONTINUOUS
 62
    7
 10
106.66053603275722
 20
100.0915346666665
 11
105.85509469942394
 21
98.347810666666617
  0
LINE
  8
_0-3_0-10
  6
CONTINUOUS
 62
    7
 10
105.85509469942394
 20
98.347810666666617
 11
105.05731869942391
 21
96.601247999999912
  0
LINE
  8
_0-3_0-10
  6
CONTINUOUS
 62
    7
 10
105.05731869942391
 20
96.601247999999912
 11
104.27484136609051
 21
94.850103999999902
  0
LINE
  8
_0-3_0-10
  6
CONTINUOUS
 62
    7
 10
104.27484136609051
 20
94.850103999999902
 11
103.51529869942393
 21
93.092634666666612
  0
LINE
  8
_0-3_0-10
  6
CONTINUOUS
 62
    7
 10
103.51529869942393
 20
93.092634666666612
 11
102.78632403275722
 21
91.327093333333309
  0
LINE
  8
_0-3_0-10
  6
CONTINUOUS
 62
    7
 10
102.78632403275722
 20
91.327093333333309
 11
102.09555203275724
 21
89.551737333331914
  0
LINE
  8
_0-3_0-10
  6
CONTINUOUS
 62
    7
 10
102.09555203275724
 20
89.551737333331914
 11
101.45062003275721
 21
87.764822666666617
  0
LINE
  8
_0-3_0-10
  6
CONTINUOUS
 62
    7
 10
101.45062003275721
 20
87.764822666666617
 11
100.8591613660905
 21
85.964602666666507
  0
LINE
  8
_0-3_0-10
  6
CONTINUOUS
 62
    7
 10
100.8591613660905
 20
85.964602666666507
 11
100.32881069942382
 21
84.149334666666618
  0
LINE
  8
_0-3_0-10
  6
CONTINUOUS
 62
    7
 10
100.32881069942382
 20
84.149334666666618
 11
100.15956536609053
 21
83.512649333333314
  0
LINE
  8
_0-3_0-10
  6
CONTINUOUS
 62
    7
 10
100.15956536609053
 20
83.512649333333314
 11
99.998277366090519
 21
82.874019999999916
  0
LINE
  8
_0-3_0-10
  6
CONTINUOUS
 62
    7
 10
99.998277366090519
 20
82.874019999999916
 11
99.844549366090632
 21
82.233543999999909
  0
LINE
  8
_0-3_0-10
  6
CONTINUOUS
 62
    7
 10
99.844549366090632
 20
82.233543999999909
 11
99.697982699423931
 21
52.091318666666523
  0
LINE
  8
_0-3_0-10
  6
CONTINUOUS
 62
    7
 10
99.697982699423931
 20
52.091318666666523
 11
99.558180032757235
 21
51.447441333333216
  0
LINE
  8
_0-3_0-10
  6
CONTINUOUS
 62
    7
 10
99.558180032757235
 20
51.447441333333216
 11
99.424742699423944
 21
50.802009333333302
  0
LINE
  8
_0-3_0-10
  6
CONTINUOUS
 62
    7
 10
99.424742699423944
 20
50.802009333333302
 11
99.297273366090621
 21
50.155118666666538
  0
LINE
  8
_0-3_0-10
  6
CONTINUOUS
 62
    7
 10
99.297273366090621
 20
50.155118666666538
 11
99.175374699423826
 21
49.506866666666567
  0
LINE
  8
_0-3_0-10
  6
CONTINUOUS
 62
    7
 10
99.175374699423826
 20
49.506866666666567
 11
99.058648032757218
 21
48.857351999999963
  0
LINE
  8
_0-3_0-10
  6
CONTINUOUS
 62
    7
 10
99.058648032757218
 20
48.857351999999963
 11
98.946696032757216
 21
48.206670666666553
  0
LINE
  8
_0-3_0-10
  6
CONTINUOUS
 62
    7
 10
98.946696032757216
 20
48.206670666666553
 11
98.839120032757222
 21
47.554921333333226
  0
LINE
  8
_0-3_0-10
  6
CONTINUOUS
 62
    7
 10
98.839120032757222
 20
47.554921333333226
 11
98.735522699423938
 21
46.902198666666521
  0
LINE
  8
_0-3_0-10
  6
CONTINUOUS
 62
    7
 10
98.735522699423938
 20
46.902198666666521
 11
98.635506699423842
 21
46.248602666666641
  0
LINE
  8
_0-3_0-10
  6
CONTINUOUS
 62
    7
 10
98.635506699423842
 20
46.248602666666641
 11
98.53867336609062
 21
45.594227999999887
  0
LINE
  8
_0-3_0-10
  6
CONTINUOUS
 62
    7
 10
98.53867336609062
 20
45.594227999999887
 11
98.444625366090519
 21
44.939173333333286
  0
LINE
  8
_0-3_0-10
  6
CONTINUOUS
 62
    7
 10
98.444625366090519
 20
44.939173333333286
 11
98.352964032757228
 21
44.283534666666554
  0
LINE
  8
_0-3_0-10
  6
CONTINUOUS
 62
    7
 10
98.352964032757228
 20
44.283534666666554
 11
98.26329203275722
 21
43.627411999999907
  0
LINE
  8
_0-3_0-10
  6
CONTINUOUS
 62
    7
 10
98.26329203275722
 20
43.627411999999907
 11
98.175212032757229
 21
42.970898666666556
  0
LINE
  8
_0-3_0-10
  6
CONTINUOUS
 62
    7
 10
98.175212032757229
 20
42.970898666666556
 11
98.088325366090543
 21
42.314094666666576
  0
LINE
  8
_0-3_0-10
  6
CONTINUOUS
 62
    7
 10
98.088325366090543
 20
42.314094666666576
 11
98.002234699423922
 21
41.657095999999881
  0
LINE
  8
_0-3_0-10
  6
CONTINUOUS
 62
    7
 10
98.002234699423922
 20
41.657095999999881
 11
97.916541366090626
 21
40.999999999999857
  0
LINE
  8
_0-3_0-10
  6
CONTINUOUS
 62
    3
 10
204.27602936609062
 20
40.999999999999857
 11
17.776029366090597
 21
40.999999999999857
  0
LINE
  8
_0-3_0-10
  6
CONTINUOUS
 62
    3
 10
157.66236536609062
 20
246.99999999999982
 11
17.776029366090597
 21
246.99999999999982
  0
LINE
  8
_0-3_0-10
  6
CONTINUOUS
 62
    5
 10
132.09978046726072
 20
228.12467288082069
 11
191.59559469942394
 21
222.91946133333311
  0
LINE
  8
_0-3_0-10
  6
CONTINUOUS
 62
    5
 10
158.16265869942392
 20
230.56086133333309
 11
189.01650803275734
 21
227.8614999999998
  0
LINE
  8
_0-3_0-10
  6
CONTINUOUS
 62
    5
 10
132.17689200591613
 20
232.96373137302759
 11
189.02774403275722
 21
227.98992533333313
  0
LINE
  8
_0-3_0-10
  6
CONTINUOUS
 62
    5
 10
132.06931534621404
 20
238.232891819585
 11
203.52602936609062
 21
231.98123866666639
  0
LINE
  8
_0-3_0-10
  6
CONTINUOUS
 62
    5
 10
191.75486003275722
 20
224.73987466666653
 11
191.59559469942394
 21
222.91946133333311
  0
LINE
  8
_0-3_0-10
  6
CONTINUOUS
 62
    5
 10
204.02602936609062
 20
246.99999999999982
 11
157.66236536609062
 21
246.99999999999982
  0
LINE
  8
_0-3_0-10
  6
CONTINUOUS
 62
    5
 10
192.29122536609062
 20
224.23237466666643
 11
203.52602936609062
 21
223.24945733333311
  0
LINE
  8
_0-3_0-10
  6
CONTINUOUS
 62
    5
 10
192.24788803275723
 20
223.75406399999968
 11
203.48245069942393
 21
222.77116666666643
  0
ARC
  8
_0-3_0-10
  6
CONTINUOUS
 62
    5
 10
192.23893203275733
 20
223.63465866666649
 40
0.5999999999999997
 50
85.000000000000227
 51
159.63548999999829
  0
ARC
  8
_0-3_0-10
  6
CONTINUOUS
 62
    5
 10
192.19559469942393
 20
223.15634666666642
 40
0.5999999999999997
 50
85.000000000000227
 51
159.1091209999991
  0
ARC
  8
_0-3_0-10
  6
CONTINUOUS
 62
    5
 10
188.75504003275722
 20
224.87291599999969
 40
3
 50
355.00000000000011
 51
85.000000000000227
  0
ARC
  8
_0-3_0-10
  6
CONTINUOUS
 62
    5
 10
188.76627603275733
 20
225.00134133333313
 40
3
 50
355.00000000000011
 51
85.000000000000227
  0
LINE
  8
_0-3_0-10
  6
CONTINUOUS
 62
    5
 10
204.02602936609062
 20
246.99999999999982
 11
204.02602936609062
 21
223.2692639999999
  0
LINE
  8
_0-3_0-10
  6
CONTINUOUS
 62
    5
 10
203.52602936609062
 20
246.99999999999982
 11
203.52602936609062
 21
223.24945733333311
  0
ARC
  8
_0-3_0-10
  6
CONTINUOUS
 62
    5
 10
203.52602936609062
 20
223.2692639999999
 40
0.5
 50
265.00000000000022
 51
0
  0
LINE
  8
_0-3_0-10
  6
CONTINUOUS
 62
    5
 10
203.52602936609062
 20
227.74548266666653
 11
204.02602936609062
 21
227.74548266666653
  0
LINE
  8
_0-3_0-10
  6
CONTINUOUS
 62
    5
 10
203.52602936609062
 20
235.41233866666641
 11
204.02602936609062
 21
235.41233866666641
  0
LINE
  8
_0-3_0-10
  6
CONTINUOUS
 62
    7
 10
209.27602936609054
 20
178.5
 11
218.35765550748664
 21
166.03596471175191
  0
TEXT
  8
_0-3_0-10
 62
    7
 10
221.29603066994263
 20
167.58434013187061
 40
3.1199999999999992
 41
1
 50
0
  1
2-φ4.3
  0
LINE
  8
_0-3_0-10
  6
CONTINUOUS
 62
    7
 10
240.07585345392521
 20
166.03596471175191
 11
218.35765550748664
 21
166.03596471175191
  0
INSERT
  2
-037-_D37
  8
_0-0_0
 10
-50.999999022111069
 20
-35.499999308492988
 41
1
 42
1
 50
0
  0
INSERT
  2
-038-_D38
  8
_0-0_0
 10
-50.999999022111069
 20
-35.499999308492988
 41
1
 42
1
 50
0
  0
INSERT
  2
-039-_D39
  8
_0-0_0
 10
-50.999999022111069
 20
-35.499999308492988
 41
1
 42
1
 50
0
  0
CIRCLE
  8
_0-3_0-10
  6
CONTINUOUS
 62
    3
 10
209.27602936609054
 20
178.49999999999991
 40
2.149999999999999
  0
TEXT
  8
_0-1_0-00
 62
    7
 10
228.1250012223611
 20
-25.637499135616224
 40
4.875
 41
1
 50
0
  1
マックス株式会社
  0
TEXT
  8
_0-1_0-00
 62
    7
 10
308.54125122236121
 20
-25.637499135616224
 40
4.875
 41
1
 50
0
  1
2024/1/9
  0
TEXT
  8
_0-1_0-00
 62
    7
 10
371.87500122236122
 20
-21.982499135616251
 40
2.9249999999999989
 41
1
 50
0
  1
名称
  0
TEXT
  8
_0-1_0-00
 62
    7
 10
296.8750012223611
 20
-21.982499135616251
 40
2.9249999999999989
 41
1
 50
0
  1
日付
  0
ARC
  8
_0-3_0-10
  6
CONTINUOUS
 62
    4
 10
112.13943142794622
 20
148.5
 40
82.963917525773183
 50
261.42407869909288
 51
306.86989800000071
  0
LINE
  8
_0-3_0-10
  6
CONTINUOUS
 62
    4
 10
131.31051471677793
 20
219.50515463917531
 11
148.01572008774013
 21
219.50515463917531
  0
LINE
  8
_0-3_0-10
  6
CONTINUOUS
 62
    4
 10
131.21379530901722
 20
218.85786865979392
 11
148.01572008774013
 21
218.85786865979392
  0
LINE
  8
_0-3_0-10
  6
CONTINUOUS
 62
    4
 10
131.01568948426572
 20
201.56701030927831
 11
166.00842826643432
 21
201.56701030927831
  0
LINE
  8
_0-3_0-10
  6
CONTINUOUS
 62
    4
 10
131.00839965345193
 20
200.91972432989692
 11
166.00842826643432
 21
200.91972432989692
  0
LINE
  8
_0-3_0-10
  6
CONTINUOUS
 62
    4
 10
131.08723895854942
 20
207.9201030927835
 11
156.29281239014562
 21
207.9201030927835
  0
LINE
  8
_0-3_0-10
  6
CONTINUOUS
 62
    4
 10
130.76768727188184
 20
189.98195876288662
 11
171.51624180595322
 21
189.98195876288662
  0
LINE
  8
_0-3_0-10
  6
CONTINUOUS
 62
    4
 10
129.02386989586014
 20
183.6288659793814
 11
175.28502599839302
 21
183.6288659793814
  0
LINE
  8
_0-3_0-10
  6
CONTINUOUS
 62
    4
 10
128.78204607622862
 20
182.9815799999998
 11
175.28502599839302
 21
182.98157999999992
  0
LINE
  8
_0-3_0-10
  6
CONTINUOUS
 62
    4
 10
123.40739436101694
 20
172.04381443298962
 11
179.76059699495664
 21
172.0438144329897
  0
LINE
  8
_0-3_0-10
  6
CONTINUOUS
 62
    4
 10
119.81482935677914
 20
165.69072164948451
 11
179.63502998464733
 21
165.69072164948451
  0
LINE
  8
_0-3_0-10
  6
CONTINUOUS
 62
    4
 10
119.46495480170642
 20
165.04343567010292
 11
179.63502998464733
 21
165.043435670103
  0
LINE
  8
_0-3_0-10
  6
CONTINUOUS
 62
    4
 10
115.02186109354082
 20
154.1056701030927
 11
182.71186022519722
 21
154.1056701030927
  0
LINE
  8
_0-3_0-10
  6
CONTINUOUS
 62
    4
 10
114.12931223209443
 20
147.7525773195876
 11
180.10508311179512
 21
147.7525773195876
  0
LINE
  8
_0-3_0-10
  6
CONTINUOUS
 62
    4
 10
114.09584498497844
 20
147.105291340206
 11
180.10508311179512
 21
147.105291340206
  0
LINE
  8
_0-3_0-10
  6
CONTINUOUS
 62
    4
 10
114.30214564427544
 20
136.16752577319581
 11
181.83148400526582
 21
136.16752577319581
  0
LINE
  8
_0-3_0-10
  6
CONTINUOUS
 62
    4
 10
114.55303781405172
 20
129.81443298969071
 11
175.89493486437243
 21
129.81443298969071
  0
LINE
  8
_0-3_0-10
  6
CONTINUOUS
 62
    4
 10
114.56479340347542
 20
129.16714701030912
 11
175.89493486437243
 21
129.16714701030912
  0
LINE
  8
_0-3_0-10
  6
CONTINUOUS
 62
    4
 10
113.55663713428242
 20
118.2293814432989
 11
176.58592613585003
 21
118.2293814432989
  0
LINE
  8
_0-3_0-10
  6
CONTINUOUS
 62
    4
 10
111.69409790439871
 20
111.8762886597936
 11
165.74990373035183
 21
111.8762886597936
  0
LINE
  8
_0-3_0-10
  6
CONTINUOUS
 62
    4
 10
111.45846824223932
 20
111.22900268041219
 11
165.74990373035183
 21
111.22900268041219
  0
LINE
  8
_0-3_0-10
  6
CONTINUOUS
 62
    4
 10
106.75284141892643
 20
100.2912371134019
 11
166.05216544856483
 21
100.2912371134019
  0
LINE
  8
_0-3_0-10
  6
CONTINUOUS
 62
    4
 10
103.88071085889761
 20
93.938144329896715
 11
143.37535135921771
 21
93.938144329896715
  0
LINE
  8
_0-3_0-10
  6
CONTINUOUS
 62
    4
 10
103.60096696263133
 20
93.290858350515321
 11
143.37535135921771
 21
93.290858350515321
  0
LINE
  8
_0-3_0-10
  6
CONTINUOUS
 62
    4
 10
99.873243642520435
 20
82.353092783505005
 11
147.35751575784323
 21
82.353092783505005
  0
ARC
  8
_0-3_0-10
  6
CONTINUOUS
 62
    4
 10
112.13943142794622
 20
148.5
 40
82.963917525773183
 50
261.42407869909288
 51
72.705860587864719
  0
ARC
  8
_0-3_0-10
  6
CONTINUOUS
 62
    4
 10
112.13943142794622
 20
148.5
 40
82.963917525773183
 50
35.781761000000841
 51
46.365534999998693
  0
LINE
  8
_0-3_0-10
  6
CONTINUOUS
 62
    7
 10
156.30698950354772
 20
82.726804123711104
 11
149.58018537983622
 21
82.726804123711104
  0
LINE
  8
_0-3_0-10
  6
CONTINUOUS
 62
    4
 10
161.46932833516274
 20
83.474226804123517
 11
157.95954902244804
 21
83.474226804123517
  0
LINE
  8
_0-3_0-10
  6
CONTINUOUS
 62
    4
 10
168.15126915990512
 20
87.95876288659771
 11
163.06818702932093
 21
87.95876288659771
  0
LINE
  8
_0-3_0-10
  6
CONTINUOUS
 62
    7
 10
174.74664847261982
 20
100.664948453608
 11
168.01984434890852
 21
100.664948453608
  0
LINE
  8
_0-3_0-10
  6
CONTINUOUS
 62
    4
 10
178.71629204650312
 20
101.4123711340204
 11
176.31176751042053
 21
101.4123711340204
  0
LINE
  8
_0-3_0-10
  6
CONTINUOUS
 62
    4
 10
182.39080132485364
 20
105.89690721649461
 11
178.96456792279164
 21
105.89690721649461
  0
LINE
  8
_0-3_0-10
  6
CONTINUOUS
 62
    4
 10
190.24420661694983
 20
123.83505154639172
 11
188.18896764787763
 21
123.83505154639172
  0
LINE
  8
_0-3_0-10
  6
CONTINUOUS
 62
    4
 10
188.28856022519713
 20
119.3505154639175
 11
186.31654228705284
 21
119.3505154639175
  0
LINE
  8
_0-3_0-10
  6
CONTINUOUS
 62
    7
 10
185.08714558602193
 20
118.6030927835051
 11
178.36034146231054
 21
118.6030927835051
  0
LINE
  8
_0-3_0-10
  6
CONTINUOUS
 62
    4
 10
193.58038455509412
 20
141.77319587628861
 11
191.78664586093603
 21
141.77319587628861
  0
LINE
  8
_0-3_0-10
  6
CONTINUOUS
 62
    7
 10
190.10192723550642
 20
136.54123711340201
 11
183.37512311179511
 21
136.54123711340201
  0
LINE
  8
_0-3_0-10
  6
CONTINUOUS
 62
    4
 10
192.96067548292913
 20
159.71134020618552
 11
190.51738861007692
 21
159.71134020618552
  0
LINE
  8
_0-3_0-10
  6
CONTINUOUS
 62
    7
 10
190.76288407399442
 20
154.4793814432989
 11
184.03607995028312
 21
154.4793814432989
  0
LINE
  8
_0-3_0-10
  6
CONTINUOUS
 62
    4
 10
190.24420661694983
 20
173.16494845360821
 11
188.26433775097032
 21
173.16494845360821
  0
LINE
  8
_0-3_0-10
  6
CONTINUOUS
 62
    7
 10
187.49725486437242
 20
172.4175257731959
 11
180.77045074066111
 21
172.4175257731959
  0
LINE
  8
_0-3_0-10
  6
CONTINUOUS
 62
    4
 10
178.71629204650312
 20
195.58762886597941
 11
175.70637905681223
 21
195.58762886597941
  0
LINE
  8
_0-3_0-10
  6
CONTINUOUS
 62
    7
 10
179.00199885062673
 20
190.35567010309281
 11
172.27519472691534
 21
190.35567010309281
  0
LINE
  8
_0-3_0-10
  6
CONTINUOUS
 62
    4
 10
161.46932833516274
 20
213.52577319587621
 11
160.02992579220753
 21
213.52577319587621
  0
LINE
  8
_0-3_0-10
  6
CONTINUOUS
 62
    4
 10
168.15126915990512
 20
209.04123711340201
 11
164.10515926299774
 21
209.04123711340201
  0
LINE
  8
_0-3_0-10
  6
CONTINUOUS
 62
    7
 10
163.76703919426932
 20
208.2938144329897
 11
157.04023507055802
 21
208.2938144329897
  0
ARC
  8
_0-3_0-10
  6
CONTINUOUS
 62
    4
 10
112.13943142794622
 20
148.5
 40
82.963917525773183
 50
313.63446500000128
 51
324.21823899999907
  0
ARC
  8
_0-3_0-10
  6
CONTINUOUS
 62
    4
 10
112.13943142794622
 20
148.5
 40
82.963917525773183
 50
329.75646699999867
 51
338.36988900000051
  0
ARC
  8
_0-3_0-10
  6
CONTINUOUS
 62
    4
 10
112.13943142794622
 20
148.5
 40
82.963917525773183
 50
8.7275869999981559
 51
16.523205999999799
  0
LINE
  8
_0-3_0-10
  6
CONTINUOUS
 62
    4
 10
157.04023507055802
 20
210.53608247422681
 11
157.04023507055802
 21
208.2938144329897
  0
LINE
  8
_0-3_0-10
  6
CONTINUOUS
 62
    4
 10
172.76210771660612
 20
193.11709395188989
 11
172.27519472691534
 21
190.35567010309281
  0
LINE
  8
_0-3_0-10
  6
CONTINUOUS
 62
    4
 10
187.08203465818692
 20
158.10940810996561
 11
184.03607995028312
 21
154.4793814432989
  0
ARC
  8
_0-3_0-10
  6
CONTINUOUS
 62
    4
 10
160.02992579220753
 20
210.53608247422681
 40
2.9896907216494841
 50
90
 51
180
  0
LINE
  8
_0-3_0-10
  6
CONTINUOUS
 62
    4
 10
178.99348022519723
 20
190.45304233676981
 11
179.00199885062673
 21
190.35567010309281
  0
ARC
  8
_0-3_0-10
  6
CONTINUOUS
 62
    4
 10
175.70637905681223
 20
192.5979381443299
 40
2.9896907216494841
 50
90
 51
170.0000000000013
  0
LINE
  8
_0-3_0-10
  6
CONTINUOUS
 62
    4
 10
187.53607300870231
 20
172.58565999999981
 11
187.49725486437242
 21
172.4175257731959
  0
LINE
  8
_0-3_0-10
  6
CONTINUOUS
 62
    4
 10
190.84818792279173
 20
154.6803464604809
 11
190.76288407399442
 21
154.4793814432989
  0
LINE
  8
_0-3_0-10
  6
CONTINUOUS
 62
    4
 10
187.94317321488793
 20
140.37428769759441
 11
183.37512311179511
 21
136.54123711340201
  0
LINE
  8
_0-3_0-10
  6
CONTINUOUS
 62
    4
 10
183.90192654822124
 20
122.48335257731952
 11
178.36034146231054
 21
118.6030927835051
  0
LINE
  8
_0-3_0-10
  6
CONTINUOUS
 62
    4
 10
190.26160263069553
 20
136.7967719587628
 11
190.10192723550642
 21
136.54123711340201
  0
ARC
  8
_0-3_0-10
  6
CONTINUOUS
 62
    4
 10
190.51738861007692
 20
155.2268041237113
 40
4.4845360824742259
 50
90
 51
139.99999999999968
  0
ARC
  8
_0-3_0-10
  6
CONTINUOUS
 62
    4
 10
191.78664586093603
 20
135.79381443298962
 40
5.9793814432989691
 50
90
 51
130.00000000000281
  0
LINE
  8
_0-3_0-10
  6
CONTINUOUS
 62
    4
 10
174.21168517365083
 20
104.53404075601361
 11
168.01984434890852
 21
100.664948453608
  0
LINE
  8
_0-3_0-10
  6
CONTINUOUS
 62
    4
 10
157.82581218396003
 20
86.748466323023905
 11
149.58018537983622
 21
82.726804123711104
  0
ARC
  8
_0-3_0-10
  6
CONTINUOUS
 62
    4
 10
188.18896764787763
 20
116.36082474226802
 40
7.4742268041237114
 50
90
 51
124.99999999999721
  0
LINE
  8
_0-3_0-10
  6
CONTINUOUS
 62
    4
 10
185.45630063756831
 20
118.98536460480892
 11
185.08714558602193
 21
118.6030927835051
  0
ARC
  8
_0-3_0-10
  6
CONTINUOUS
 62
    4
 10
178.96456792279164
 20
96.927835051546225
 40
8.9690721649484537
 50
90
 51
121.99999999999768
  0
LINE
  8
_0-3_0-10
  6
CONTINUOUS
 62
    4
 10
175.47586194341022
 20
101.15680838487961
 11
174.74664847261982
 21
100.664948453608
  0
ARC
  8
_0-3_0-10
  6
CONTINUOUS
 62
    4
 10
163.06818702932093
 20
75.999999999999815
 40
11.95876288659794
 50
90
 51
116.00000000000197
  0
ARC
  8
_0-3_0-10
  6
CONTINUOUS
 62
    4
 10
161.46932833516274
 20
214.27319587628861
 40
0.7474226804123712
 50
270
 51
53.13010199999934
  0
ARC
  8
_0-3_0-10
  6
CONTINUOUS
 62
    4
 10
178.71629204650312
 20
196.4845360824741
 40
0.896907216494845
 50
270
 51
35.781761000000841
  0
ARC
  8
_0-3_0-10
  6
CONTINUOUS
 62
    4
 10
192.96067548292913
 20
160.90721649484521
 40
1.1958762886597928
 50
270
 51
8.727586999998147
  0
ARC
  8
_0-3_0-10
  6
CONTINUOUS
 62
    4
 10
193.58038455509412
 20
143.11855670103091
 40
1.3453608247422679
 50
270
 51
356.21951400000028
  0
ARC
  8
_0-3_0-10
  6
CONTINUOUS
 62
    4
 10
190.24420661694983
 20
125.32989690721639
 40
1.494845360824742
 50
270
 51
343.47679400000021
  0
ARC
  8
_0-3_0-10
  6
CONTINUOUS
 62
    4
 10
182.39080132485364
 20
107.5412371134019
 40
1.6443298969072159
 50
270
 51
329.75646699999867
  0
ARC
  8
_0-3_0-10
  6
CONTINUOUS
 62
    4
 10
168.15126915990512
 20
89.752577319587516
 40
1.7938144329896898
 50
270
 51
313.63446500000128
  0
ARC
  8
_0-3_0-10
  6
CONTINUOUS
 62
    4
 10
161.46932833516274
 20
82.726804123711104
 40
0.7474226804123712
 50
306.86989800000071
 51
90
  0
ARC
  8
_0-3_0-10
  6
CONTINUOUS
 62
    4
 10
178.71629204650312
 20
100.51546391752572
 40
0.896907216494845
 50
324.21823899999907
 51
89.999999999999928
  0
ARC
  8
_0-3_0-10
  6
CONTINUOUS
 62
    4
 10
188.28856022519713
 20
118.3041237113382
 40
1.0463917525773189
 50
338.36988900000051
 51
90.000000000000014
  0
ARC
  8
_0-3_0-10
  6
CONTINUOUS
 62
    4
 10
190.24420661694983
 20
171.6701030927835
 40
1.494845360824742
 50
16.523205999999802
 51
90
  0
ARC
  8
_0-3_0-10
  6
CONTINUOUS
 62
    4
 10
168.15126915990512
 20
207.24742268041251
 40
1.7938144329896898
 50
46.3655349999987
 51
90
  0
ARC
  8
_0-3_0-10
  6
CONTINUOUS
 62
    4
 10
164.10515926299774
 20
208.5927835051545
 40
0.4484536082474224
 50
90
 51
214.99999999999749
  0
ARC
  8
_0-3_0-10
  6
CONTINUOUS
 62
    4
 10
179.58914421145144
 20
190.50515463917511
 40
0.597938144329897
 50
90
 51
185
  0
ARC
  8
_0-3_0-10
  6
CONTINUOUS
 62
    4
 10
188.26433775097032
 20
172.4175257731959
 40
0.7474226804123712
 50
90
 51
166.99999999999968
  0
ARC
  8
_0-3_0-10
  6
CONTINUOUS
 62
    4
 10
191.67379699495663
 20
154.3298969072164
 40
0.896907216494845
 50
90
 51
157.00000000000071
  0
ARC
  8
_0-3_0-10
  6
CONTINUOUS
 62
    4
 10
191.14899266505983
 20
136.24226804123702
 40
1.0463917525773189
 50
90
 51
147.99999999999761
  0
ARC
  8
_0-3_0-10
  6
CONTINUOUS
 62
    4
 10
186.31654228705284
 20
118.15463917525761
 40
1.1958762886597928
 50
90
 51
135.99999999999729
  0
ARC
  8
_0-3_0-10
  6
CONTINUOUS
 62
    4
 10
176.31176751042053
 20
99.917525773195706
 40
1.494845360824742
 50
90
 51
123.999999999999
  0
ARC
  8
_0-3_0-10
  6
CONTINUOUS
 62
    4
 10
157.95954902244804
 20
81.680412371132007
 40
1.7938144329896898
 50
90
 51
124.43955700000381
  0
INSERT
  2
-030-BLKF018_35
  8
_0-3_0-10
 10
-74.672876200919688
 20
-208.18413072164946
 41
1.993127147766323
 42
1.993127147766323
 50
0
  0
INSERT
  2
-004-BLKF019_2
  8
_0-3_0-10
 10
-74.672876200919688
 20
-208.18413072164946
 41
1.993127147766323
 42
1.993127147766323
 50
0
  0
LINE
  8
_0-3_0-10
  6
CONTINUOUS
 62
    4
 10
151.00541080938964
 20
220.99999352443148
 11
151.00541080938964
 21
220.3527140206186
  0
INSERT
  2
-005-BLKF020_3
  8
_0-3_0-10
 10
-74.672876200919688
 20
-208.18413072164946
 41
1.993127147766323
 42
1.993127147766323
 50
0
  0
INSERT
  2
-006-BLKF021_4
  8
_0-3_0-10
 10
-74.672876200919688
 20
-208.18413072164946
 41
1.993127147766323
 42
1.993127147766323
 50
0
  0
LINE
  8
_0-3_0-10
  6
CONTINUOUS
 62
    4
 10
163.76703919426932
 20
208.2938144329897
 11
169.06969218396002
 21
204.50732728522311
  0
LINE
  8
_0-3_0-10
  6
CONTINUOUS
 62
    4
 10
169.74554166849614
 20
203.43556701030919
 11
169.74554166849614
 21
202.78828103092791
  0
INSERT
  2
-007-BLKF022_5
  8
_0-3_0-10
 10
-74.672876200919688
 20
-208.18413072164946
 41
1.993127147766323
 42
1.993127147766323
 50
0
  0
INSERT
  2
-008-BLKF023_6
  8
_0-3_0-10
 10
-74.672876200919688
 20
-208.18413072164946
 41
1.993127147766323
 42
1.993127147766323
 50
0
  0
INSERT
  2
-009-BLKF024_7
  8
_0-3_0-10
 10
-74.672876200919688
 20
-208.18413072164946
 41
1.993127147766323
 42
1.993127147766323
 50
0
  0
LINE
  8
_0-3_0-10
  6
CONTINUOUS
 62
    4
 10
179.00199885062673
 20
190.35567010309281
 11
179.75249692622813
 21
186.06656213058411
  0
LINE
  8
_0-3_0-10
  6
CONTINUOUS
 62
    4
 10
179.76956208086721
 20
185.87113402061851
 11
179.76956208086721
 21
185.24190378006872
  0
INSERT
  2
-010-BLKF025_8
  8
_0-3_0-10
 10
-74.672876200919688
 20
-208.18413072164946
 41
1.993127147766323
 42
1.993127147766323
 50
0
  0
LINE
  8
_0-3_0-10
  6
CONTINUOUS
 62
    4
 10
172.25230964100484
 20
190.2907758762885
 11
172.27519472691534
 21
190.35567010309281
  0
INSERT
  2
-011-BLKF026_9
  8
_0-3_0-10
 10
-74.672876200919688
 20
-208.18413072164946
 41
1.993127147766323
 42
1.993127147766323
 50
0
  0
INSERT
  2
-012-BLKF027_10
  8
_0-3_0-10
 10
-74.672876200919688
 20
-208.18413072164946
 41
1.993127147766323
 42
1.993127147766323
 50
0
  0
LINE
  8
_0-3_0-10
  6
CONTINUOUS
 62
    4
 10
185.46115988155452
 20
168.00787945017171
 11
187.49725486437242
 21
172.4175257731959
  0
LINE
  8
_0-3_0-10
  6
CONTINUOUS
 62
    4
 10
185.46115988155452
 20
167.3605914776632
 11
187.49725486437242
 21
171.77023979381431
  0
LINE
  8
_0-3_0-10
  6
CONTINUOUS
 62
    4
 10
187.49725486437242
 20
172.4175257731959
 11
187.49725486437242
 21
171.77023979381431
  0
INSERT
  2
-013-BLKF028_11
  8
_0-3_0-10
 10
-74.672876200919688
 20
-208.18413072164946
 41
1.993127147766323
 42
1.993127147766323
 50
0
  0
LINE
  8
_0-3_0-10
  6
CONTINUOUS
 62
    4
 10
180.72380558602193
 20
172.3625812371132
 11
180.77045074066111
 21
172.4175257731959
  0
INSERT
  2
-014-BLKF029_12
  8
_0-3_0-10
 10
-74.672876200919688
 20
-208.18413072164946
 41
1.993127147766323
 42
1.993127147766323
 50
0
  0
INSERT
  2
-015-BLKF030_13
  8
_0-3_0-10
 10
-74.672876200919688
 20
-208.18413072164946
 41
1.993127147766323
 42
1.993127147766323
 50
0
  0
LINE
  8
_0-3_0-10
  6
CONTINUOUS
 62
    4
 10
186.98514476127974
 20
150.02948391752562
 11
190.76288407399442
 21
154.4793814432989
  0
LINE
  8
_0-3_0-10
  6
CONTINUOUS
 62
    4
 10
186.98514476127974
 20
149.38219793814411
 11
190.76288407399442
 21
153.83209546391739
  0
LINE
  8
_0-3_0-10
  6
CONTINUOUS
 62
    4
 10
190.76288407399442
 20
154.4793814432989
 11
190.76288407399442
 21
153.83209546391739
  0
INSERT
  2
-016-BLKF031_14
  8
_0-3_0-10
 10
-74.672876200919688
 20
-208.18413072164946
 41
1.993127147766323
 42
1.993127147766323
 50
0
  0
LINE
  8
_0-3_0-10
  6
CONTINUOUS
 62
    4
 10
183.85697754478482
 20
154.37265945017171
 11
184.03607995028312
 21
154.4793814432989
  0
INSERT
  2
-017-BLKF032_15
  8
_0-3_0-10
 10
-74.672876200919688
 20
-208.18413072164946
 41
1.993127147766323
 42
1.993127147766323
 50
0
  0
INSERT
  2
-018-BLKF033_16
  8
_0-3_0-10
 10
-74.672876200919688
 20
-208.18413072164946
 41
1.993127147766323
 42
1.993127147766323
 50
0
  0
LINE
  8
_0-3_0-10
  6
CONTINUOUS
 62
    4
 10
184.76884118739653
 20
132.27387615120261
 11
190.10192723550642
 21
136.54123711340201
  0
LINE
  8
_0-3_0-10
  6
CONTINUOUS
 62
    4
 10
184.76884118739653
 20
131.6265901718211
 11
190.10192723550642
 21
135.89395113402039
  0
LINE
  8
_0-3_0-10
  6
CONTINUOUS
 62
    4
 10
190.10192723550642
 20
136.54123711340201
 11
190.10192723550642
 21
135.89395113402039
  0
INSERT
  2
-019-BLKF034_17
  8
_0-3_0-10
 10
-74.672876200919688
 20
-208.18413072164946
 41
1.993127147766323
 42
1.993127147766323
 50
0
  0
LINE
  8
_0-3_0-10
  6
CONTINUOUS
 62
    4
 10
182.98452599839302
 20
136.37736219931261
 11
183.37512311179511
 21
136.54123711340201
  0
INSERT
  2
-020-BLKF035_18
  8
_0-3_0-10
 10
-74.672876200919688
 20
-208.18413072164946
 41
1.993127147766323
 42
1.993127147766323
 50
0
  0
INSERT
  2
-021-BLKF036_19
  8
_0-3_0-10
 10
-74.672876200919688
 20
-208.18413072164946
 41
1.993127147766323
 42
1.993127147766323
 50
0
  0
LINE
  8
_0-3_0-10
  6
CONTINUOUS
 62
    4
 10
176.50292235578143
 20
114.1584810309277
 11
185.08714558602193
 21
118.6030927835051
  0
LINE
  8
_0-3_0-10
  6
CONTINUOUS
 62
    4
 10
176.50292235578143
 20
113.51119505154622
 11
185.08714558602193
 21
117.95580680412351
  0
LINE
  8
_0-3_0-10
  6
CONTINUOUS
 62
    4
 10
185.08714558602193
 20
118.6030927835051
 11
185.08714558602193
 21
117.95580680412351
  0
INSERT
  2
-022-BLKF037_20
  8
_0-3_0-10
 10
-74.672876200919688
 20
-208.18413072164946
 41
1.993127147766323
 42
1.993127147766323
 50
0
  0
LINE
  8
_0-3_0-10
  6
CONTINUOUS
 62
    4
 10
177.87203726987073
 20
118.4321362886597
 11
178.36034146231054
 21
118.6030927835051
  0
INSERT
  2
-023-BLKF038_21
  8
_0-3_0-10
 10
-74.672876200919688
 20
-208.18413072164946
 41
1.993127147766323
 42
1.993127147766323
 50
0
  0
INSERT
  2
-024-BLKF039_22
  8
_0-3_0-10
 10
-74.672876200919688
 20
-208.18413072164946
 41
1.993127147766323
 42
1.993127147766323
 50
0
  0
LINE
  8
_0-3_0-10
  6
CONTINUOUS
 62
    4
 10
164.27302441763703
 20
97.132674707903703
 11
174.74664847261982
 21
100.664948453608
  0
LINE
  8
_0-3_0-10
  6
CONTINUOUS
 62
    4
 10
164.27302441763703
 20
96.485388728522309
 11
174.74664847261982
 21
100.01766247422662
  0
LINE
  8
_0-3_0-10
  6
CONTINUOUS
 62
    4
 10
174.74664847261982
 20
100.664948453608
 11
174.74664847261982
 21
100.01766247422662
  0
INSERT
  2
-025-BLKF040_23
  8
_0-3_0-10
 10
-74.672876200919688
 20
-208.18413072164946
 41
1.993127147766323
 42
1.993127147766323
 50
0
  0
LINE
  8
_0-3_0-10
  6
CONTINUOUS
 62
    4
 10
167.47803067193262
 20
100.4956681786941
 11
168.01984434890852
 21
100.664948453608
  0
ARC
  8
_0-3_0-10
  6
CONTINUOUS
 62
    4
 10
112.13943142794622
 20
148.5
 40
79.226804123711346
 50
303.88187499999787
 51
304.43955700000384
  0
INSERT
  2
-026-BLKF041_24
  8
_0-3_0-10
 10
-74.672876200919688
 20
-208.18413072164946
 41
1.993127147766323
 42
1.993127147766323
 50
0
  0
INSERT
  2
-027-BLKF042_25
  8
_0-3_0-10
 10
-74.672876200919688
 20
-208.18413072164946
 41
1.993127147766323
 42
1.993127147766323
 50
0
  0
LINE
  8
_0-3_0-10
  6
CONTINUOUS
 62
    4
 10
156.30698751042064
 20
82.07952013745691
 11
156.30698751042064
 21
82.726804123711104
  0
INSERT
  2
-028-BLKF043_26
  8
_0-3_0-10
 10
-74.672876200919688
 20
-208.18413072164946
 41
1.993127147766323
 42
1.993127147766323
 50
0
  0
LINE
  8
_0-3_0-10
  6
CONTINUOUS
 62
    4
 10
148.66811046574693
 20
82.504381099656214
 11
149.58018537983622
 21
82.726804123711104
  0
ARC
  8
_0-3_0-10
  6
CONTINUOUS
 62
    4
 10
112.13943142794622
 20
148.5
 40
90.886597938144333
 50
262.15180955009088
 51
58.112391695611954
  0
LINE
  8
_0-3_0-10
  6
CONTINUOUS
 62
    4
 10
112.13943142794622
 20
75.999999999999815
 11
105.23436001901163
 21
76.150742199312617
  0
LINE
  8
_0-3_0-10
  6
CONTINUOUS
 62
    4
 10
105.23436001901163
 20
76.150742199312617
 11
99.816705804317024
 21
76.507365380061116
  0
INSERT
  2
-029-BLKF044_27
  8
_0-3_0-10
 10
-74.672876200919688
 20
-208.18413072164946
 41
1.993127147766323
 42
1.993127147766323
 50
0
  0
ARC
  8
_0-3_0-10
  6
CONTINUOUS
 62
    7
 10
112.13943142794622
 20
148.5
 40
88.195876288659803
 50
261.9194565566338
 51
61.795693811064637
  0
LINE
  8
_0-3_0-10
  6
CONTINUOUS
 62
    4
 10
149.42263266505972
 20
222.31898178694149
 11
143.18804922863353
 21
223.81069793814418
  0
LINE
  8
_0-3_0-10
  6
CONTINUOUS
 62
    4
 10
143.18804922863353
 20
223.81069793814418
 11
131.98940948144664
 21
225.91227852662768
  0
ARC
  8
_0-3_0-10
  6
CONTINUOUS
 62
    4
 10
182.39080132485364
 20
189.45876288659792
 40
1.6443298969072159
 50
30.243533000007438
 51
90.000000000006508
  0
LINE
  8
_0-3_0-10
  6
CONTINUOUS
 62
    4
 10
182.39080132485364
 20
191.1030927835051
 11
179.58914421145144
 21
191.1030927835051
  0
LINE
  8
_0-3_0-10
  6
CONTINUOUS
 62
    4
 10
180.77045074066111
 20
172.4175257731959
 11
182.21809430594191
 21
175.82795904393719
  0
ARC
  8
_0-3_0-10
  6
CONTINUOUS
 62
    4
 10
184.97011912554083
 20
174.65979381443301
 40
2.9896907216494841
 50
89.999999999993505
 51
156.99999999999536
  0
LINE
  8
_0-3_0-10
  6
CONTINUOUS
 62
    4
 10
184.97011912554083
 20
177.64948453608252
 11
188.28856022519713
 21
177.64948453608252
  0
ARC
  8
_0-3_0-10
  6
CONTINUOUS
 62
    4
 10
188.28858475418053
 20
178.69586082062372
 40
1.046376284830377
 50
269.99865688161617
 51
21.631330194684814
  0
ARC
  8
_0-3_0-10
  6
CONTINUOUS
 62
    4
 10
112.13943142794622
 20
148.5
 40
82.963917525773183
 50
21.630110999999491
 51
30.243532999998731
  0
ARC
  8
_0-3_0-10
  6
CONTINUOUS
 62
    4
 10
110.43187415005472
 20
148.4999990614603
 40
84.667833923230844
 50
356.29570313359101
 51
3.7042983683276902
  0
ARC
  8
_0-3_0-10
  6
CONTINUOUS
 62
    4
 10
193.58038455509412
 20
153.88144329896891
 40
1.3453608247422679
 50
3.7804860000062361
 51
90.000000000006508
  0
LINE
  8
_0-3_0-10
  6
CONTINUOUS
 62
    4
 10
193.58038455509412
 20
155.2268041237113
 11
191.67379699495663
 21
155.2268041237113
  0
ARC
  8
_0-3_0-10
  6
CONTINUOUS
 62
    4
 10
111.19378740236183
 20
148.7118140170476
 40
83.930777361991943
 50
343.52176565353448
 51
351.22744482619719
  0
ARC
  8
_0-3_0-10
  6
CONTINUOUS
 62
    4
 10
192.96067548292913
 20
136.0927835051545
 40
1.1958762886597928
 50
351.27241299999849
 51
89.999999999993477
  0
LINE
  8
_0-3_0-10
  6
CONTINUOUS
 62
    4
 10
192.96067548292913
 20
137.28865979381441
 11
191.14899266505983
 21
137.28865979381441
  0
LINE
  8
_0-3_0-10
  6
CONTINUOUS
 62
    4
 10
112.13188033334951
 20
75.352549177443208
 11
105.23436001901163
 21
75.503454226804109
  0
LINE
  8
_0-3_0-10
  6
CONTINUOUS
 62
    4
 10
105.23436001901163
 20
75.503454226804109
 11
99.813559375893618
 21
75.86028540826031
  0
LINE
  8
_0-3_0-10
  6
CONTINUOUS
 62
    3
 10
-43.750000000000113
 20
148.5
 11
-41.250000000000113
 21
148.5
  0
LINE
  8
_0-3_0-10
  6
CONTINUOUS
 62
    3
 10
463.75000000000011
 20
148.5
 11
461.25
 21
148.5
  0
LINE
  8
_0-1_0-00
  6
CONTINUOUS
 62
    6
 10
384.97928313529843
 20
226.8474323972602
 11
383.91531671063961
 21
226.233151328767
  0
ARC
  8
_0-1_0-00
  6
CONTINUOUS
 62
    6
 10
389.19125832707794
 20
219.55207834246562
 40
8.4239494101639831
 50
65.055983999996939
 51
120.00000000000046
  0
LINE
  8
_0-1_0-00
  6
CONTINUOUS
 62
    6
 10
406.05286931338071
 20
220.99999999999988
 11
392.74391123118755
 21
227.19024368493143
  0
LINE
  8
_0-1_0-00
  6
CONTINUOUS
 62
    6
 10
383.91531671063961
 20
226.233151328767
 11
384.28396055995472
 21
225.59464152054783
  0
LINE
  8
_0-1_0-00
  6
CONTINUOUS
 62
    6
 10
405.94265605310522
 20
220.50171232876573
 11
392.5337680394067
 21
226.7384362876711
  0
ARC
  8
_0-1_0-00
  6
CONTINUOUS
 62
    6
 10
389.19125832707794
 20
219.55207834246562
 40
7.925661738931109
 50
65.055983999996939
 51
120.00000000000046
  0
LINE
  8
_0-1_0-00
  6
CONTINUOUS
 62
    6
 10
385.22842697091493
 20
226.4159033150683
 11
384.16446054625731
 21
225.8016209178067
  0
LINE
  8
_0-1_0-00
  6
CONTINUOUS
 62
    6
 10
392.03946799831084
 20
225.3680069999998
 11
399.60507734077651
 21
220.99999999999988
  0
ARC
  8
_0-1_0-00
  6
CONTINUOUS
 62
    6
 10
388.62625458735323
 20
218.07717473972462
 40
8.0502336567393282
 50
64.913292000001646
 51
106.172117000001
  0
LINE
  8
_0-1_0-00
  6
CONTINUOUS
 62
    6
 10
384.85427538187394
 20
225.36521526027252
 11
386.38407301201084
 21
225.80885472602722
  0
ARC
  8
_0-1_0-00
  6
CONTINUOUS
 62
    6
 10
384.71548964214645
 20
225.84378535616428
 40
0.4982876712328767
 50
210.00000000000051
 51
286.17211700000058
  0
ARC
  8
_0-3_0-10
  6
CONTINUOUS
 62
    6
 10
363.1388783544765
 20
225.00000000000011
 40
4.5
 50
180
 51
270
  0
LINE
  8
_0-3_0-10
  6
CONTINUOUS
 62
    6
 10
363.1388783544765
 20
220.50000000000011
 11
415.1388783544765
 21
220.50000000000011
  0
ARC
  8
_0-3_0-10
  6
CONTINUOUS
 62
    6
 10
415.1388783544765
 20
218.00000000000011
 40
2.5
 50
0
 51
90
  0
LINE
  8
_0-3_0-10
  6
CONTINUOUS
 62
    6
 10
417.6388783544765
 20
218.00000000000011
 11
417.6388783544765
 21
127.23759185792931
  0
ARC
  8
_0-3_0-10
  6
CONTINUOUS
 62
    6
 10
363.1388783544765
 20
72.000000000004618
 40
4.5
 50
90
 51
180
  0
LINE
  8
_0-3_0-10
  6
CONTINUOUS
 62
    6
 10
415.1388783544765
 20
76.500000000004618
 11
363.1388783544765
 21
76.500000000004618
  0
ARC
  8
_0-3_0-10
  6
CONTINUOUS
 62
    6
 10
415.1388783544765
 20
79.000000000004618
 40
2.5
 50
270
 51
0
  0
LINE
  8
_0-3_0-10
  6
CONTINUOUS
 62
    6
 10
417.6388783544765
 20
127.23759199999992
 11
417.6388783544765
 21
79.000000000004618
  0
LINE
  8
_0-1_0-00
  6
CONTINUOUS
 62
    6
 10
383.58730301201063
 20
101.743839863017
 11
383.58730301201063
 21
98.720715273975798
  0
LINE
  8
_0-1_0-00
  6
CONTINUOUS
 62
    6
 10
406.72143095721645
 20
104.611017684936
 11
385.49828140926962
 21
103.73529636986751
  0
ARC
  8
_0-1_0-00
  6
CONTINUOUS
 62
    6
 10
385.58045369694224
 20
101.743839863017
 40
1.9931506849315059
 50
92.36282999999986
 51
180
  0
ARC
  8
_0-1_0-00
  6
CONTINUOUS
 62
    6
 10
385.58045369694224
 20
98.910096479455319
 40
1.9931506849315059
 50
180
 51
270
  0
LINE
  8
_0-1_0-00
  6
CONTINUOUS
 62
    6
 10
385.58045369694224
 20
96.916945794525105
 11
406.72826879283275
 21
96.157510205484015
  0
LINE
  8
_0-1_0-00
  6
CONTINUOUS
 62
    6
 10
406.72143095721645
 20
104.611017684936
 11
406.72143095721645
 21
96.157756027401802
  0
LINE
  8
_0-1_0-00
  6
CONTINUOUS
 62
    6
 10
393.86300199831072
 20
101.34613587671691
 11
405.31943946406431
 21
104.55316847945542
  0
LINE
  8
_0-1_0-00
  6
CONTINUOUS
 62
    6
 10
389.92792061474904
 20
101.17359945205798
 11
392.60663142296834
 21
101.17359945205798
  0
LINE
  8
_0-1_0-00
  6
CONTINUOUS
 62
    6
 10
386.5137531489957
 20
101.08224272603061
 11
389.78294016269433
 21
101.17161826027718
  0
ARC
  8
_0-1_0-00
  6
CONTINUOUS
 62
    6
 10
392.60663142296834
 20
105.83425279452382
 40
4.660654006849314
 50
270
 51
285.63867299999901
  0
ARC
  8
_0-1_0-00
  6
CONTINUOUS
 62
    6
 10
389.92792061474904
 20
95.868499369866299
 40
5.3050994178082175
 50
90
 51
91.566001999999585
  0
ARC
  8
_0-1_0-00
  6
CONTINUOUS
 62
    6
 10
386.57702903940793
 20
99.089836150688199
 40
1.9931506849315059
 50
91.566001999999585
 51
180
  0
LINE
  8
_0-1_0-00
  6
CONTINUOUS
 62
    6
 10
384.58387835447524
 20
99.089836150688199
 11
384.58387835447524
 21
97.183977493155225
  0
LINE
  8
_0-3_0-10
  6
CONTINUOUS
 62
    3
 10
210.00000000000005
 20
323.5
 11
210.00000000000005
 21
326
  0
LINE
  8
_0-3_0-10
  6
CONTINUOUS
 62
    4
 10
363.83887835447654
 20
43.75102533333333
 11
346.3388783544766
 21
26.251025333333359
  0
LINE
  8
_0-3_0-10
  6
CONTINUOUS
 62
    4
 10
358.8388783544766
 20
245.99999999999971
 11
358.8388783544766
 21
236.29999999999978
  0
LINE
  8
_0-3_0-10
  6
CONTINUOUS
 62
    4
 10
359.33887835447654
 20
246.49999999999971
 11
364.33887835447654
 21
246.49999999999971
  0
LINE
  8
_0-3_0-10
  6
CONTINUOUS
 62
    4
 10
359.33887835447654
 20
245.99999999999971
 11
364.33887835447654
 21
245.99999999999971
  0
ARC
  8
_0-3_0-10
  6
CONTINUOUS
 62
    4
 10
359.33887835447654
 20
245.99999999999971
 40
0.5
 50
90
 51
180
  0
LINE
  8
_0-3_0-10
  6
CONTINUOUS
 62
    4
 10
363.83887835447654
 20
46.160254666666645
 11
359.20946768780981
 21
47.40070133333333
  0
LINE
  8
_0-3_0-10
  6
CONTINUOUS
 62
    4
 10
363.96828768780994
 20
46.64321733333324
 11
359.33887835447654
 21
47.883663999999924
  0
LINE
  8
_0-3_0-10
  6
CONTINUOUS
 62
    4
 10
364.19243168780985
 20
43.397470666666634
 11
346.69243168780991
 21
25.897470666666649
  0
ARC
  8
_0-3_0-10
  6
CONTINUOUS
 62
    4
 10
359.33887835447654
 20
47.883663999999924
 40
0.5
 50
180
 51
254.9999999999988
  0
LINE
  8
_0-3_0-10
  6
CONTINUOUS
 62
    4
 10
354.72389302114322
 20
40.999999999999857
 11
352.55015435447654
 21
38.826262666666565
  0
ARC
  8
_0-3_0-10
  6
CONTINUOUS
 62
    4
 10
354.67147435447651
 20
36.704941333333266
 40
3
 50
135.00000000000034
 51
224.99999999999968
  0
LINE
  8
_0-3_0-10
  6
CONTINUOUS
 62
    4
 10
352.55015435447654
 20
34.583621333333297
 11
353.61081435447641
 21
33.522961333333185
  0
LINE
  8
_0-3_0-10
  6
CONTINUOUS
 62
    4
 10
358.1388783544765
 20
235.79999999999978
 11
358.1388783544765
 21
63.700000000004678
  0
LINE
  8
_0-3_0-10
  6
CONTINUOUS
 62
    4
 10
357.6388783544765
 20
63.700000000004678
 11
357.6388783544765
 21
79.938837333338014
  0
LINE
  8
_0-3_0-10
  6
CONTINUOUS
 62
    4
 10
364.33887835447654
 20
43.75102533333333
 11
364.33887835447654
 21
46.160254666666645
  0
LINE
  8
_0-3_0-10
  6
CONTINUOUS
 62
    4
 10
363.83887835447654
 20
43.75102533333333
 11
363.83887835447654
 21
46.160254666666645
  0
ARC
  8
_0-3_0-10
  6
CONTINUOUS
 62
    4
 10
363.83887835447654
 20
46.160254666666645
 40
0.5
 50
0
 51
74.999999999998834
  0
ARC
  8
_0-3_0-10
  6
CONTINUOUS
 62
    4
 10
363.83887835447654
 20
43.75102533333333
 40
0.5
 50
315.00000000000022
 51
359.99999999999994
  0
LINE
  8
_0-3_0-10
  6
CONTINUOUS
 62
    4
 10
346.69243168780991
 20
25.897470666666649
 11
346.3388783544766
 21
26.251025333333359
  0
LINE
  8
_0-3_0-10
  6
CONTINUOUS
 62
    4
 10
364.33887835447654
 20
246.49999999999971
 11
364.33887835447654
 21
245.99999999999971
  0
ARC
  8
_0-3_0-10
  6
CONTINUOUS
 62
    4
 10
357.6388783544765
 20
80.500000000004618
 40
0.5
 50
297.00000000000181
 51
0.0000000000000127
  0
LINE
  8
_0-3_0-10
  6
CONTINUOUS
 62
    4
 10
357.6388783544765
 20
233.59999999999962
 11
358.1388783544765
 21
233.59999999999962
  0
LINE
  8
_0-3_0-10
  6
CONTINUOUS
 62
    4
 10
358.8388783544766
 20
242.89999999999969
 11
359.33887835447654
 21
242.89999999999969
  0
LINE
  8
_0-3_0-10
  6
CONTINUOUS
 62
    4
 10
359.33887835447654
 20
245.99999999999971
 11
359.33887835447654
 21
223.48013200000013
  0
LINE
  8
_0-3_0-10
  6
CONTINUOUS
 62
    4
 10
358.8388783544766
 20
63.200000000004678
 11
358.8388783544766
 21
47.883663999999924
  0
LINE
  8
_0-3_0-10
  6
CONTINUOUS
 62
    4
 10
357.6388783544765
 20
188.5
 11
357.6388783544765
 21
199.9388377064659
  0
LINE
  8
_0-3_0-10
  6
CONTINUOUS
 62
    4
 10
357.6388783544765
 20
80.500000000004618
 11
357.6388783544765
 21
97.797593765224519
  0
LINE
  8
_0-3_0-10
  6
CONTINUOUS
 62
    4
 10
357.6388783544765
 20
98.358756058758501
 11
357.6388783544765
 21
115.7357380951215
  0
LINE
  8
_0-3_0-10
  6
CONTINUOUS
 62
    4
 10
357.6388783544765
 20
116.29690038865541
 11
357.6388783544765
 21
133.6738824250184
  0
LINE
  8
_0-3_0-10
  6
CONTINUOUS
 62
    4
 10
357.6388783544765
 20
134.23504471855241
 11
357.6388783544765
 21
151.61202675491531
  0
LINE
  8
_0-3_0-10
  6
CONTINUOUS
 62
    4
 10
357.6388783544765
 20
152.17318904844921
 11
357.6388783544765
 21
169.5501710848122
  0
LINE
  8
_0-3_0-10
  6
CONTINUOUS
 62
    4
 10
357.6388783544765
 20
170.11133337834621
 11
357.6388783544765
 21
187.48831541470912
  0
LINE
  8
_0-3_0-10
  6
CONTINUOUS
 62
    4
 10
357.63887835447644
 20
188.04947770824301
 11
357.6388783544765
 21
205.4264597446062
  0
LINE
  8
_0-3_0-10
  6
CONTINUOUS
 62
    4
 10
357.6388783544765
 20
205.98762203814021
 11
357.6388783544765
 21
223.36460407450323
  0
LINE
  8
_0-3_0-10
  6
CONTINUOUS
 62
    4
 10
357.6388783544765
 20
223.9257663680371
 11
357.6388783544765
 21
235.79999999999978
  0
LINE
  8
_0-3_0-10
  6
CONTINUOUS
 62
    4
 10
357.6388783544765
 20
69.000000000004618
 11
358.1388783544765
 21
69.000000000004618
  0
LINE
  8
_0-3_0-10
  6
CONTINUOUS
 62
    4
 10
358.1388783544765
 20
235.79999999999978
 11
358.8388783544766
 21
235.79999999999978
  0
LINE
  8
_0-3_0-10
  6
CONTINUOUS
 62
    4
 10
358.1388783544765
 20
236.29999999999978
 11
358.8388783544766
 21
236.29999999999978
  0
ARC
  8
_0-3_0-10
  6
CONTINUOUS
 62
    4
 10
358.1388783544765
 20
235.79999999999978
 40
0.5
 50
90
 51
180
  0
ARC
  8
_0-3_0-10
  6
CONTINUOUS
 62
    4
 10
358.8388783544766
 20
236.29999999999978
 40
0.5
 50
270
 51
0
  0
LINE
  8
_0-3_0-10
  6
CONTINUOUS
 62
    4
 10
358.1388783544765
 20
63.700000000004678
 11
358.8388783544766
 21
63.700000000004678
  0
LINE
  8
_0-3_0-10
  6
CONTINUOUS
 62
    4
 10
358.1388783544765
 20
63.200000000004678
 11
358.8388783544766
 21
63.200000000004678
  0
ARC
  8
_0-3_0-10
  6
CONTINUOUS
 62
    4
 10
358.1388783544765
 20
63.700000000004678
 40
0.5
 50
180
 51
270
  0
ARC
  8
_0-3_0-10
  6
CONTINUOUS
 62
    4
 10
358.8388783544766
 20
63.200000000004678
 40
0.5
 50
0
 51
90
  0
LINE
  8
_0-3_0-10
  6
CONTINUOUS
 62
    4
 10
359.33887835447654
 20
73.519869333336714
 11
359.33887835447654
 21
47.883663999999924
  0
LINE
  8
_0-3_0-10
  6
CONTINUOUS
 62
    4
 10
349.88149835447654
 20
75.960842666666607
 11
350.15381835447652
 21
75.541507999999907
  0
LINE
  8
_0-3_0-10
  6
CONTINUOUS
 62
    4
 10
357.6388783544765
 20
80.499999999999914
 11
354.07485168780982
 21
78.684038666666708
  0
LINE
  8
_0-3_0-10
  6
CONTINUOUS
 62
    4
 10
357.86587302114315
 20
80.054497333333316
 11
354.30184768780981
 21
78.238534666666609
  0
LINE
  8
_0-3_0-10
  6
CONTINUOUS
 62
    4
 10
354.07485168780982
 20
78.684038666666708
 11
349.88149835447654
 21
75.960842666666607
  0
LINE
  8
_0-3_0-10
  6
CONTINUOUS
 62
    4
 10
354.34717168780991
 20
78.264702666666607
 11
350.15381835447652
 21
75.541507999999907
  0
LINE
  8
_0-3_0-10
  6
CONTINUOUS
 62
    4
 10
357.14822502114321
 20
80.249999999999914
 11
357.37522102114314
 21
79.804497333333316
  0
ARC
  8
_0-3_0-10
  6
CONTINUOUS
 62
    4
 10
357.6388783544765
 20
80.499999999999914
 40
0.5
 50
297.00000000000181
 51
0.0000000000000127
  0
ARC
  8
_0-3_0-10
  6
CONTINUOUS
 62
    4
 10
357.6388783544765
 20
98.358756058763219
 40
0.5
 50
297.00000000000181
 51
0.0000000000000127
  0
LINE
  8
_0-3_0-10
  6
CONTINUOUS
 62
    4
 10
349.88149835447654
 20
93.819598725425208
 11
350.15381835447652
 21
93.400264058758523
  0
LINE
  8
_0-3_0-10
  6
CONTINUOUS
 62
    4
 10
357.6388783544765
 20
98.358756058758501
 11
354.07485168780982
 21
96.54279472542521
  0
LINE
  8
_0-3_0-10
  6
CONTINUOUS
 62
    4
 10
357.86587302114315
 20
97.913253392091917
 11
354.30184768780981
 21
96.09729072542521
  0
LINE
  8
_0-3_0-10
  6
CONTINUOUS
 62
    4
 10
354.07485168780982
 20
96.54279472542521
 11
349.88149835447654
 21
93.819598725425208
  0
LINE
  8
_0-3_0-10
  6
CONTINUOUS
 62
    4
 10
354.34717168780991
 20
96.123458725425223
 11
350.15381835447652
 21
93.400264058758523
  0
LINE
  8
_0-3_0-10
  6
CONTINUOUS
 62
    4
 10
357.14822502114321
 20
98.108756058758501
 11
357.37522102114314
 21
97.663253392091917
  0
ARC
  8
_0-3_0-10
  6
CONTINUOUS
 62
    4
 10
357.6388783544765
 20
98.358756058758501
 40
0.5
 50
297.00000000000181
 51
0.0000000000000127
  0
ARC
  8
_0-3_0-10
  6
CONTINUOUS
 62
    4
 10
357.6388783544765
 20
116.2969003886601
 40
0.5
 50
297.00000000000181
 51
0.0000000000000127
  0
LINE
  8
_0-3_0-10
  6
CONTINUOUS
 62
    4
 10
349.88149835447654
 20
111.75774305532212
 11
350.15381835447652
 21
111.33840838865539
  0
LINE
  8
_0-3_0-10
  6
CONTINUOUS
 62
    4
 10
357.6388783544765
 20
116.29690038865541
 11
354.07485168780982
 21
114.48093905532221
  0
LINE
  8
_0-3_0-10
  6
CONTINUOUS
 62
    4
 10
357.86587302114315
 20
115.8513977219888
 11
354.30184768780981
 21
114.03543505532221
  0
LINE
  8
_0-3_0-10
  6
CONTINUOUS
 62
    4
 10
354.07485168780982
 20
114.48093905532221
 11
349.88149835447654
 21
111.75774305532212
  0
LINE
  8
_0-3_0-10
  6
CONTINUOUS
 62
    4
 10
354.34717168780991
 20
114.06160305532209
 11
350.15381835447652
 21
111.33840838865539
  0
LINE
  8
_0-3_0-10
  6
CONTINUOUS
 62
    4
 10
357.14822502114321
 20
116.04690038865541
 11
357.37522102114314
 21
115.6013977219888
  0
ARC
  8
_0-3_0-10
  6
CONTINUOUS
 62
    4
 10
357.6388783544765
 20
116.29690038865541
 40
0.5
 50
297.00000000000181
 51
0.0000000000000127
  0
ARC
  8
_0-3_0-10
  6
CONTINUOUS
 62
    4
 10
357.6388783544765
 20
134.23504471855702
 40
0.5
 50
297.00000000000181
 51
0.0000000000000127
  0
LINE
  8
_0-3_0-10
  6
CONTINUOUS
 62
    4
 10
349.88149835447654
 20
129.695887385219
 11
350.15381835447652
 21
129.27655271855232
  0
LINE
  8
_0-3_0-10
  6
CONTINUOUS
 62
    4
 10
357.6388783544765
 20
134.2350447185523
 11
354.07485168780982
 21
132.41908338521912
  0
LINE
  8
_0-3_0-10
  6
CONTINUOUS
 62
    4
 10
357.86587302114315
 20
133.78954205188571
 11
354.30184768780981
 21
131.97357938521901
  0
LINE
  8
_0-3_0-10
  6
CONTINUOUS
 62
    4
 10
354.07485168780982
 20
132.41908338521912
 11
349.88149835447654
 21
129.695887385219
  0
LINE
  8
_0-3_0-10
  6
CONTINUOUS
 62
    4
 10
354.34717168780991
 20
131.99974738521902
 11
350.15381835447652
 21
129.27655271855232
  0
LINE
  8
_0-3_0-10
  6
CONTINUOUS
 62
    4
 10
357.14822502114321
 20
133.9850447185523
 11
357.37522102114314
 21
133.53954205188571
  0
ARC
  8
_0-3_0-10
  6
CONTINUOUS
 62
    4
 10
357.6388783544765
 20
134.2350447185523
 40
0.5
 50
297.00000000000181
 51
0.0000000000000127
  0
ARC
  8
_0-3_0-10
  6
CONTINUOUS
 62
    4
 10
357.6388783544765
 20
152.1731890484539
 40
0.5
 50
297.00000000000181
 51
0.0000000000000127
  0
LINE
  8
_0-3_0-10
  6
CONTINUOUS
 62
    4
 10
349.88149835447654
 20
147.63403171511592
 11
350.15381835447652
 21
147.21469704844921
  0
LINE
  8
_0-3_0-10
  6
CONTINUOUS
 62
    4
 10
357.6388783544765
 20
152.17318904844921
 11
354.07485168780982
 21
150.35722771511601
  0
LINE
  8
_0-3_0-10
  6
CONTINUOUS
 62
    4
 10
357.86587302114315
 20
151.7276863817826
 11
354.30184768780981
 21
149.91172371511601
  0
LINE
  8
_0-3_0-10
  6
CONTINUOUS
 62
    4
 10
354.07485168780982
 20
150.35722771511601
 11
349.88149835447654
 21
147.63403171511592
  0
LINE
  8
_0-3_0-10
  6
CONTINUOUS
 62
    4
 10
354.34717168780991
 20
149.93789171511591
 11
350.15381835447652
 21
147.21469704844921
  0
LINE
  8
_0-3_0-10
  6
CONTINUOUS
 62
    4
 10
357.14822502114321
 20
151.92318904844921
 11
357.37522102114314
 21
151.4776863817826
  0
ARC
  8
_0-3_0-10
  6
CONTINUOUS
 62
    4
 10
357.6388783544765
 20
152.17318904844921
 40
0.5
 50
297.00000000000181
 51
0.0000000000000127
  0
ARC
  8
_0-3_0-10
  6
CONTINUOUS
 62
    4
 10
357.6388783544765
 20
170.11133337835082
 40
0.5
 50
297.00000000000181
 51
0.0000000000000127
  0
LINE
  8
_0-3_0-10
  6
CONTINUOUS
 62
    4
 10
349.88149835447654
 20
165.57217604501281
 11
350.15381835447652
 21
165.15284137834612
  0
LINE
  8
_0-3_0-10
  6
CONTINUOUS
 62
    4
 10
357.6388783544765
 20
170.1113333783461
 11
354.07485168780982
 21
168.29537204501292
  0
LINE
  8
_0-3_0-10
  6
CONTINUOUS
 62
    4
 10
357.86587302114315
 20
169.66583071167951
 11
354.30184768780981
 21
167.84986804501292
  0
LINE
  8
_0-3_0-10
  6
CONTINUOUS
 62
    4
 10
354.07485168780982
 20
168.29537204501292
 11
349.88149835447654
 21
165.57217604501281
  0
LINE
  8
_0-3_0-10
  6
CONTINUOUS
 62
    4
 10
354.34717168780991
 20
167.8760360450129
 11
350.15381835447652
 21
165.15284137834612
  0
LINE
  8
_0-3_0-10
  6
CONTINUOUS
 62
    4
 10
357.14822502114321
 20
169.8613333783461
 11
357.37522102114314
 21
169.41583071167951
  0
ARC
  8
_0-3_0-10
  6
CONTINUOUS
 62
    4
 10
357.6388783544765
 20
170.1113333783461
 40
0.5
 50
297.00000000000181
 51
0.0000000000000127
  0
ARC
  8
_0-3_0-10
  6
CONTINUOUS
 62
    4
 10
357.6388783544765
 20
188.0494777082477
 40
0.5
 50
297.00000000000181
 51
0.0000000000000127
  0
LINE
  8
_0-3_0-10
  6
CONTINUOUS
 62
    4
 10
349.88149835447654
 20
183.51032037490972
 11
350.15381835447652
 21
183.09098570824301
  0
LINE
  8
_0-3_0-10
  6
CONTINUOUS
 62
    4
 10
357.6388783544765
 20
188.04947770824301
 11
354.07485168780982
 21
186.23351637490981
  0
LINE
  8
_0-3_0-10
  6
CONTINUOUS
 62
    4
 10
357.86587302114315
 20
187.6039750415764
 11
354.30184768780981
 21
185.78801237490969
  0
LINE
  8
_0-3_0-10
  6
CONTINUOUS
 62
    4
 10
354.07485168780982
 20
186.23351637490981
 11
349.88149835447654
 21
183.51032037490972
  0
LINE
  8
_0-3_0-10
  6
CONTINUOUS
 62
    4
 10
354.34717168780991
 20
185.81418037490971
 11
350.15381835447652
 21
183.09098570824301
  0
LINE
  8
_0-3_0-10
  6
CONTINUOUS
 62
    4
 10
357.14822502114321
 20
187.79947770824301
 11
357.37522102114314
 21
187.3539750415764
  0
ARC
  8
_0-3_0-10
  6
CONTINUOUS
 62
    4
 10
357.6388783544765
 20
188.04947770824301
 40
0.5
 50
297.00000000000181
 51
0.0000000000000127
  0
ARC
  8
_0-3_0-10
  6
CONTINUOUS
 62
    4
 10
357.6388783544765
 20
205.98762203814482
 40
0.5
 50
297.00000000000181
 51
0.0000000000000127
  0
LINE
  8
_0-3_0-10
  6
CONTINUOUS
 62
    4
 10
349.88149835447654
 20
201.4484647048068
 11
350.15381835447652
 21
201.02913003814012
  0
LINE
  8
_0-3_0-10
  6
CONTINUOUS
 62
    4
 10
357.6388783544765
 20
205.9876220381401
 11
354.07485168780982
 21
204.17166070480692
  0
LINE
  8
_0-3_0-10
  6
CONTINUOUS
 62
    4
 10
357.86587302114315
 20
205.54211937147351
 11
354.30184768780981
 21
203.72615670480692
  0
LINE
  8
_0-3_0-10
  6
CONTINUOUS
 62
    4
 10
354.07485168780982
 20
204.17166070480692
 11
349.88149835447654
 21
201.4484647048068
  0
LINE
  8
_0-3_0-10
  6
CONTINUOUS
 62
    4
 10
354.34717168780991
 20
203.75232470480682
 11
350.15381835447652
 21
201.02913003814012
  0
LINE
  8
_0-3_0-10
  6
CONTINUOUS
 62
    4
 10
357.14822502114321
 20
205.7376220381401
 11
357.37522102114314
 21
205.29211937147351
  0
ARC
  8
_0-3_0-10
  6
CONTINUOUS
 62
    4
 10
357.6388783544765
 20
205.9876220381401
 40
0.5
 50
297.00000000000181
 51
0.0000000000000127
  0
ARC
  8
_0-3_0-10
  6
CONTINUOUS
 62
    4
 10
357.6388783544765
 20
223.92576636804182
 40
0.5
 50
297.00000000000181
 51
0.0000000000000127
  0
LINE
  8
_0-3_0-10
  6
CONTINUOUS
 62
    4
 10
349.88149835447654
 20
219.3866090347038
 11
350.15381835447652
 21
218.96727436803712
  0
LINE
  8
_0-3_0-10
  6
CONTINUOUS
 62
    4
 10
357.6388783544765
 20
223.9257663680371
 11
354.07485168780982
 21
222.10980503470392
  0
LINE
  8
_0-3_0-10
  6
CONTINUOUS
 62
    4
 10
357.86587302114315
 20
223.48026370137051
 11
354.30184768780981
 21
221.66430103470383
  0
LINE
  8
_0-3_0-10
  6
CONTINUOUS
 62
    4
 10
354.07485168780982
 20
222.10980503470392
 11
349.88149835447654
 21
219.3866090347038
  0
LINE
  8
_0-3_0-10
  6
CONTINUOUS
 62
    4
 10
354.34717168780991
 20
221.69046903470382
 11
350.15381835447652
 21
218.96727436803712
  0
LINE
  8
_0-3_0-10
  6
CONTINUOUS
 62
    4
 10
357.14822502114321
 20
223.6757663680371
 11
357.37522102114314
 21
223.23026370137051
  0
ARC
  8
_0-3_0-10
  6
CONTINUOUS
 62
    4
 10
357.6388783544765
 20
223.9257663680371
 40
0.5
 50
297.00000000000181
 51
0.0000000000000127
  0
TEXT
  8
_0-1_0-00
 62
    7
 10
-34.564998777638834
 20
-19.472499135616203
 40
4.3874999999999992
 41
1
 50
0
  1
型番：VC150JKP□　　※)□はカラーを示します。
  0
TEXT
  8
_0-1_0-00
 62
    7
 10
384.37948282370706
 20
-25.603340883352188
 40
4.875
 41
1
 50
0
  1
耐外風フード付換気口
  0
ENDSEC
  0
EOF
