  0
SECTION
  2
HEADER
  9
$ACADVER
  1
AC1009
  9
$INSBASE
 10
0
 20
0
 30
0
  9
$EXTMIN
 10
0
 20
0
  9
$EXTMAX
 10
420
 20
297
  9
$LIMMIN
 10
0
 20
0
  9
$LIMMAX
 10
420
 20
297
  9
$LTSCALE
 40
1
  0
ENDSEC
  0
SECTION
  2
TABLES
  0
TABLE
  2
LTYPE
 70
     9
  0
LTYPE
  2
CONTINUOUS
 70
    64
  3
実線
 72
    65
 73
     0
 40
0.0
  0
LTYPE
  2
DASHED1
 70
    64
  3
--  --  --  --  --  --  --  --  
 72
    65
 73
     2
 40
2.5
 49
1.25
 49
-1.25
  0
LTYPE
  2
DASHED2
 70
    64
  3
----    ----    ----    ----    
 72
    65
 73
     2
 40
5.0
 49
2.5
 49
-2.5
  0
LTYPE
  2
DASHED3
 70
    64
  3
------  ------  ------  ------  
 72
    65
 73
     2
 40
5.0
 49
3.75
 49
-1.25
  0
LTYPE
  2
CENTER1
 70
    64
  3
----- - ----- - ----- - ----- - 
 72
    65
 73
     4
 40
10.0
 49
6.25
 49
-1.25
 49
1.25
 49
-1.25
  0
LTYPE
  2
CENTER2
 70
    64
  3
----------  --  ----------  --  
 72
    65
 73
     4
 40
20.0
 49
12.5
 49
-2.5
 49
2.5
 49
-2.5
  0
LTYPE
  2
PHANTOM1
 70
    64
  3
--- - - --- - - --- - - --- - - 
 72
    65
 73
     6
 40
10.0
 49
3.25
 49
-1.25
 49
1.25
 49
-1.25
 49
1.25
 49
-1.25
  0
LTYPE
  2
PHANTOM2
 70
    64
  3
--------  -  -  --------  -  -  
 72
    65
 73
     6
 40
20.0
 49
10.0
 49
-2.5
 49
1.25
 49
-2.5
 49
1.25
 49
-2.5
  0
LTYPE
  2
DOT
 70
    64
  3
-   -   -   -   -   -   -   -   
 72
    65
 73
     2
 40
2.5
 49
0.625
 49
-1.875
  0
LTYPE
  2
DUMMY
 70
    64
  3
ダミー
 72
    65
 73
     0
 40
0.0
  0
LTYPE
  2
RAND1
 70
    64
  3
ランダム線1
 72
    65
 73
     4
 40
10.0
 49
1.0
 49
-2.0
 49
3.0
 49
-4.0
  0
LTYPE
  2
RAND2
 70
    64
  3
ランダム線2
 72
    65
 73
     4
 40
14.0
 49
2.0
 49
-3.0
 49
4.0
 49
-5.0
  0
LTYPE
  2
RAND3
 70
    64
  3
ランダム線3
 72
    65
 73
     4
 40
18.0
 49
3.0
 49
-4.0
 49
5.0
 49
-6.0
  0
LTYPE
  2
RAND4
 70
    64
  3
ランダム線4
 72
    65
 73
     4
 40
22.0
 49
4.0
 49
-5.0
 49
6.0
 49
-7.0
  0
LTYPE
  2
RAND5
 70
    64
  3
ランダム線5
 72
    65
 73
     4
 40
26.0
 49
5.0
 49
-6.0
 49
7.0
 49
-8.0
  0
LTYPE
  2
LONG1
 70
    64
  3
----------  --  ----------  --  
 72
    65
 73
     4
 40
40.0
 49
32.5
 49
-2.5
 49
2.5
 49
-2.5
  0
LTYPE
  2
LONG2
 70
    64
  3
--------  -  -  --------  -  -  
 72
    65
 73
     6
 40
40.0
 49
30.0
 49
-2.5
 49
1.25
 49
-2.5
 49
1.25
 49
-2.5
  0
LTYPE
  2
LONG3
 70
    64
  3
+++++++++++++++..+++++++++++++++
 72
    65
 73
     2
 40
40.0
 49
37.5
 49
-2.5
  0
LTYPE
  2
LONG4
 70
    64
  3
+++++++++++++++..+++++++++++++++
 72
    65
 73
     2
 40
80.0
 49
75.0
 49
-5.0
  0
LTYPE
  2
LONG5
 70
    64
  3
----------  --  ----------  --  
 72
    65
 73
     4
 40
60.0
 49
37.5
 49
-7.5
 49
7.5
 49
-7.5
  0
LTYPE
  2
dashed
 70
   64
  3
-------   -------------   ------
 72
   65
 73
    2
 40
7.5
 49
6
 49
-1.5
  0
LTYPE
  2
dashed_spaced
 70
   64
  3
----        --------        ----
 72
   65
 73
    2
 40
12
 49
6
 49
-6
  0
LTYPE
  2
long_dashed_dotted
 70
   64
  3
------------- --- --------------
 72
   65
 73
    4
 40
15.25
 49
12
 49
-1.5
 49
0.25
 49
-1.5
  0
LTYPE
  2
long_dashed_double-dotted
 70
   64
  3
----------- --- --- ------------
 72
   65
 73
    6
 40
17
 49
12
 49
-1.5
 49
0.25
 49
-1.5
 49
0.25
 49
-1.5
  0
LTYPE
  2
long_dashed_triplicate-dotted
 70
   64
  3
--------- --- --- --- ----------
 72
   65
 73
    8
 40
18.75
 49
12
 49
-1.5
 49
0.25
 49
-1.5
 49
0.25
 49
-1.5
 49
0.25
 49
-1.5
  0
LTYPE
  2
dotted
 70
   64
  3
   -       -       -       -    
 72
   65
 73
    2
 40
1.75
 49
0.25
 49
-1.5
  0
LTYPE
  2
chain
 70
   64
  3
-------------- -- --------------
 72
   65
 73
    4
 40
18.5
 49
12
 49
-1.5
 49
3.5
 49
-1.5
  0
LTYPE
  2
chain_double_dash
 70
   64
  3
------------ -- -- -------------
 72
   65
 73
    6
 40
23.5
 49
12
 49
-1.5
 49
3.5
 49
-1.5
 49
3.5
 49
-1.5
  0
LTYPE
  2
dashed_dotted
 70
   64
  3
-----------     -     ----------
 72
   65
 73
    4
 40
9.25
 49
6
 49
-1.5
 49
0.25
 49
-1.5
  0
LTYPE
  2
double-dashed_dotted
 70
   64
  3
------   -----------   -   -----
 72
   65
 73
    6
 40
16.75
 49
6
 49
-1.5
 49
6
 49
-1.5
 49
0.25
 49
-1.5
  0
LTYPE
  2
dashed_double-dotted
 70
   64
  3
---------    -    -    ---------
 72
   65
 73
    6
 40
11
 49
6
 49
-1.5
 49
0.25
 49
-1.5
 49
0.25
 49
-1.5
  0
LTYPE
  2
double-dashed_double-dotted
 70
   64
  3
-----   ---------   -   -   ----
 72
   65
 73
    8
 40
18.5
 49
6
 49
-1.5
 49
6
 49
-1.5
 49
0.25
 49
-1.5
 49
0.25
 49
-1.5
  0
LTYPE
  2
dashed_triplicate-dotted
 70
   64
  3
-------    -    -    -    ------
 72
   65
 73
    8
 40
12.75
 49
6
 49
-1.5
 49
0.25
 49
-1.5
 49
0.25
 49
-1.5
 49
0.25
 49
-1.5
  0
LTYPE
  2
double-dashed_triplicate-dotted
 70
   64
  3
-----  ---------  -  -  -  -----
 72
   65
 73
   10
 40
20.25
 49
6
 49
-1.5
 49
6
 49
-1.5
 49
0.25
 49
-1.5
 49
0.25
 49
-1.5
 49
0.25
 49
-1.5
  0
LTYPE
  2
undefined
 70
   64
  3
--------------------------------
 72
   65
 73
    0
 40
0
  0
LTYPE
  2
_
 70
   64
  3
                                
 72
   65
 73
    0
 40
0
  0
LTYPE
  2
__18
 70
   64
  3
                                
 72
   65
 73
    0
 40
0
  0
LTYPE
  2
__19
 70
   64
  3
                                
 72
   65
 73
    0
 40
0
  0
LTYPE
  2
__20
 70
   64
  3
                                
 72
   65
 73
    0
 40
0
  0
LTYPE
  2
__21
 70
   64
  3
                                
 72
   65
 73
    0
 40
0
  0
LTYPE
  2
__22
 70
   64
  3
                                
 72
   65
 73
    0
 40
0
  0
LTYPE
  2
__23
 70
   64
  3
                                
 72
   65
 73
    0
 40
0
  0
LTYPE
  2
__24
 70
   64
  3
                                
 72
   65
 73
    0
 40
0
  0
LTYPE
  2
__25
 70
   64
  3
                                
 72
   65
 73
    0
 40
0
  0
LTYPE
  2
__26
 70
   64
  3
                                
 72
   65
 73
    0
 40
0
  0
LTYPE
  2
__27
 70
   64
  3
                                
 72
   65
 73
    0
 40
0
  0
LTYPE
  2
__28
 70
   64
  3
                                
 72
   65
 73
    0
 40
0
  0
LTYPE
  2
__29
 70
   64
  3
                                
 72
   65
 73
    0
 40
0
  0
LTYPE
  2
__30
 70
   64
  3
                                
 72
   65
 73
    0
 40
0
  0
LTYPE
  2
__31
 70
   64
  3
                                
 72
   65
 73
    0
 40
0
  0
LTYPE
  2
__32
 70
   64
  3
                                
 72
   65
 73
    0
 40
0
  0
ENDTAB
  0
TABLE
  2
STYLE
  5
3
100
AcDbSymbolTable
 70
     1
  0
STYLE
  5
10
100
AcDbSymbolTableRecord
100
AcDbTextStyleTableRecord
  2
STANDARD
 70
     0
 40
0.0
 41
1.0
 50
0.0
 71
     0
 42
0.2
  3
txt
  4
bigfont.shx
  0
STYLE
  5
26
100
AcDbSymbolTableRecord
100
AcDbTextStyleTableRecord
  2
TATEGAKI
 70
    68
 40
0.0
 41
1.0
 50
0.0
 71
     0
 42
1.0
  3
txt
  4
bigfont.shx
  0
ENDTAB
  0
TABLE
  2
LAYER
 70
    4
  0
LAYER
  2
_0-0_0
 70
   64
 62
    7
  6
CONTINUOUS
  0
LAYER
  2
_0-1_0-00
 70
   64
 62
    7
  6
CONTINUOUS
  0
LAYER
  2
_0-2_0-10
 70
   64
 62
    7
  6
CONTINUOUS
  0
LAYER
  2
ADD_LINE
 70
   64
 62
    7
  6
CONTINUOUS
  0
ENDTAB
  0
ENDSEC
  0
SECTION
  2
BLOCKS
  0
BLOCK
  2
-000-EDTIP_ARROW_S_0
 70
   64
 10
0
 20
0
 30
0
  0
LINE
  8
_0-2_0-10
  6
CONTINUOUS
 62
    7
 10
0
 20
0
 11
-1
 21
0
  0
LINE
  8
_0-2_0-10
  6
CONTINUOUS
 62
    7
 10
0
 20
0
 11
-0.9659259999999999
 21
0.258819
  0
LINE
  8
_0-2_0-10
  6
CONTINUOUS
 62
    7
 10
0
 20
0
 11
-0.9659259999999999
 21
-0.258819
  0
ENDBLK
  0
BLOCK
  2
-001-EDTIP_ARROW_E_1
 70
   64
 10
0
 20
0
 30
0
  0
LINE
  8
_0-0_0
  6
CONTINUOUS
 62
    7
 10
0
 20
0
 11
-1
 21
0
  0
LINE
  8
_0-0_0
  6
CONTINUOUS
 62
    7
 10
0
 20
0
 11
-0.9659259999999999
 21
-0.258819
  0
LINE
  8
_0-0_0
  6
CONTINUOUS
 62
    7
 10
0
 20
0
 11
-0.9659259999999999
 21
0.258819
  0
ENDBLK
  0
BLOCK
  2
-002-BLKF019_2
 70
   64
 10
0
 20
0
 30
0
  0
LINE
  8
_0-0_0
  6
CONTINUOUS
 62
    4
 10
111.728244
 20
214.25727900000001
 11
111.85897699999999
 21
214.26013299999999
  0
LINE
  8
_0-0_0
  6
CONTINUOUS
 62
    4
 10
111.85897699999999
 20
214.26013299999999
 11
111.98871599999999
 21
214.268673
  0
LINE
  8
_0-0_0
  6
CONTINUOUS
 62
    4
 10
111.98871599999999
 20
214.268673
 11
112.116472
 21
214.282834
  0
LINE
  8
_0-0_0
  6
CONTINUOUS
 62
    4
 10
112.116472
 20
214.282834
 11
112.241274
 21
214.30250899999998
  0
LINE
  8
_0-0_0
  6
CONTINUOUS
 62
    4
 10
112.241274
 20
214.30250899999998
 11
112.362171
 21
214.327548
  0
LINE
  8
_0-0_0
  6
CONTINUOUS
 62
    4
 10
112.362171
 20
214.327548
 11
112.478244
 21
214.35776000000001
  0
LINE
  8
_0-0_0
  6
CONTINUOUS
 62
    4
 10
112.478244
 20
214.35776000000001
 11
112.58860799999999
 21
214.39291499999998
  0
LINE
  8
_0-0_0
  6
CONTINUOUS
 62
    4
 10
112.58860799999999
 20
214.39291499999998
 11
112.692425
 21
214.43274500000001
  0
LINE
  8
_0-0_0
  6
CONTINUOUS
 62
    4
 10
112.692425
 20
214.43274500000001
 11
112.788904
 21
214.47694899999999
  0
LINE
  8
_0-0_0
  6
CONTINUOUS
 62
    4
 10
112.788904
 20
214.47694899999999
 11
112.87730999999999
 21
214.52518800000001
  0
LINE
  8
_0-0_0
  6
CONTINUOUS
 62
    4
 10
112.87730999999999
 20
214.52518800000001
 11
112.95697199999999
 21
214.57709600000001
  0
LINE
  8
_0-0_0
  6
CONTINUOUS
 62
    4
 10
112.95697199999999
 20
214.57709600000001
 11
113.02728199999999
 21
214.63227900000001
  0
LINE
  8
_0-0_0
  6
CONTINUOUS
 62
    4
 10
113.02728199999999
 20
214.63227900000001
 11
113.08770499999999
 21
214.69031499999999
  0
LINE
  8
_0-0_0
  6
CONTINUOUS
 62
    4
 10
113.08770499999999
 20
214.69031499999999
 11
113.13778299999999
 21
214.750764
  0
LINE
  8
_0-0_0
  6
CONTINUOUS
 62
    4
 10
113.13778299999999
 20
214.750764
 11
113.177132
 21
214.813164
  0
LINE
  8
_0-0_0
  6
CONTINUOUS
 62
    4
 10
113.177132
 20
214.813164
 11
113.205455
 21
214.87704299999998
  0
LINE
  8
_0-0_0
  6
CONTINUOUS
 62
    4
 10
113.205455
 20
214.87704299999998
 11
113.222536
 21
214.941912
  0
LINE
  8
_0-0_0
  6
CONTINUOUS
 62
    4
 10
113.222536
 20
214.941912
 11
113.228244
 21
215.00727900000001
  0
ENDBLK
  0
BLOCK
  2
-003-BLKF020_3
 70
   64
 10
0
 20
0
 30
0
  0
LINE
  8
_0-0_0
  6
CONTINUOUS
 62
    4
 10
111.728244
 20
214.58203800000001
 11
111.85897699999999
 21
214.58489199999999
  0
LINE
  8
_0-0_0
  6
CONTINUOUS
 62
    4
 10
111.85897699999999
 20
214.58489199999999
 11
111.98871599999999
 21
214.593432
  0
LINE
  8
_0-0_0
  6
CONTINUOUS
 62
    4
 10
111.98871599999999
 20
214.593432
 11
112.116472
 21
214.607594
  0
LINE
  8
_0-0_0
  6
CONTINUOUS
 62
    4
 10
112.116472
 20
214.607594
 11
112.241274
 21
214.62726900000001
  0
LINE
  8
_0-0_0
  6
CONTINUOUS
 62
    4
 10
112.241274
 20
214.62726900000001
 11
112.362171
 21
214.652307
  0
LINE
  8
_0-0_0
  6
CONTINUOUS
 62
    4
 10
112.362171
 20
214.652307
 11
112.478244
 21
214.68251900000001
  0
LINE
  8
_0-0_0
  6
CONTINUOUS
 62
    4
 10
112.478244
 20
214.68251900000001
 11
112.58860799999999
 21
214.71767399999998
  0
LINE
  8
_0-0_0
  6
CONTINUOUS
 62
    4
 10
112.58860799999999
 20
214.71767399999998
 11
112.692425
 21
214.757505
  0
LINE
  8
_0-0_0
  6
CONTINUOUS
 62
    4
 10
112.692425
 20
214.757505
 11
112.788904
 21
214.80170799999999
  0
LINE
  8
_0-0_0
  6
CONTINUOUS
 62
    4
 10
112.788904
 20
214.80170799999999
 11
112.87730999999999
 21
214.84994800000001
  0
LINE
  8
_0-0_0
  6
CONTINUOUS
 62
    4
 10
112.87730999999999
 20
214.84994800000001
 11
112.95697199999999
 21
214.901856
  0
LINE
  8
_0-0_0
  6
CONTINUOUS
 62
    4
 10
112.95697199999999
 20
214.901856
 11
113.02728199999999
 21
214.95703800000001
  0
LINE
  8
_0-0_0
  6
CONTINUOUS
 62
    4
 10
113.02728199999999
 20
214.95703800000001
 11
113.08770499999999
 21
215.01507499999999
  0
LINE
  8
_0-0_0
  6
CONTINUOUS
 62
    4
 10
113.08770499999999
 20
215.01507499999999
 11
113.13778299999999
 21
215.075523
  0
LINE
  8
_0-0_0
  6
CONTINUOUS
 62
    4
 10
113.13778299999999
 20
215.075523
 11
113.177132
 21
215.13792399999999
  0
LINE
  8
_0-0_0
  6
CONTINUOUS
 62
    4
 10
113.177132
 20
215.13792399999999
 11
113.205455
 21
215.20180199999998
  0
LINE
  8
_0-0_0
  6
CONTINUOUS
 62
    4
 10
113.205455
 20
215.20180199999998
 11
113.222536
 21
215.266671
  0
LINE
  8
_0-0_0
  6
CONTINUOUS
 62
    4
 10
113.222536
 20
215.266671
 11
113.228244
 21
215.33203800000001
  0
LINE
  8
_0-0_0
  6
CONTINUOUS
 62
    4
 10
113.228244
 20
215.33203800000001
 11
113.222536
 21
215.39740499999999
  0
LINE
  8
_0-0_0
  6
CONTINUOUS
 62
    4
 10
113.222536
 20
215.39740499999999
 11
113.205455
 21
215.462274
  0
LINE
  8
_0-0_0
  6
CONTINUOUS
 62
    4
 10
113.205455
 20
215.462274
 11
113.177132
 21
215.52615299999999
  0
LINE
  8
_0-0_0
  6
CONTINUOUS
 62
    4
 10
113.177132
 20
215.52615299999999
 11
113.13778299999999
 21
215.58855299999999
  0
LINE
  8
_0-0_0
  6
CONTINUOUS
 62
    4
 10
113.13778299999999
 20
215.58855299999999
 11
113.08770499999999
 21
215.64900199999999
  0
LINE
  8
_0-0_0
  6
CONTINUOUS
 62
    4
 10
113.08770499999999
 20
215.64900199999999
 11
113.02728199999999
 21
215.70703800000001
  0
LINE
  8
_0-0_0
  6
CONTINUOUS
 62
    4
 10
113.02728199999999
 20
215.70703800000001
 11
112.95697199999999
 21
215.76222100000001
  0
LINE
  8
_0-0_0
  6
CONTINUOUS
 62
    4
 10
112.95697199999999
 20
215.76222100000001
 11
112.87730999999999
 21
215.814129
  0
LINE
  8
_0-0_0
  6
CONTINUOUS
 62
    4
 10
112.87730999999999
 20
215.814129
 11
112.788904
 21
215.862368
  0
LINE
  8
_0-0_0
  6
CONTINUOUS
 62
    4
 10
112.788904
 20
215.862368
 11
112.692425
 21
215.90657200000001
  0
LINE
  8
_0-0_0
  6
CONTINUOUS
 62
    4
 10
112.692425
 20
215.90657200000001
 11
112.58860799999999
 21
215.946402
  0
LINE
  8
_0-0_0
  6
CONTINUOUS
 62
    4
 10
112.58860799999999
 20
215.946402
 11
112.478244
 21
215.981557
  0
LINE
  8
_0-0_0
  6
CONTINUOUS
 62
    4
 10
112.478244
 20
215.981557
 11
112.434126
 21
215.99380300000001
  0
ENDBLK
  0
BLOCK
  2
-004-BLKF021_4
 70
   64
 10
0
 20
0
 30
0
  0
LINE
  8
_0-0_0
  6
CONTINUOUS
 62
    4
 10
120.75561999999999
 20
205.25727900000001
 11
120.919037
 21
205.26084599999998
  0
LINE
  8
_0-0_0
  6
CONTINUOUS
 62
    4
 10
120.919037
 20
205.26084599999998
 11
121.08121099999999
 21
205.271522
  0
LINE
  8
_0-0_0
  6
CONTINUOUS
 62
    4
 10
121.08121099999999
 20
205.271522
 11
121.24090599999999
 21
205.28922299999999
  0
LINE
  8
_0-0_0
  6
CONTINUOUS
 62
    4
 10
121.24090599999999
 20
205.28922299999999
 11
121.39690799999999
 21
205.313817
  0
LINE
  8
_0-0_0
  6
CONTINUOUS
 62
    4
 10
121.39690799999999
 20
205.313817
 11
121.54802899999999
 21
205.34511499999999
  0
LINE
  8
_0-0_0
  6
CONTINUOUS
 62
    4
 10
121.54802899999999
 20
205.34511499999999
 11
121.69311999999999
 21
205.38288
  0
LINE
  8
_0-0_0
  6
CONTINUOUS
 62
    4
 10
121.69311999999999
 20
205.38288
 11
121.83107599999999
 21
205.42682400000001
  0
LINE
  8
_0-0_0
  6
CONTINUOUS
 62
    4
 10
121.83107599999999
 20
205.42682400000001
 11
121.960847
 21
205.47661199999998
  0
LINE
  8
_0-0_0
  6
CONTINUOUS
 62
    4
 10
121.960847
 20
205.47661199999998
 11
122.081445
 21
205.531866
  0
LINE
  8
_0-0_0
  6
CONTINUOUS
 62
    4
 10
122.081445
 20
205.531866
 11
122.19195399999999
 21
205.59216499999999
  0
LINE
  8
_0-0_0
  6
CONTINUOUS
 62
    4
 10
122.19195399999999
 20
205.59216499999999
 11
122.29152999999999
 21
205.65705099999999
  0
LINE
  8
_0-0_0
  6
CONTINUOUS
 62
    4
 10
122.29152999999999
 20
205.65705099999999
 11
122.379418
 21
205.72602900000001
  0
LINE
  8
_0-0_0
  6
CONTINUOUS
 62
    4
 10
122.379418
 20
205.72602900000001
 11
122.454947
 21
205.798574
  0
LINE
  8
_0-0_0
  6
CONTINUOUS
 62
    4
 10
122.454947
 20
205.798574
 11
122.517544
 21
205.87413499999999
  0
LINE
  8
_0-0_0
  6
CONTINUOUS
 62
    4
 10
122.517544
 20
205.87413499999999
 11
122.566731
 21
205.95213599999999
  0
LINE
  8
_0-0_0
  6
CONTINUOUS
 62
    4
 10
122.566731
 20
205.95213599999999
 11
122.602135
 21
206.03198399999999
  0
LINE
  8
_0-0_0
  6
CONTINUOUS
 62
    4
 10
122.602135
 20
206.03198399999999
 11
122.623485
 21
206.11306999999999
  0
LINE
  8
_0-0_0
  6
CONTINUOUS
 62
    4
 10
122.623485
 20
206.11306999999999
 11
122.63061999999999
 21
206.19477900000001
  0
ENDBLK
  0
BLOCK
  2
-005-BLKF022_5
 70
   64
 10
0
 20
0
 30
0
  0
LINE
  8
_0-0_0
  6
CONTINUOUS
 62
    4
 10
120.75561999999999
 20
205.58203800000001
 11
120.919037
 21
205.58560600000001
  0
LINE
  8
_0-0_0
  6
CONTINUOUS
 62
    4
 10
120.919037
 20
205.58560600000001
 11
121.08121099999999
 21
205.596281
  0
LINE
  8
_0-0_0
  6
CONTINUOUS
 62
    4
 10
121.08121099999999
 20
205.596281
 11
121.24090599999999
 21
205.61398299999999
  0
LINE
  8
_0-0_0
  6
CONTINUOUS
 62
    4
 10
121.24090599999999
 20
205.61398299999999
 11
121.39690799999999
 21
205.638576
  0
LINE
  8
_0-0_0
  6
CONTINUOUS
 62
    4
 10
121.39690799999999
 20
205.638576
 11
121.54802899999999
 21
205.66987499999999
  0
LINE
  8
_0-0_0
  6
CONTINUOUS
 62
    4
 10
121.54802899999999
 20
205.66987499999999
 11
121.69311999999999
 21
205.707639
  0
LINE
  8
_0-0_0
  6
CONTINUOUS
 62
    4
 10
121.69311999999999
 20
205.707639
 11
121.83107599999999
 21
205.75158300000001
  0
LINE
  8
_0-0_0
  6
CONTINUOUS
 62
    4
 10
121.83107599999999
 20
205.75158300000001
 11
121.960847
 21
205.80137199999998
  0
LINE
  8
_0-0_0
  6
CONTINUOUS
 62
    4
 10
121.960847
 20
205.80137199999998
 11
122.081445
 21
205.856626
  0
LINE
  8
_0-0_0
  6
CONTINUOUS
 62
    4
 10
122.081445
 20
205.856626
 11
122.19195399999999
 21
205.91692499999999
  0
LINE
  8
_0-0_0
  6
CONTINUOUS
 62
    4
 10
122.19195399999999
 20
205.91692499999999
 11
122.29152999999999
 21
205.98180999999999
  0
LINE
  8
_0-0_0
  6
CONTINUOUS
 62
    4
 10
122.29152999999999
 20
205.98180999999999
 11
122.379418
 21
206.05078800000001
  0
LINE
  8
_0-0_0
  6
CONTINUOUS
 62
    4
 10
122.379418
 20
206.05078800000001
 11
122.454947
 21
206.12333399999999
  0
LINE
  8
_0-0_0
  6
CONTINUOUS
 62
    4
 10
122.454947
 20
206.12333399999999
 11
122.517544
 21
206.19889399999999
  0
LINE
  8
_0-0_0
  6
CONTINUOUS
 62
    4
 10
122.517544
 20
206.19889399999999
 11
122.566731
 21
206.27689499999999
  0
LINE
  8
_0-0_0
  6
CONTINUOUS
 62
    4
 10
122.566731
 20
206.27689499999999
 11
122.602135
 21
206.35674299999999
  0
LINE
  8
_0-0_0
  6
CONTINUOUS
 62
    4
 10
122.602135
 20
206.35674299999999
 11
122.623485
 21
206.43782999999999
  0
LINE
  8
_0-0_0
  6
CONTINUOUS
 62
    4
 10
122.623485
 20
206.43782999999999
 11
122.63061999999999
 21
206.51953800000001
  0
LINE
  8
_0-0_0
  6
CONTINUOUS
 62
    4
 10
122.63061999999999
 20
206.51953800000001
 11
122.623485
 21
206.601247
  0
LINE
  8
_0-0_0
  6
CONTINUOUS
 62
    4
 10
122.623485
 20
206.601247
 11
122.602135
 21
206.68233299999999
  0
LINE
  8
_0-0_0
  6
CONTINUOUS
 62
    4
 10
122.602135
 20
206.68233299999999
 11
122.566731
 21
206.76218099999999
  0
LINE
  8
_0-0_0
  6
CONTINUOUS
 62
    4
 10
122.566731
 20
206.76218099999999
 11
122.517544
 21
206.84018199999999
  0
LINE
  8
_0-0_0
  6
CONTINUOUS
 62
    4
 10
122.517544
 20
206.84018199999999
 11
122.454947
 21
206.91574299999999
  0
LINE
  8
_0-0_0
  6
CONTINUOUS
 62
    4
 10
122.454947
 20
206.91574299999999
 11
122.379418
 21
206.98828800000001
  0
LINE
  8
_0-0_0
  6
CONTINUOUS
 62
    4
 10
122.379418
 20
206.98828800000001
 11
122.29152999999999
 21
207.05726599999999
  0
ENDBLK
  0
BLOCK
  2
-006-BLKF023_6
 70
   64
 10
0
 20
0
 30
0
  0
LINE
  8
_0-0_0
  6
CONTINUOUS
 62
    4
 10
115.881061
 20
208.76953800000001
 11
115.91374399999999
 21
208.77025199999999
  0
LINE
  8
_0-0_0
  6
CONTINUOUS
 62
    4
 10
115.91374399999999
 20
208.77025199999999
 11
115.946179
 21
208.772387
  0
LINE
  8
_0-0_0
  6
CONTINUOUS
 62
    4
 10
115.946179
 20
208.772387
 11
115.97811799999999
 21
208.77592699999999
  0
LINE
  8
_0-0_0
  6
CONTINUOUS
 62
    4
 10
115.97811799999999
 20
208.77592699999999
 11
116.00931799999999
 21
208.78084599999999
  0
LINE
  8
_0-0_0
  6
CONTINUOUS
 62
    4
 10
116.00931799999999
 20
208.78084599999999
 11
116.03954299999999
 21
208.78710599999999
  0
LINE
  8
_0-0_0
  6
CONTINUOUS
 62
    4
 10
116.03954299999999
 20
208.78710599999999
 11
116.068561
 21
208.79465899999999
  0
LINE
  8
_0-0_0
  6
CONTINUOUS
 62
    4
 10
116.068561
 20
208.79465899999999
 11
116.096152
 21
208.803447
  0
LINE
  8
_0-0_0
  6
CONTINUOUS
 62
    4
 10
116.096152
 20
208.803447
 11
116.122106
 21
208.81340499999998
  0
LINE
  8
_0-0_0
  6
CONTINUOUS
 62
    4
 10
116.122106
 20
208.81340499999998
 11
116.14622599999999
 21
208.82445599999999
  0
LINE
  8
_0-0_0
  6
CONTINUOUS
 62
    4
 10
116.14622599999999
 20
208.82445599999999
 11
116.168327
 21
208.83651599999998
  0
LINE
  8
_0-0_0
  6
CONTINUOUS
 62
    4
 10
116.168327
 20
208.83651599999998
 11
116.18824299999999
 21
208.84949299999999
  0
LINE
  8
_0-0_0
  6
CONTINUOUS
 62
    4
 10
116.18824299999999
 20
208.84949299999999
 11
116.20582
 21
208.86328800000001
  0
LINE
  8
_0-0_0
  6
CONTINUOUS
 62
    4
 10
116.20582
 20
208.86328800000001
 11
116.220926
 21
208.87779699999998
  0
LINE
  8
_0-0_0
  6
CONTINUOUS
 62
    4
 10
116.220926
 20
208.87779699999998
 11
116.233446
 21
208.89291
  0
LINE
  8
_0-0_0
  6
CONTINUOUS
 62
    4
 10
116.233446
 20
208.89291
 11
116.243283
 21
208.90851
  0
LINE
  8
_0-0_0
  6
CONTINUOUS
 62
    4
 10
116.243283
 20
208.90851
 11
116.250364
 21
208.92447899999999
  0
LINE
  8
_0-0_0
  6
CONTINUOUS
 62
    4
 10
116.250364
 20
208.92447899999999
 11
116.25463399999999
 21
208.940697
  0
LINE
  8
_0-0_0
  6
CONTINUOUS
 62
    4
 10
116.25463399999999
 20
208.940697
 11
116.256061
 21
208.95703800000001
  0
ENDBLK
  0
BLOCK
  2
-007-BLKF024_7
 70
   64
 10
0
 20
0
 30
0
  0
LINE
  8
_0-0_0
  6
CONTINUOUS
 62
    4
 10
125.409913
 20
196.25727900000001
 11
125.606013
 21
196.26156
  0
LINE
  8
_0-0_0
  6
CONTINUOUS
 62
    4
 10
125.606013
 20
196.26156
 11
125.800621
 21
196.27437
  0
LINE
  8
_0-0_0
  6
CONTINUOUS
 62
    4
 10
125.800621
 20
196.27437
 11
125.99225599999999
 21
196.295612
  0
LINE
  8
_0-0_0
  6
CONTINUOUS
 62
    4
 10
125.99225599999999
 20
196.295612
 11
126.17945799999999
 21
196.32512500000001
  0
LINE
  8
_0-0_0
  6
CONTINUOUS
 62
    4
 10
126.17945799999999
 20
196.32512500000001
 11
126.360804
 21
196.362683
  0
LINE
  8
_0-0_0
  6
CONTINUOUS
 62
    4
 10
126.360804
 20
196.362683
 11
126.534913
 21
196.40799999999998
  0
LINE
  8
_0-0_0
  6
CONTINUOUS
 62
    4
 10
126.534913
 20
196.40799999999998
 11
126.70046
 21
196.460733
  0
LINE
  8
_0-0_0
  6
CONTINUOUS
 62
    4
 10
126.70046
 20
196.460733
 11
126.85618499999999
 21
196.52047899999999
  0
LINE
  8
_0-0_0
  6
CONTINUOUS
 62
    4
 10
126.85618499999999
 20
196.52047899999999
 11
127.00090299999999
 21
196.58678399999999
  0
LINE
  8
_0-0_0
  6
CONTINUOUS
 62
    4
 10
127.00090299999999
 20
196.58678399999999
 11
127.13351299999999
 21
196.659143
  0
LINE
  8
_0-0_0
  6
CONTINUOUS
 62
    4
 10
127.13351299999999
 20
196.659143
 11
127.253005
 21
196.73700500000001
  0
LINE
  8
_0-0_0
  6
CONTINUOUS
 62
    4
 10
127.253005
 20
196.73700500000001
 11
127.35846999999999
 21
196.81977900000001
  0
LINE
  8
_0-0_0
  6
CONTINUOUS
 62
    4
 10
127.35846999999999
 20
196.81977900000001
 11
127.449105
 21
196.906833
  0
LINE
  8
_0-0_0
  6
CONTINUOUS
 62
    4
 10
127.449105
 20
196.906833
 11
127.52422099999999
 21
196.99750599999998
  0
LINE
  8
_0-0_0
  6
CONTINUOUS
 62
    4
 10
127.52422099999999
 20
196.99750599999998
 11
127.583246
 21
197.09110699999999
  0
LINE
  8
_0-0_0
  6
CONTINUOUS
 62
    4
 10
127.583246
 20
197.09110699999999
 11
127.62573
 21
197.186925
  0
LINE
  8
_0-0_0
  6
CONTINUOUS
 62
    4
 10
127.62573
 20
197.186925
 11
127.651351
 21
197.28422900000001
  0
LINE
  8
_0-0_0
  6
CONTINUOUS
 62
    4
 10
127.651351
 20
197.28422900000001
 11
127.659913
 21
197.38227900000001
  0
ENDBLK
  0
BLOCK
  2
-008-BLKF025_8
 70
   64
 10
0
 20
0
 30
0
  0
LINE
  8
_0-0_0
  6
CONTINUOUS
 62
    4
 10
125.409913
 20
196.58203800000001
 11
125.606013
 21
196.586319
  0
LINE
  8
_0-0_0
  6
CONTINUOUS
 62
    4
 10
125.606013
 20
196.586319
 11
125.800621
 21
196.59913
  0
LINE
  8
_0-0_0
  6
CONTINUOUS
 62
    4
 10
125.800621
 20
196.59913
 11
125.99225599999999
 21
196.620372
  0
LINE
  8
_0-0_0
  6
CONTINUOUS
 62
    4
 10
125.99225599999999
 20
196.620372
 11
126.17945799999999
 21
196.64988399999998
  0
LINE
  8
_0-0_0
  6
CONTINUOUS
 62
    4
 10
126.17945799999999
 20
196.64988399999998
 11
126.360804
 21
196.687442
  0
LINE
  8
_0-0_0
  6
CONTINUOUS
 62
    4
 10
126.360804
 20
196.687442
 11
126.534913
 21
196.73276000000001
  0
LINE
  8
_0-0_0
  6
CONTINUOUS
 62
    4
 10
126.534913
 20
196.73276000000001
 11
126.70046
 21
196.785492
  0
LINE
  8
_0-0_0
  6
CONTINUOUS
 62
    4
 10
126.70046
 20
196.785492
 11
126.85618499999999
 21
196.84523799999999
  0
LINE
  8
_0-0_0
  6
CONTINUOUS
 62
    4
 10
126.85618499999999
 20
196.84523799999999
 11
127.00090299999999
 21
196.91154299999999
  0
LINE
  8
_0-0_0
  6
CONTINUOUS
 62
    4
 10
127.00090299999999
 20
196.91154299999999
 11
127.13351299999999
 21
196.983902
  0
LINE
  8
_0-0_0
  6
CONTINUOUS
 62
    4
 10
127.13351299999999
 20
196.983902
 11
127.253005
 21
197.061765
  0
LINE
  8
_0-0_0
  6
CONTINUOUS
 62
    4
 10
127.253005
 20
197.061765
 11
127.35846999999999
 21
197.14453800000001
  0
LINE
  8
_0-0_0
  6
CONTINUOUS
 62
    4
 10
127.35846999999999
 20
197.14453800000001
 11
127.449105
 21
197.231593
  0
LINE
  8
_0-0_0
  6
CONTINUOUS
 62
    4
 10
127.449105
 20
197.231593
 11
127.52422099999999
 21
197.32226600000001
  0
LINE
  8
_0-0_0
  6
CONTINUOUS
 62
    4
 10
127.52422099999999
 20
197.32226600000001
 11
127.583246
 21
197.41586699999999
  0
LINE
  8
_0-0_0
  6
CONTINUOUS
 62
    4
 10
127.583246
 20
197.41586699999999
 11
127.62573
 21
197.511684
  0
LINE
  8
_0-0_0
  6
CONTINUOUS
 62
    4
 10
127.62573
 20
197.511684
 11
127.651351
 21
197.60898800000001
  0
LINE
  8
_0-0_0
  6
CONTINUOUS
 62
    4
 10
127.651351
 20
197.60898800000001
 11
127.659913
 21
197.70703800000001
  0
LINE
  8
_0-0_0
  6
CONTINUOUS
 62
    4
 10
127.659913
 20
197.70703800000001
 11
127.651351
 21
197.805089
  0
ENDBLK
  0
BLOCK
  2
-009-BLKF026_9
 70
   64
 10
0
 20
0
 30
0
  0
LINE
  8
_0-0_0
  6
CONTINUOUS
 62
    4
 10
123.519023
 20
199.76953800000001
 11
123.55170699999999
 21
199.77025199999999
  0
LINE
  8
_0-0_0
  6
CONTINUOUS
 62
    4
 10
123.55170699999999
 20
199.77025199999999
 11
123.584141
 21
199.772387
  0
LINE
  8
_0-0_0
  6
CONTINUOUS
 62
    4
 10
123.584141
 20
199.772387
 11
123.61608099999999
 21
199.77592699999999
  0
LINE
  8
_0-0_0
  6
CONTINUOUS
 62
    4
 10
123.61608099999999
 20
199.77592699999999
 11
123.647281
 21
199.78084599999999
  0
LINE
  8
_0-0_0
  6
CONTINUOUS
 62
    4
 10
123.647281
 20
199.78084599999999
 11
123.67750499999999
 21
199.78710599999999
  0
LINE
  8
_0-0_0
  6
CONTINUOUS
 62
    4
 10
123.67750499999999
 20
199.78710599999999
 11
123.706523
 21
199.79465899999999
  0
LINE
  8
_0-0_0
  6
CONTINUOUS
 62
    4
 10
123.706523
 20
199.79465899999999
 11
123.734115
 21
199.803447
  0
LINE
  8
_0-0_0
  6
CONTINUOUS
 62
    4
 10
123.734115
 20
199.803447
 11
123.760069
 21
199.81340499999998
  0
LINE
  8
_0-0_0
  6
CONTINUOUS
 62
    4
 10
123.760069
 20
199.81340499999998
 11
123.784188
 21
199.82445599999999
  0
LINE
  8
_0-0_0
  6
CONTINUOUS
 62
    4
 10
123.784188
 20
199.82445599999999
 11
123.80629
 21
199.83651599999998
  0
LINE
  8
_0-0_0
  6
CONTINUOUS
 62
    4
 10
123.80629
 20
199.83651599999998
 11
123.826205
 21
199.84949299999999
  0
LINE
  8
_0-0_0
  6
CONTINUOUS
 62
    4
 10
123.826205
 20
199.84949299999999
 11
123.843783
 21
199.86328800000001
  0
LINE
  8
_0-0_0
  6
CONTINUOUS
 62
    4
 10
123.843783
 20
199.86328800000001
 11
123.858889
 21
199.87779699999998
  0
LINE
  8
_0-0_0
  6
CONTINUOUS
 62
    4
 10
123.858889
 20
199.87779699999998
 11
123.871408
 21
199.89291
  0
LINE
  8
_0-0_0
  6
CONTINUOUS
 62
    4
 10
123.871408
 20
199.89291
 11
123.881246
 21
199.90851
  0
LINE
  8
_0-0_0
  6
CONTINUOUS
 62
    4
 10
123.881246
 20
199.90851
 11
123.888326
 21
199.92447899999999
  0
ENDBLK
  0
BLOCK
  2
-010-BLKF027_10
 70
   64
 10
0
 20
0
 30
0
  0
LINE
  8
_0-0_0
  6
CONTINUOUS
 62
    4
 10
127.592415
 20
187.25727900000001
 11
127.85388299999999
 21
187.262987
  0
LINE
  8
_0-0_0
  6
CONTINUOUS
 62
    4
 10
127.85388299999999
 20
187.262987
 11
128.11336
 21
187.280067
  0
LINE
  8
_0-0_0
  6
CONTINUOUS
 62
    4
 10
128.11336
 20
187.280067
 11
128.36887200000001
 21
187.30839
  0
LINE
  8
_0-0_0
  6
CONTINUOUS
 62
    4
 10
128.36887200000001
 20
187.30839
 11
128.61847599999998
 21
187.34773999999998
  0
LINE
  8
_0-0_0
  6
CONTINUOUS
 62
    4
 10
128.61847599999998
 20
187.34773999999998
 11
128.86027000000001
 21
187.397817
  0
LINE
  8
_0-0_0
  6
CONTINUOUS
 62
    4
 10
128.86027000000001
 20
187.397817
 11
129.09241499999998
 21
187.45824099999998
  0
LINE
  8
_0-0_0
  6
CONTINUOUS
 62
    4
 10
129.09241499999998
 20
187.45824099999998
 11
129.31314499999999
 21
187.52855099999999
  0
LINE
  8
_0-0_0
  6
CONTINUOUS
 62
    4
 10
129.31314499999999
 20
187.52855099999999
 11
129.520778
 21
187.608212
  0
LINE
  8
_0-0_0
  6
CONTINUOUS
 62
    4
 10
129.520778
 20
187.608212
 11
129.71373600000001
 21
187.69661899999999
  0
LINE
  8
_0-0_0
  6
CONTINUOUS
 62
    4
 10
129.71373600000001
 20
187.69661899999999
 11
129.89054899999999
 21
187.79309699999998
  0
LINE
  8
_0-0_0
  6
CONTINUOUS
 62
    4
 10
129.89054899999999
 20
187.79309699999998
 11
130.04987099999999
 21
187.896914
  0
LINE
  8
_0-0_0
  6
CONTINUOUS
 62
    4
 10
130.04987099999999
 20
187.896914
 11
130.190491
 21
188.00727900000001
  0
LINE
  8
_0-0_0
  6
CONTINUOUS
 62
    4
 10
130.190491
 20
188.00727900000001
 11
130.311339
 21
188.12335100000001
  0
LINE
  8
_0-0_0
  6
CONTINUOUS
 62
    4
 10
130.311339
 20
188.12335100000001
 11
130.411493
 21
188.24424899999999
  0
LINE
  8
_0-0_0
  6
CONTINUOUS
 62
    4
 10
130.411493
 20
188.24424899999999
 11
130.490193
 21
188.36904999999998
  0
LINE
  8
_0-0_0
  6
CONTINUOUS
 62
    4
 10
130.490193
 20
188.36904999999998
 11
130.51552499999999
 21
188.41985199999999
  0
ENDBLK
  0
BLOCK
  2
-011-BLKF028_11
 70
   64
 10
0
 20
0
 30
0
  0
LINE
  8
_0-0_0
  6
CONTINUOUS
 62
    4
 10
127.592415
 20
187.58203800000001
 11
127.85388299999999
 21
187.587746
  0
LINE
  8
_0-0_0
  6
CONTINUOUS
 62
    4
 10
127.85388299999999
 20
187.587746
 11
128.11336
 21
187.604827
  0
LINE
  8
_0-0_0
  6
CONTINUOUS
 62
    4
 10
128.11336
 20
187.604827
 11
128.36887200000001
 21
187.63315
  0
LINE
  8
_0-0_0
  6
CONTINUOUS
 62
    4
 10
128.36887200000001
 20
187.63315
 11
128.61847599999998
 21
187.6724989999999
  0
LINE
  8
_0-0_0
  6
CONTINUOUS
 62
    4
 10
128.61847599999998
 20
187.6724989999999
 11
128.86027000000001
 21
187.722577
  0
LINE
  8
_0-0_0
  6
CONTINUOUS
 62
    4
 10
128.86027000000001
 20
187.722577
 11
129.09241499999998
 21
187.78299999999998
  0
LINE
  8
_0-0_0
  6
CONTINUOUS
 62
    4
 10
129.09241499999998
 20
187.78299999999998
 11
129.31314499999999
 21
187.85330999999999
  0
LINE
  8
_0-0_0
  6
CONTINUOUS
 62
    4
 10
129.31314499999999
 20
187.85330999999999
 11
129.520778
 21
187.932972
  0
LINE
  8
_0-0_0
  6
CONTINUOUS
 62
    4
 10
129.520778
 20
187.932972
 11
129.71373600000001
 21
188.02137799999999
  0
LINE
  8
_0-0_0
  6
CONTINUOUS
 62
    4
 10
129.71373600000001
 20
188.02137799999999
 11
129.89054899999999
 21
188.11785699999998
  0
LINE
  8
_0-0_0
  6
CONTINUOUS
 62
    4
 10
129.89054899999999
 20
188.11785699999998
 11
130.04987099999999
 21
188.221674
  0
LINE
  8
_0-0_0
  6
CONTINUOUS
 62
    4
 10
130.04987099999999
 20
188.221674
 11
130.190491
 21
188.33203800000001
  0
LINE
  8
_0-0_0
  6
CONTINUOUS
 62
    4
 10
130.190491
 20
188.33203800000001
 11
130.311339
 21
188.44811100000001
  0
LINE
  8
_0-0_0
  6
CONTINUOUS
 62
    4
 10
130.311339
 20
188.44811100000001
 11
130.411493
 21
188.56900799999999
  0
LINE
  8
_0-0_0
  6
CONTINUOUS
 62
    4
 10
130.411493
 20
188.56900799999999
 11
130.490193
 21
188.69381000000001
  0
LINE
  8
_0-0_0
  6
CONTINUOUS
 62
    4
 10
130.490193
 20
188.69381000000001
 11
130.51552499999999
 21
188.74461199999998
  0
ENDBLK
  0
BLOCK
  2
-012-BLKF029_12
 70
   64
 10
0
 20
0
 30
0
  0
LINE
  8
_0-0_0
  6
CONTINUOUS
 62
    4
 10
127.655415
 20
190.76953800000001
 11
127.70117199999999
 21
190.77053699999999
  0
LINE
  8
_0-0_0
  6
CONTINUOUS
 62
    4
 10
127.70117199999999
 20
190.77053699999999
 11
127.746581
 21
190.773526
  0
LINE
  8
_0-0_0
  6
CONTINUOUS
 62
    4
 10
127.746581
 20
190.773526
 11
127.791295
 21
190.77848299999999
  0
LINE
  8
_0-0_0
  6
CONTINUOUS
 62
    4
 10
127.791295
 20
190.77848299999999
 11
127.83497599999999
 21
190.785369
  0
LINE
  8
_0-0_0
  6
CONTINUOUS
 62
    4
 10
127.83497599999999
 20
190.785369
 11
127.87729
 21
190.79413299999998
  0
LINE
  8
_0-0_0
  6
CONTINUOUS
 62
    4
 10
127.87729
 20
190.79413299999998
 11
127.91791499999999
 21
190.804707
  0
LINE
  8
_0-0_0
  6
CONTINUOUS
 62
    4
 10
127.91791499999999
 20
190.804707
 11
127.95654299999999
 21
190.817011
  0
LINE
  8
_0-0_0
  6
CONTINUOUS
 62
    4
 10
127.95654299999999
 20
190.817011
 11
127.992879
 21
190.83095199999999
  0
LINE
  8
_0-0_0
  6
CONTINUOUS
 62
    4
 10
127.992879
 20
190.83095199999999
 11
128.02664599999999
 21
190.84642299999998
  0
LINE
  8
_0-0_0
  6
CONTINUOUS
 62
    4
 10
128.02664599999999
 20
190.84642299999998
 11
128.057589
 21
190.86330699999999
  0
LINE
  8
_0-0_0
  6
CONTINUOUS
 62
    4
 10
128.057589
 20
190.86330699999999
 11
128.08546999999998
 21
190.88147399999999
  0
LINE
  8
_0-0_0
  6
CONTINUOUS
 62
    4
 10
128.08546999999998
 20
190.88147399999999
 11
128.11007900000001
 21
190.900788
  0
LINE
  8
_0-0_0
  6
CONTINUOUS
 62
    4
 10
128.11007900000001
 20
190.900788
 11
128.13122699999999
 21
190.92110099999999
  0
LINE
  8
_0-0_0
  6
CONTINUOUS
 62
    4
 10
128.13122699999999
 20
190.92110099999999
 11
128.13867999999999
 21
190.929471
  0
ENDBLK
  0
BLOCK
  2
-013-BLKF030_13
 70
   64
 10
0
 20
0
 30
0
  0
LINE
  8
_0-0_0
  6
CONTINUOUS
 62
    4
 10
127.828252
 20
178.25727900000001
 11
128.15508600000001
 21
178.26441399999998
  0
LINE
  8
_0-0_0
  6
CONTINUOUS
 62
    4
 10
128.15508600000001
 20
178.26441399999998
 11
128.479433
 21
178.285764
  0
LINE
  8
_0-0_0
  6
CONTINUOUS
 62
    4
 10
128.479433
 20
178.285764
 11
128.79882399999999
 21
178.321168
  0
LINE
  8
_0-0_0
  6
CONTINUOUS
 62
    4
 10
128.79882399999999
 20
178.321168
 11
129.11082799999999
 21
178.37035499999998
  0
LINE
  8
_0-0_0
  6
CONTINUOUS
 62
    4
 10
129.11082799999999
 20
178.37035499999998
 11
129.413071
 21
178.432952
  0
LINE
  8
_0-0_0
  6
CONTINUOUS
 62
    4
 10
129.413071
 20
178.432952
 11
129.70325199999999
 21
178.50848099999998
  0
LINE
  8
_0-0_0
  6
CONTINUOUS
 62
    4
 10
129.70325199999999
 20
178.50848099999998
 11
129.97916399999999
 21
178.596369
  0
LINE
  8
_0-0_0
  6
CONTINUOUS
 62
    4
 10
129.97916399999999
 20
178.596369
 11
130.238706
 21
178.69594499999999
  0
LINE
  8
_0-0_0
  6
CONTINUOUS
 62
    4
 10
130.238706
 20
178.69594499999999
 11
130.479903
 21
178.806454
  0
LINE
  8
_0-0_0
  6
CONTINUOUS
 62
    4
 10
130.479903
 20
178.806454
 11
130.70091899999999
 21
178.927052
  0
LINE
  8
_0-0_0
  6
CONTINUOUS
 62
    4
 10
130.70091899999999
 20
178.927052
 11
130.90007199999999
 21
179.056823
  0
LINE
  8
_0-0_0
  6
CONTINUOUS
 62
    4
 10
130.90007199999999
 20
179.056823
 11
131.07584700000001
 21
179.19477900000001
  0
LINE
  8
_0-0_0
  6
CONTINUOUS
 62
    4
 10
131.07584700000001
 20
179.19477900000001
 11
131.22690600000001
 21
179.33986999999999
  0
LINE
  8
_0-0_0
  6
CONTINUOUS
 62
    4
 10
131.22690600000001
 20
179.33986999999999
 11
131.280145
 21
179.39965799999998
  0
ENDBLK
  0
BLOCK
  2
-014-BLKF031_14
 70
   64
 10
0
 20
0
 30
0
  0
LINE
  8
_0-0_0
  6
CONTINUOUS
 62
    4
 10
127.828252
 20
178.58203800000001
 11
128.15508600000001
 21
178.58917299999998
  0
LINE
  8
_0-0_0
  6
CONTINUOUS
 62
    4
 10
128.15508600000001
 20
178.58917299999998
 11
128.479433
 21
178.61052399999999
  0
LINE
  8
_0-0_0
  6
CONTINUOUS
 62
    4
 10
128.479433
 20
178.61052399999999
 11
128.79882399999999
 21
178.645927
  0
LINE
  8
_0-0_0
  6
CONTINUOUS
 62
    4
 10
128.79882399999999
 20
178.645927
 11
129.11082799999999
 21
178.69511499999998
  0
LINE
  8
_0-0_0
  6
CONTINUOUS
 62
    4
 10
129.11082799999999
 20
178.69511499999998
 11
129.413071
 21
178.757711
  0
LINE
  8
_0-0_0
  6
CONTINUOUS
 62
    4
 10
129.413071
 20
178.757711
 11
129.70325199999999
 21
178.83324099999998
  0
LINE
  8
_0-0_0
  6
CONTINUOUS
 62
    4
 10
129.70325199999999
 20
178.83324099999998
 11
129.97916399999999
 21
178.92112800000001
  0
LINE
  8
_0-0_0
  6
CONTINUOUS
 62
    4
 10
129.97916399999999
 20
178.92112800000001
 11
130.238706
 21
179.02070499999999
  0
LINE
  8
_0-0_0
  6
CONTINUOUS
 62
    4
 10
130.238706
 20
179.02070499999999
 11
130.479903
 21
179.131213
  0
LINE
  8
_0-0_0
  6
CONTINUOUS
 62
    4
 10
130.479903
 20
179.131213
 11
130.70091899999999
 21
179.251812
  0
LINE
  8
_0-0_0
  6
CONTINUOUS
 62
    4
 10
130.70091899999999
 20
179.251812
 11
130.90007199999999
 21
179.381582
  0
LINE
  8
_0-0_0
  6
CONTINUOUS
 62
    4
 10
130.90007199999999
 20
179.381582
 11
131.07584700000001
 21
179.51953800000001
  0
LINE
  8
_0-0_0
  6
CONTINUOUS
 62
    4
 10
131.07584700000001
 20
179.51953800000001
 11
131.22690600000001
 21
179.66462899999999
  0
LINE
  8
_0-0_0
  6
CONTINUOUS
 62
    4
 10
131.22690600000001
 20
179.66462899999999
 11
131.280145
 21
179.72441699999998
  0
ENDBLK
  0
BLOCK
  2
-015-BLKF032_15
 70
   64
 10
0
 20
0
 30
0
  0
LINE
  8
_0-0_0
  6
CONTINUOUS
 62
    4
 10
129.13613499999999
 20
181.76953800000001
 11
129.201502
 21
181.77096499999998
  0
LINE
  8
_0-0_0
  6
CONTINUOUS
 62
    4
 10
129.201502
 20
181.77096499999998
 11
129.26637099999999
 21
181.775235
  0
LINE
  8
_0-0_0
  6
CONTINUOUS
 62
    4
 10
129.26637099999999
 20
181.775235
 11
129.330249
 21
181.782316
  0
LINE
  8
_0-0_0
  6
CONTINUOUS
 62
    4
 10
129.330249
 20
181.782316
 11
129.39265
 21
181.79215400000001
  0
LINE
  8
_0-0_0
  6
CONTINUOUS
 62
    4
 10
129.39265
 20
181.79215400000001
 11
129.453099
 21
181.804673
  0
LINE
  8
_0-0_0
  6
CONTINUOUS
 62
    4
 10
129.453099
 20
181.804673
 11
129.51113499999999
 21
181.81977900000001
  0
LINE
  8
_0-0_0
  6
CONTINUOUS
 62
    4
 10
129.51113499999999
 20
181.81977900000001
 11
129.56631699999999
 21
181.83735599999999
  0
LINE
  8
_0-0_0
  6
CONTINUOUS
 62
    4
 10
129.56631699999999
 20
181.83735599999999
 11
129.61822599999999
 21
181.85727199999999
  0
LINE
  8
_0-0_0
  6
CONTINUOUS
 62
    4
 10
129.61822599999999
 20
181.85727199999999
 11
129.66646499999998
 21
181.87937299999998
  0
LINE
  8
_0-0_0
  6
CONTINUOUS
 62
    4
 10
129.66646499999998
 20
181.87937299999998
 11
129.71066799999999
 21
181.90349299999999
  0
ENDBLK
  0
BLOCK
  2
-016-BLKF033_16
 70
   64
 10
0
 20
0
 30
0
  0
LINE
  8
_0-0_0
  6
CONTINUOUS
 62
    4
 10
125.71591899999999
 20
169.25727900000001
 11
126.17348699999999
 21
169.267268
  0
LINE
  8
_0-0_0
  6
CONTINUOUS
 62
    4
 10
126.17348699999999
 20
169.267268
 11
126.627572
 21
169.29715799999999
  0
LINE
  8
_0-0_0
  6
CONTINUOUS
 62
    4
 10
126.627572
 20
169.29715799999999
 11
127.074719
 21
169.34672299999999
  0
LINE
  8
_0-0_0
  6
CONTINUOUS
 62
    4
 10
127.074719
 20
169.34672299999999
 11
127.511525
 21
169.41558599999999
  0
LINE
  8
_0-0_0
  6
CONTINUOUS
 62
    4
 10
127.511525
 20
169.41558599999999
 11
127.93466499999999
 21
169.50322099999999
  0
LINE
  8
_0-0_0
  6
CONTINUOUS
 62
    4
 10
127.93466499999999
 20
169.50322099999999
 11
128.34091900000001
 21
169.60896199999999
  0
LINE
  8
_0-0_0
  6
CONTINUOUS
 62
    4
 10
128.34091900000001
 20
169.60896199999999
 11
128.72719499999999
 21
169.73200499999998
  0
LINE
  8
_0-0_0
  6
CONTINUOUS
 62
    4
 10
128.72719499999999
 20
169.73200499999998
 11
129.09055399999999
 21
169.87141199999999
  0
LINE
  8
_0-0_0
  6
CONTINUOUS
 62
    4
 10
129.09055399999999
 20
169.87141199999999
 11
129.42823000000001
 21
170.02612300000001
  0
LINE
  8
_0-0_0
  6
CONTINUOUS
 62
    4
 10
129.42823000000001
 20
170.02612300000001
 11
129.73765199999999
 21
170.194961
  0
LINE
  8
_0-0_0
  6
CONTINUOUS
 62
    4
 10
129.73765199999999
 20
170.194961
 11
130.016467
 21
170.376641
  0
LINE
  8
_0-0_0
  6
CONTINUOUS
 62
    4
 10
130.016467
 20
170.376641
 11
130.16817199999999
 21
170.491241
  0
ENDBLK
  0
BLOCK
  2
-017-BLKF034_17
 70
   64
 10
0
 20
0
 30
0
  0
LINE
  8
_0-0_0
  6
CONTINUOUS
 62
    4
 10
125.71591899999999
 20
169.58203800000001
 11
126.17348699999999
 21
169.592027
  0
LINE
  8
_0-0_0
  6
CONTINUOUS
 62
    4
 10
126.17348699999999
 20
169.592027
 11
126.627572
 21
169.62191799999999
  0
LINE
  8
_0-0_0
  6
CONTINUOUS
 62
    4
 10
126.627572
 20
169.62191799999999
 11
127.074719
 21
169.67148299999999
  0
LINE
  8
_0-0_0
  6
CONTINUOUS
 62
    4
 10
127.074719
 20
169.67148299999999
 11
127.511525
 21
169.74034499999999
  0
LINE
  8
_0-0_0
  6
CONTINUOUS
 62
    4
 10
127.511525
 20
169.74034499999999
 11
127.93466499999999
 21
169.82797999999999
  0
LINE
  8
_0-0_0
  6
CONTINUOUS
 62
    4
 10
127.93466499999999
 20
169.82797999999999
 11
128.34091900000001
 21
169.93372199999998
  0
LINE
  8
_0-0_0
  6
CONTINUOUS
 62
    4
 10
128.34091900000001
 20
169.93372199999998
 11
128.72719499999999
 21
170.05676399999998
  0
LINE
  8
_0-0_0
  6
CONTINUOUS
 62
    4
 10
128.72719499999999
 20
170.05676399999998
 11
129.09055399999999
 21
170.19617199999999
  0
LINE
  8
_0-0_0
  6
CONTINUOUS
 62
    4
 10
129.09055399999999
 20
170.19617199999999
 11
129.42823000000001
 21
170.35088300000001
  0
LINE
  8
_0-0_0
  6
CONTINUOUS
 62
    4
 10
129.42823000000001
 20
170.35088300000001
 11
129.73765199999999
 21
170.519721
  0
LINE
  8
_0-0_0
  6
CONTINUOUS
 62
    4
 10
129.73765199999999
 20
170.519721
 11
130.016467
 21
170.7014
  0
LINE
  8
_0-0_0
  6
CONTINUOUS
 62
    4
 10
130.016467
 20
170.7014
 11
130.16817199999999
 21
170.816
  0
ENDBLK
  0
BLOCK
  2
-018-BLKF035_18
 70
   64
 10
0
 20
0
 30
0
  0
LINE
  8
_0-0_0
  6
CONTINUOUS
 62
    4
 10
128.69442900000001
 20
172.76953800000001
 11
128.77286899999998
 21
172.771251
  0
LINE
  8
_0-0_0
  6
CONTINUOUS
 62
    4
 10
128.77286899999998
 20
172.771251
 11
128.85071199999998
 21
172.776375
  0
LINE
  8
_0-0_0
  6
CONTINUOUS
 62
    4
 10
128.85071199999998
 20
172.776375
 11
128.927366
 21
172.784872
  0
LINE
  8
_0-0_0
  6
CONTINUOUS
 62
    4
 10
128.927366
 20
172.784872
 11
129.00224700000001
 21
172.79667699999998
  0
LINE
  8
_0-0_0
  6
CONTINUOUS
 62
    4
 10
129.00224700000001
 20
172.79667699999998
 11
129.07478499999999
 21
172.8117
  0
LINE
  8
_0-0_0
  6
CONTINUOUS
 62
    4
 10
129.07478499999999
 20
172.8117
 11
129.144429
 21
172.82982699999999
  0
LINE
  8
_0-0_0
  6
CONTINUOUS
 62
    4
 10
129.144429
 20
172.82982699999999
 11
129.21064799999999
 21
172.85092
  0
LINE
  8
_0-0_0
  6
CONTINUOUS
 62
    4
 10
129.21064799999999
 20
172.85092
 11
129.27293800000001
 21
172.874818
  0
ENDBLK
  0
BLOCK
  2
-019-BLKF036_19
 70
   64
 10
0
 20
0
 30
0
  0
LINE
  8
_0-0_0
  6
CONTINUOUS
 62
    4
 10
120.62591199999999
 20
160.25727900000001
 11
121.27957999999999
 21
160.27154899999999
  0
LINE
  8
_0-0_0
  6
CONTINUOUS
 62
    4
 10
121.27957999999999
 20
160.27154899999999
 11
121.928274
 21
160.31424999999998
  0
LINE
  8
_0-0_0
  6
CONTINUOUS
 62
    4
 10
121.928274
 20
160.31424999999998
 11
122.56705499999999
 21
160.38505699999998
  0
LINE
  8
_0-0_0
  6
CONTINUOUS
 62
    4
 10
122.56705499999999
 20
160.38505699999998
 11
123.19106299999999
 21
160.48343099999999
  0
LINE
  8
_0-0_0
  6
CONTINUOUS
 62
    4
 10
123.19106299999999
 20
160.48343099999999
 11
123.79554899999999
 21
160.60862499999998
  0
LINE
  8
_0-0_0
  6
CONTINUOUS
 62
    4
 10
123.79554899999999
 20
160.60862499999998
 11
124.37591199999999
 21
160.75968399999999
  0
LINE
  8
_0-0_0
  6
CONTINUOUS
 62
    4
 10
124.37591199999999
 20
160.75968399999999
 11
124.92773599999999
 21
160.935459
  0
LINE
  8
_0-0_0
  6
CONTINUOUS
 62
    4
 10
124.92773599999999
 20
160.935459
 11
125.446819
 21
161.134612
  0
LINE
  8
_0-0_0
  6
CONTINUOUS
 62
    4
 10
125.446819
 20
161.134612
 11
125.929213
 21
161.35562799999999
  0
LINE
  8
_0-0_0
  6
CONTINUOUS
 62
    4
 10
125.929213
 20
161.35562799999999
 11
126.02096099999999
 21
161.40230999999999
  0
ENDBLK
  0
BLOCK
  2
-020-BLKF037_20
 70
   64
 10
0
 20
0
 30
0
  0
LINE
  8
_0-0_0
  6
CONTINUOUS
 62
    4
 10
120.62591199999999
 20
160.58203800000001
 11
121.27957999999999
 21
160.59630799999999
  0
LINE
  8
_0-0_0
  6
CONTINUOUS
 62
    4
 10
121.27957999999999
 20
160.59630799999999
 11
121.928274
 21
160.63900899999998
  0
LINE
  8
_0-0_0
  6
CONTINUOUS
 62
    4
 10
121.928274
 20
160.63900899999998
 11
122.56705499999999
 21
160.70981599999998
  0
LINE
  8
_0-0_0
  6
CONTINUOUS
 62
    4
 10
122.56705499999999
 20
160.70981599999998
 11
123.19106299999999
 21
160.80819099999999
  0
LINE
  8
_0-0_0
  6
CONTINUOUS
 62
    4
 10
123.19106299999999
 20
160.80819099999999
 11
123.79554899999999
 21
160.93338399999998
  0
LINE
  8
_0-0_0
  6
CONTINUOUS
 62
    4
 10
123.79554899999999
 20
160.93338399999998
 11
124.37591199999999
 21
161.08444299999999
  0
LINE
  8
_0-0_0
  6
CONTINUOUS
 62
    4
 10
124.37591199999999
 20
161.08444299999999
 11
124.92773599999999
 21
161.260218
  0
LINE
  8
_0-0_0
  6
CONTINUOUS
 62
    4
 10
124.92773599999999
 20
161.260218
 11
125.446819
 21
161.459372
  0
LINE
  8
_0-0_0
  6
CONTINUOUS
 62
    4
 10
125.446819
 20
161.459372
 11
125.929213
 21
161.68038799999999
  0
LINE
  8
_0-0_0
  6
CONTINUOUS
 62
    4
 10
125.929213
 20
161.68038799999999
 11
126.02096099999999
 21
161.727069
  0
ENDBLK
  0
BLOCK
  2
-021-BLKF038_21
 70
   64
 10
0
 20
0
 30
0
  0
LINE
  8
_0-0_0
  6
CONTINUOUS
 62
    4
 10
126.062606
 20
163.76953800000001
 11
126.160656
 21
163.771679
  0
LINE
  8
_0-0_0
  6
CONTINUOUS
 62
    4
 10
126.160656
 20
163.771679
 11
126.25795999999999
 21
163.778084
  0
LINE
  8
_0-0_0
  6
CONTINUOUS
 62
    4
 10
126.25795999999999
 20
163.778084
 11
126.35377699999999
 21
163.78870499999999
  0
LINE
  8
_0-0_0
  6
CONTINUOUS
 62
    4
 10
126.35377699999999
 20
163.78870499999999
 11
126.44737899999999
 21
163.80346099999999
  0
LINE
  8
_0-0_0
  6
CONTINUOUS
 62
    4
 10
126.44737899999999
 20
163.80346099999999
 11
126.53805199999999
 21
163.82223999999999
  0
LINE
  8
_0-0_0
  6
CONTINUOUS
 62
    4
 10
126.53805199999999
 20
163.82223999999999
 11
126.625106
 21
163.84489899999999
  0
LINE
  8
_0-0_0
  6
CONTINUOUS
 62
    4
 10
126.625106
 20
163.84489899999999
 11
126.707879
 21
163.87126499999999
  0
ENDBLK
  0
BLOCK
  2
-022-BLKF039_22
 70
   64
 10
0
 20
0
 30
0
  0
LINE
  8
_0-0_0
  6
CONTINUOUS
 62
    4
 10
109.40005899999999
 20
151.25727900000001
 11
111.03422899999999
 21
151.29295300000001
  0
LINE
  8
_0-0_0
  6
CONTINUOUS
 62
    4
 10
111.03422899999999
 20
151.29295300000001
 11
112.65596299999999
 21
151.399706
  0
LINE
  8
_0-0_0
  6
CONTINUOUS
 62
    4
 10
112.65596299999999
 20
151.399706
 11
114.25291599999999
 21
151.57672400000001
  0
LINE
  8
_0-0_0
  6
CONTINUOUS
 62
    4
 10
114.25291599999999
 20
151.57672400000001
 11
115.812937
 21
151.82266000000001
  0
LINE
  8
_0-0_0
  6
CONTINUOUS
 62
    4
 10
115.812937
 20
151.82266000000001
 11
117.32415199999999
 21
152.13564299999998
  0
LINE
  8
_0-0_0
  6
CONTINUOUS
 62
    4
 10
117.32415199999999
 20
152.13564299999998
 11
118.77505899999999
 21
152.513291
  0
LINE
  8
_0-0_0
  6
CONTINUOUS
 62
    4
 10
118.77505899999999
 20
152.513291
 11
119.88492599999999
 21
152.86005199999999
  0
ENDBLK
  0
BLOCK
  2
-023-BLKF040_23
 70
   64
 10
0
 20
0
 30
0
  0
LINE
  8
_0-0_0
  6
CONTINUOUS
 62
    4
 10
109.40005899999999
 20
151.58203800000001
 11
111.03422899999999
 21
151.617713
  0
LINE
  8
_0-0_0
  6
CONTINUOUS
 62
    4
 10
111.03422899999999
 20
151.617713
 11
112.65596299999999
 21
151.724466
  0
LINE
  8
_0-0_0
  6
CONTINUOUS
 62
    4
 10
112.65596299999999
 20
151.724466
 11
114.25291599999999
 21
151.90148400000001
  0
LINE
  8
_0-0_0
  6
CONTINUOUS
 62
    4
 10
114.25291599999999
 20
151.90148400000001
 11
115.812937
 21
152.14742000000001
  0
LINE
  8
_0-0_0
  6
CONTINUOUS
 62
    4
 10
115.812937
 20
152.14742000000001
 11
117.32415199999999
 21
152.46040300000001
  0
LINE
  8
_0-0_0
  6
CONTINUOUS
 62
    4
 10
117.32415199999999
 20
152.46040300000001
 11
118.77505899999999
 21
152.83805
  0
LINE
  8
_0-0_0
  6
CONTINUOUS
 62
    4
 10
118.77505899999999
 20
152.83805
 11
119.88492599999999
 21
153.18481099999999
  0
ENDBLK
  0
BLOCK
  2
-024-BLKF041_24
 70
   64
 10
0
 20
0
 30
0
  0
LINE
  8
_0-0_0
  6
CONTINUOUS
 62
    4
 10
120.77756399999999
 20
154.76953800000001
 11
120.89522499999999
 21
154.772107
  0
LINE
  8
_0-0_0
  6
CONTINUOUS
 62
    4
 10
120.89522499999999
 20
154.772107
 11
121.01198899999999
 21
154.77979300000001
  0
LINE
  8
_0-0_0
  6
CONTINUOUS
 62
    4
 10
121.01198899999999
 20
154.77979300000001
 11
121.12697
 21
154.792538
  0
LINE
  8
_0-0_0
  6
CONTINUOUS
 62
    4
 10
121.12697
 20
154.792538
 11
121.239292
 21
154.810246
  0
LINE
  8
_0-0_0
  6
CONTINUOUS
 62
    4
 10
121.239292
 20
154.810246
 11
121.348099
 21
154.83278100000001
  0
LINE
  8
_0-0_0
  6
CONTINUOUS
 62
    4
 10
121.348099
 20
154.83278100000001
 11
121.45256399999999
 21
154.859971
  0
LINE
  8
_0-0_0
  6
CONTINUOUS
 62
    4
 10
121.45256399999999
 20
154.859971
 11
121.49295499999999
 21
154.872106
  0
ENDBLK
  0
BLOCK
  2
-025-BLKF042_25
 70
   64
 10
0
 20
0
 30
0
  0
LINE
  8
_0-0_0
  6
CONTINUOUS
 62
    4
 10
93.728244000000003
 20
142.58203800000001
 11
97.192683999999999
 21
142.65766899999999
  0
LINE
  8
_0-0_0
  6
CONTINUOUS
 62
    4
 10
97.192683999999999
 20
142.65766899999999
 11
100.63075899999999
 21
142.88398399999999
  0
LINE
  8
_0-0_0
  6
CONTINUOUS
 62
    4
 10
100.63075899999999
 20
142.88398399999999
 11
104.01630099999999
 21
143.259263
  0
LINE
  8
_0-0_0
  6
CONTINUOUS
 62
    4
 10
104.01630099999999
 20
143.259263
 11
107.32354399999999
 21
143.78064699999998
  0
LINE
  8
_0-0_0
  6
CONTINUOUS
 62
    4
 10
107.32354399999999
 20
143.78064699999998
 11
110.52732
 21
144.44417100000001
  0
LINE
  8
_0-0_0
  6
CONTINUOUS
 62
    4
 10
110.52732
 20
144.44417100000001
 11
113.603244
 21
145.24478300000001
  0
LINE
  8
_0-0_0
  6
CONTINUOUS
 62
    4
 10
113.603244
 20
145.24478300000001
 11
115.888176
 21
145.957039
  0
ENDBLK
  0
BLOCK
  2
-026-BLKF043_26
 70
   64
 10
0
 20
0
 30
0
  0
LINE
  8
_0-0_0
  6
CONTINUOUS
 62
    4
 10
93.728244000000003
 20
142.25727900000001
 11
97.192683999999999
 21
142.332909
  0
LINE
  8
_0-0_0
  6
CONTINUOUS
 62
    4
 10
97.192683999999999
 20
142.332909
 11
100.63075899999999
 21
142.55922499999999
  0
LINE
  8
_0-0_0
  6
CONTINUOUS
 62
    4
 10
100.63075899999999
 20
142.55922499999999
 11
104.01630099999999
 21
142.934503
  0
LINE
  8
_0-0_0
  6
CONTINUOUS
 62
    4
 10
104.01630099999999
 20
142.934503
 11
107.32354399999999
 21
143.45588799999998
  0
LINE
  8
_0-0_0
  6
CONTINUOUS
 62
    4
 10
107.32354399999999
 20
143.45588799999998
 11
110.52732
 21
144.11941200000001
  0
LINE
  8
_0-0_0
  6
CONTINUOUS
 62
    4
 10
110.52732
 20
144.11941200000001
 11
113.603244
 21
144.92002400000001
  0
LINE
  8
_0-0_0
  6
CONTINUOUS
 62
    4
 10
113.603244
 20
144.92002400000001
 11
115.888176
 21
145.63228
  0
ENDBLK
  0
BLOCK
  2
-027-BLKF044_27
 70
   64
 10
0
 20
0
 30
0
  0
LINE
  8
_0-0_0
  6
CONTINUOUS
 62
    4
 10
111.398007
 20
145.76953800000001
 11
111.52874099999999
 21
145.77239199999999
  0
LINE
  8
_0-0_0
  6
CONTINUOUS
 62
    4
 10
111.52874099999999
 20
145.77239199999999
 11
111.65847999999999
 21
145.780932
  0
LINE
  8
_0-0_0
  6
CONTINUOUS
 62
    4
 10
111.65847999999999
 20
145.780932
 11
111.786236
 21
145.795094
  0
LINE
  8
_0-0_0
  6
CONTINUOUS
 62
    4
 10
111.786236
 20
145.795094
 11
111.911038
 21
145.81476900000001
  0
LINE
  8
_0-0_0
  6
CONTINUOUS
 62
    4
 10
111.911038
 20
145.81476900000001
 11
112.031935
 21
145.839807
  0
LINE
  8
_0-0_0
  6
CONTINUOUS
 62
    4
 10
112.031935
 20
145.839807
 11
112.055564
 21
145.84544299999998
  0
ENDBLK
  0
BLOCK
  2
-028-BLKF018_35
 70
   64
 10
0
 20
0
 30
0
  0
LINE
  8
_0-2_0-10
  6
CONTINUOUS
 62
    4
 10
111.728244
 20
214.25727900000001
 11
111.85897699999999
 21
214.26013299999999
  0
LINE
  8
_0-2_0-10
  6
CONTINUOUS
 62
    4
 10
111.85897699999999
 20
214.26013299999999
 11
111.98871599999999
 21
214.268673
  0
LINE
  8
_0-2_0-10
  6
CONTINUOUS
 62
    4
 10
111.98871599999999
 20
214.268673
 11
112.116472
 21
214.282834
  0
LINE
  8
_0-2_0-10
  6
CONTINUOUS
 62
    4
 10
112.116472
 20
214.282834
 11
112.241274
 21
214.30250899999998
  0
LINE
  8
_0-2_0-10
  6
CONTINUOUS
 62
    4
 10
112.241274
 20
214.30250899999998
 11
112.362171
 21
214.327548
  0
LINE
  8
_0-2_0-10
  6
CONTINUOUS
 62
    4
 10
112.362171
 20
214.327548
 11
112.478244
 21
214.35776000000001
  0
LINE
  8
_0-2_0-10
  6
CONTINUOUS
 62
    4
 10
112.478244
 20
214.35776000000001
 11
112.58860799999999
 21
214.39291499999998
  0
LINE
  8
_0-2_0-10
  6
CONTINUOUS
 62
    4
 10
112.58860799999999
 20
214.39291499999998
 11
112.692425
 21
214.43274500000001
  0
LINE
  8
_0-2_0-10
  6
CONTINUOUS
 62
    4
 10
112.692425
 20
214.43274500000001
 11
112.788904
 21
214.47694899999999
  0
LINE
  8
_0-2_0-10
  6
CONTINUOUS
 62
    4
 10
112.788904
 20
214.47694899999999
 11
112.87730999999999
 21
214.52518800000001
  0
LINE
  8
_0-2_0-10
  6
CONTINUOUS
 62
    4
 10
112.87730999999999
 20
214.52518800000001
 11
112.95697199999999
 21
214.57709600000001
  0
LINE
  8
_0-2_0-10
  6
CONTINUOUS
 62
    4
 10
112.95697199999999
 20
214.57709600000001
 11
113.02728199999999
 21
214.63227900000001
  0
LINE
  8
_0-2_0-10
  6
CONTINUOUS
 62
    4
 10
113.02728199999999
 20
214.63227900000001
 11
113.08770499999999
 21
214.69031499999999
  0
LINE
  8
_0-2_0-10
  6
CONTINUOUS
 62
    4
 10
113.08770499999999
 20
214.69031499999999
 11
113.13778299999999
 21
214.750764
  0
LINE
  8
_0-2_0-10
  6
CONTINUOUS
 62
    4
 10
113.13778299999999
 20
214.750764
 11
113.177132
 21
214.813164
  0
LINE
  8
_0-2_0-10
  6
CONTINUOUS
 62
    4
 10
113.177132
 20
214.813164
 11
113.205455
 21
214.87704299999998
  0
LINE
  8
_0-2_0-10
  6
CONTINUOUS
 62
    4
 10
113.205455
 20
214.87704299999998
 11
113.222536
 21
214.941912
  0
LINE
  8
_0-2_0-10
  6
CONTINUOUS
 62
    4
 10
113.222536
 20
214.941912
 11
113.228244
 21
215.00727900000001
  0
ENDBLK
  0
BLOCK
  2
-029-EDTIP_ARROW_S
 70
   64
 10
0
 20
0
 30
0
  0
LINE
  8
_0-0_0
  6
CONTINUOUS
 62
    7
 10
0
 20
0
 11
-1
 21
0
  0
LINE
  8
_0-0_0
  6
CONTINUOUS
 62
    7
 10
0
 20
0
 11
-0.9659259999999999
 21
0.258819
  0
LINE
  8
_0-0_0
  6
CONTINUOUS
 62
    7
 10
0
 20
0
 11
-0.9659259999999999
 21
-0.258819
  0
ENDBLK
  0
BLOCK
  2
-030-EDTIP_ARROW_E
 70
   64
 10
0
 20
0
 30
0
  0
LINE
  8
_0-0_0
  6
CONTINUOUS
 62
    7
 10
0
 20
0
 11
-1
 21
0
  0
LINE
  8
_0-0_0
  6
CONTINUOUS
 62
    7
 10
0
 20
0
 11
-0.9659259999999999
 21
-0.258819
  0
LINE
  8
_0-0_0
  6
CONTINUOUS
 62
    7
 10
0
 20
0
 11
-0.9659259999999999
 21
0.258819
  0
ENDBLK
  0
BLOCK
  2
-031-_D31
 70
   64
 10
0
 20
0
 30
0
  0
LINE
  8
_0-0_0
  6
CONTINUOUS
 62
    7
 10
470.13887737658779
 20
256.4999993084931
 11
502.19313070992427
 21
256.4999993084931
  0
LINE
  8
_0-0_0
  6
CONTINUOUS
 62
    7
 10
470.13887737658779
 20
111.4999993084976
 11
502.19313070992438
 21
111.4999993084977
  0
LINE
  8
_0-0_0
  6
CONTINUOUS
 62
    7
 10
501.19313070992427
 20
253.4999993084931
 11
501.19313070992438
 21
114.4999993084977
  0
INSERT
  2
-029-EDTIP_ARROW_S
  8
_0-0_0
 10
501.19313070992427
 20
256.4999993084931
 41
3
 42
3
 50
90
  0
INSERT
  2
-030-EDTIP_ARROW_E
  8
_0-0_0
 10
501.19313070992438
 20
111.4999993084977
 41
3
 42
3
 50
270
  0
TEXT
  8
_0-0_0
 62
    7
 10
500.69313070992427
 20
181.7499993084952
 40
3
 41
1
 50
90
  1
145
  0
POINT
  8
_0-3_Defpoints
 62
    7
 10
469.13887737658779
 20
256.4999993084931
  0
POINT
  8
_0-3_Defpoints
 62
    7
 10
469.13887737658779
 20
111.4999993084976
  0
POINT
  8
_0-3_Defpoints
 62
    7
 10
501.19313070992438
 20
111.4999993084977
  0
ENDBLK
  0
BLOCK
  2
-032-_D32
 70
   64
 10
0
 20
0
 30
0
  0
LINE
  8
_0-0_0
  6
CONTINUOUS
 62
    7
 10
416.3388773765879
 20
282.49999930849287
 11
502.19979737659139
 21
282.49999930849287
  0
LINE
  8
_0-0_0
  6
CONTINUOUS
 62
    7
 10
470.13887737658779
 20
256.4999993084931
 11
502.19979737659139
 21
256.4999993084931
  0
LINE
  8
_0-0_0
  6
CONTINUOUS
 62
    7
 10
501.1997973765915
 20
279.49999930849287
 11
501.1997973765915
 21
259.4999993084931
  0
INSERT
  2
-029-EDTIP_ARROW_S
  8
_0-0_0
 10
501.1997973765915
 20
282.49999930849287
 41
3
 42
3
 50
90
  0
INSERT
  2
-030-EDTIP_ARROW_E
  8
_0-0_0
 10
501.1997973765915
 20
256.4999993084931
 41
3
 42
3
 50
270
  0
TEXT
  8
_0-0_0
 62
    7
 10
500.69979737659139
 20
267.99999930849281
 40
3
 41
1
 50
90
  1
26
  0
POINT
  8
_0-3_Defpoints
 62
    7
 10
415.3388773765879
 20
282.49999930849287
  0
POINT
  8
_0-3_Defpoints
 62
    7
 10
469.13887737658779
 20
256.4999993084931
  0
POINT
  8
_0-3_Defpoints
 62
    7
 10
501.1997973765915
 20
256.4999993084931
  0
ENDBLK
  0
BLOCK
  2
-033-_D33
 70
   64
 10
0
 20
0
 30
0
  0
LINE
  8
_0-0_0
  6
CONTINUOUS
 62
    7
 10
492.13887737658757
 20
283.49999930849281
 11
492.13887737658757
 21
294.632373848192
  0
LINE
  8
_0-0_0
  6
CONTINUOUS
 62
    7
 10
415.33887737658761
 20
283.49999930849281
 11
415.33887737658761
 21
294.632373848192
  0
LINE
  8
_0-0_0
  6
CONTINUOUS
 62
    7
 10
489.13887737658757
 20
293.63237384819188
 11
418.33887737658767
 21
293.63237384819188
  0
INSERT
  2
-029-EDTIP_ARROW_S
  8
_0-0_0
 10
492.13887737658757
 20
293.63237384819188
 41
3
 42
3
 50
0
  0
INSERT
  2
-030-EDTIP_ARROW_E
  8
_0-0_0
 10
415.33887737658761
 20
293.63237384819188
 41
3
 42
3
 50
180
  0
TEXT
  8
_0-0_0
 62
    7
 10
452.23887737658759
 20
294.13237384819188
 40
3
 41
1
 50
0
  1
77
  0
POINT
  8
_0-3_Defpoints
 62
    7
 10
492.13887737658757
 20
282.49999930849281
  0
POINT
  8
_0-3_Defpoints
 62
    7
 10
415.33887737658761
 20
282.49999930849281
  0
POINT
  8
_0-3_Defpoints
 62
    7
 10
415.33887737658761
 20
293.63237384819188
  0
ENDBLK
  0
BLOCK
  2
-034-_D34
 70
   64
 10
0
 20
0
 30
0
  0
LINE
  8
_0-0_0
  6
CONTINUOUS
 62
    7
 10
415.33887737658761
 20
283.4999993084927
 11
415.33887737658761
 21
294.63409930849252
  0
LINE
  8
_0-0_0
  6
CONTINUOUS
 62
    7
 10
331.82507204325429
 20
283.4999993084927
 11
331.82507204325429
 21
294.63409930849252
  0
LINE
  8
_0-0_0
  6
CONTINUOUS
 62
    7
 10
412.33887737658761
 20
293.63409930849252
 11
334.82507204325429
 21
293.63409930849252
  0
INSERT
  2
-029-EDTIP_ARROW_S
  8
_0-0_0
 10
415.33887737658761
 20
293.63409930849252
 41
3
 42
3
 50
0
  0
INSERT
  2
-030-EDTIP_ARROW_E
  8
_0-0_0
 10
331.82507204325429
 20
293.63409930849252
 41
3
 42
3
 50
180
  0
TEXT
  8
_0-0_0
 62
    7
 10
372.08197470992098
 20
294.13409930849252
 40
3
 41
1
 50
0
  1
84
  0
POINT
  8
_0-3_Defpoints
 62
    7
 10
415.33887737658761
 20
282.4999993084927
  0
POINT
  8
_0-3_Defpoints
 62
    7
 10
331.82507204325429
 20
282.4999993084927
  0
POINT
  8
_0-3_Defpoints
 62
    7
 10
331.82507204325429
 20
293.63409930849252
  0
ENDBLK
  0
BLOCK
  2
-035-_D35
 70
   64
 10
0
 20
0
 30
0
  0
LINE
  8
_0-0_0
  6
CONTINUOUS
 62
    7
 10
415.33887737658761
 20
283.4999993084927
 11
415.33887737658761
 21
287.85023264182592
  0
LINE
  8
_0-0_0
  6
CONTINUOUS
 62
    7
 10
469.13887737658757
 20
228.49999930849298
 11
469.13887737658757
 21
287.85023264182592
  0
LINE
  8
_0-0_0
  6
CONTINUOUS
 62
    7
 10
418.33887737658767
 20
286.85023264182581
 11
466.13887737658757
 21
286.85023264182581
  0
INSERT
  2
-029-EDTIP_ARROW_S
  8
_0-0_0
 10
415.33887737658761
 20
286.85023264182581
 41
3
 42
3
 50
180
  0
INSERT
  2
-030-EDTIP_ARROW_E
  8
_0-0_0
 10
469.13887737658757
 20
286.85023264182581
 41
3
 42
3
 50
0
  0
TEXT
  8
_0-0_0
 62
    7
 10
440.73887737658759
 20
287.35023264182581
 40
3
 41
1
 50
0
  1
54
  0
POINT
  8
_0-3_Defpoints
 62
    7
 10
415.33887737658761
 20
282.4999993084927
  0
POINT
  8
_0-3_Defpoints
 62
    7
 10
469.13887737658757
 20
227.49999930849298
  0
POINT
  8
_0-3_Defpoints
 62
    7
 10
469.13887737658757
 20
286.85023264182581
  0
ENDBLK
  0
BLOCK
  2
-036-_D36
 70
   64
 10
0
 20
0
 30
0
  0
LINE
  8
_0-0_0
  6
CONTINUOUS
 62
    7
 10
330.8250720432544
 20
282.49999930849281
 11
316.08891604325691
 21
282.49999930849281
  0
LINE
  8
_0-0_0
  6
CONTINUOUS
 62
    7
 10
330.8250720432544
 20
76.499999308492874
 11
316.08891604325691
 21
76.499999308492874
  0
LINE
  8
_0-0_0
  6
CONTINUOUS
 62
    7
 10
317.08891604325691
 20
279.49999930849281
 11
317.08891604325691
 21
79.499999308492874
  0
INSERT
  2
-029-EDTIP_ARROW_S
  8
_0-0_0
 10
317.08891604325691
 20
282.49999930849281
 41
3
 42
3
 50
90
  0
INSERT
  2
-030-EDTIP_ARROW_E
  8
_0-0_0
 10
317.08891604325691
 20
76.499999308492874
 41
3
 42
3
 50
270
  0
TEXT
  8
_0-0_0
 62
    7
 10
316.58891604325691
 20
177.2499993084927
 40
3
 41
1
 50
90
  1
206
  0
POINT
  8
_0-3_Defpoints
 62
    7
 10
331.8250720432544
 20
282.49999930849281
  0
POINT
  8
_0-3_Defpoints
 62
    7
 10
331.8250720432544
 20
76.499999308492874
  0
POINT
  8
_0-3_Defpoints
 62
    7
 10
317.08891604325691
 20
76.499999308492874
  0
ENDBLK
  0
BLOCK
  2
-037-_D37
 70
   64
 10
0
 20
0
 30
0
  0
LINE
  8
_0-0_0
  6
CONTINUOUS
 62
    7
 10
397.33887737658767
 20
63.751024641826312
 11
397.33887737658767
 21
50.958455308492922
  0
LINE
  8
_0-0_0
  6
CONTINUOUS
 62
    7
 10
415.33887737658761
 20
78.577691308492916
 11
415.33887737658761
 21
50.958455308492922
  0
LINE
  8
_0-0_0
  6
CONTINUOUS
 62
    7
 10
400.33887737658761
 20
51.958455308492908
 11
412.33887737658761
 21
51.958455308492908
  0
INSERT
  2
-029-EDTIP_ARROW_S
  8
_0-0_0
 10
397.33887737658767
 20
51.958455308492908
 41
3
 42
3
 50
180
  0
INSERT
  2
-030-EDTIP_ARROW_E
  8
_0-0_0
 10
415.33887737658761
 20
51.958455308492908
 41
3
 42
3
 50
0
  0
TEXT
  8
_0-0_0
 62
    7
 10
404.83887737658761
 20
52.458455308492922
 40
3
 41
1
 50
0
  1
18
  0
POINT
  8
_0-3_Defpoints
 62
    7
 10
397.33887737658767
 20
64.751024641826319
  0
POINT
  8
_0-3_Defpoints
 62
    7
 10
415.33887737658761
 20
79.577691308492916
  0
POINT
  8
_0-3_Defpoints
 62
    7
 10
415.33887737658761
 20
51.958455308492908
  0
ENDBLK
  0
BLOCK
  2
-038-_D38
 70
   64
 10
0
 20
0
 30
0
  0
LINE
  8
_0-0_0
  6
CONTINUOUS
 62
    7
 10
264.77602838820172
 20
283.49999930849281
 11
264.77602838820172
 21
294.63409930849269
  0
LINE
  8
_0-0_0
  6
CONTINUOUS
 62
    7
 10
68.776028388201652
 20
283.49999930849281
 11
68.776028388201652
 21
294.63409930849269
  0
LINE
  8
_0-0_0
  6
CONTINUOUS
 62
    7
 10
261.77602838820172
 20
293.63409930849269
 11
71.776028388201652
 21
293.63409930849269
  0
INSERT
  2
-029-EDTIP_ARROW_S
  8
_0-0_0
 10
264.77602838820172
 20
293.63409930849269
 41
3
 42
3
 50
0
  0
INSERT
  2
-030-EDTIP_ARROW_E
  8
_0-0_0
 10
68.776028388201652
 20
293.63409930849269
 41
3
 42
3
 50
180
  0
TEXT
  8
_0-0_0
 62
    7
 10
164.5260283882016
 20
294.13409930849269
 40
3
 41
1
 50
0
  1
196
  0
POINT
  8
_0-3_Defpoints
 62
    7
 10
264.77602838820172
 20
282.49999930849281
  0
POINT
  8
_0-3_Defpoints
 62
    7
 10
68.776028388201652
 20
282.49999930849281
  0
POINT
  8
_0-3_Defpoints
 62
    7
 10
68.776028388201652
 20
293.63409930849269
  0
ENDBLK
  0
BLOCK
  2
-039-_D39
 70
   64
 10
0
 20
0
 30
0
  0
LINE
  8
_0-0_0
  6
CONTINUOUS
 62
    7
 10
67.77602838820168
 20
282.49999930849287
 11
43.844817721534369
 21
282.49999930849287
  0
LINE
  8
_0-0_0
  6
CONTINUOUS
 62
    7
 10
61.77602838820168
 20
61.499999308492839
 11
43.844817721534411
 21
61.499999308492839
  0
LINE
  8
_0-0_0
  6
CONTINUOUS
 62
    7
 10
44.844817721534361
 20
279.49999930849287
 11
44.844817721534418
 21
64.499999308492846
  0
INSERT
  2
-029-EDTIP_ARROW_S
  8
_0-0_0
 10
44.844817721534361
 20
282.49999930849287
 41
3
 42
3
 50
90
  0
INSERT
  2
-030-EDTIP_ARROW_E
  8
_0-0_0
 10
44.844817721534418
 20
61.499999308492839
 41
3
 42
3
 50
270
  0
TEXT
  8
_0-0_0
 62
    7
 10
44.344817721534433
 20
169.74999930849278
 40
3
 41
1
 50
90
  1
221
  0
POINT
  8
_0-3_Defpoints
 62
    7
 10
68.77602838820168
 20
282.49999930849287
  0
POINT
  8
_0-3_Defpoints
 62
    7
 10
62.77602838820168
 20
61.499999308492839
  0
POINT
  8
_0-3_Defpoints
 62
    7
 10
44.844817721534418
 20
61.499999308492839
  0
ENDBLK
  0
BLOCK
  2
-040-_D40
 70
   64
 10
0
 20
0
 30
0
  0
LINE
  8
_0-0_0
  6
CONTINUOUS
 62
    7
 10
270.7760283882016
 20
80.660253975159633
 11
270.7760283882016
 21
50.958455308492922
  0
LINE
  8
_0-0_0
  6
CONTINUOUS
 62
    7
 10
62.776028388201652
 20
80.660253975159633
 11
62.776028388201652
 21
50.958455308492922
  0
LINE
  8
_0-0_0
  6
CONTINUOUS
 62
    7
 10
267.77602838820172
 20
51.958455308492908
 11
65.776028388201652
 21
51.958455308492908
  0
INSERT
  2
-029-EDTIP_ARROW_S
  8
_0-0_0
 10
270.7760283882016
 20
51.958455308492908
 41
3
 42
3
 50
0
  0
INSERT
  2
-030-EDTIP_ARROW_E
  8
_0-0_0
 10
62.776028388201652
 20
51.958455308492908
 41
3
 42
3
 50
180
  0
TEXT
  8
_0-0_0
 62
    7
 10
164.5260283882016
 20
52.458455308492922
 40
3
 41
1
 50
0
  1
208
  0
POINT
  8
_0-3_Defpoints
 62
    7
 10
270.7760283882016
 20
81.660253975159633
  0
POINT
  8
_0-3_Defpoints
 62
    7
 10
62.776028388201652
 20
81.660253975159633
  0
POINT
  8
_0-3_Defpoints
 62
    7
 10
62.776028388201652
 20
51.958455308492908
  0
ENDBLK
  0
ENDSEC
  0
SECTION
  2
ENTITIES
  0
LINE
  8
_0-2_0-10
  6
CONTINUOUS
 62
    3
 10
-43.757690207107032
 20
325.99552798980505
 11
463.74230979289319
 21
325.99552798980505
  0
LINE
  8
_0-2_0-10
  6
CONTINUOUS
 62
    3
 10
209.99230979289302
 20
-29.004472010194916
 11
209.99230979289302
 21
-26.504472010194916
  0
LINE
  8
_0-2_0-10
  6
CONTINUOUS
 62
    3
 10
463.74230979289296
 20
-29.004472010194916
 11
463.74230979289296
 21
325.99552798980505
  0
LINE
  8
_0-2_0-10
  6
CONTINUOUS
 62
    3
 10
-43.757690207106975
 20
-29.004472010194916
 11
-43.757690207106975
 21
325.99552798980505
  0
LINE
  8
_0-2_0-10
  6
CONTINUOUS
 62
    3
 10
-43.757690207106975
 20
-29.004472010194916
 11
463.74230979289296
 21
-29.004472010194916
  0
LINE
  8
_0-1_0-00
  6
CONTINUOUS
 62
    3
 10
219.99230979289433
 20
-16.504472010194916
 11
463.74230979289296
 21
-16.504472010194916
  0
LINE
  8
_0-1_0-00
  6
CONTINUOUS
 62
    3
 10
219.99230979289433
 20
-16.504472010194916
 11
219.99230979289433
 21
-29.004472010194916
  0
LINE
  8
_0-1_0-00
  6
CONTINUOUS
 62
    3
 10
294.99230979289421
 20
-16.504472010194916
 11
294.99230979289421
 21
-29.004472010194916
  0
LINE
  8
_0-1_0-00
  6
CONTINUOUS
 62
    3
 10
369.9923097928941
 20
-16.504472010194916
 11
369.9923097928941
 21
-29.004472010194916
  0
LINE
  8
_0-2_0-10
  6
CONTINUOUS
 62
    3
 10
280.8173828140363
 20
246.99552798980479
 11
364.33118814736963
 21
246.99552798980479
  0
LINE
  8
_0-2_0-10
  6
CONTINUOUS
 62
    3
 10
280.8173828140363
 20
246.99552798980479
 11
280.8173828140363
 21
40.995527989804941
  0
LINE
  8
_0-2_0-10
  6
CONTINUOUS
 62
    5
 10
354.83118814736968
 20
246.49552798980479
 11
358.33118814736968
 21
246.49552798980479
  0
ARC
  8
_0-2_0-10
  6
CONTINUOUS
 62
    5
 10
358.83118814736968
 20
246.49552798980479
 40
0.5
 50
90
 51
180
  0
LINE
  8
_0-2_0-10
  6
CONTINUOUS
 62
    3
 10
281.3173828140363
 20
246.99552798980479
 11
281.3173828140363
 21
40.995527989804941
  0
LINE
  8
_0-2_0-10
  6
CONTINUOUS
 62
    3
 10
360.33118814736963
 20
40.995527989804941
 11
363.73118814736949
 21
44.395527989805017
  0
ARC
  8
_0-2_0-10
  6
CONTINUOUS
 62
    6
 10
415.13118814736958
 20
217.99552798980519
 40
3
 50
0
 51
90
  0
ARC
  8
_0-2_0-10
  6
CONTINUOUS
 62
    6
 10
415.13118814736958
 20
78.995527989809701
 40
3
 50
270
 51
0
  0
LINE
  8
_0-2_0-10
  6
CONTINUOUS
 62
    6
 10
415.13118814736958
 20
75.995527989809701
 11
363.13118814736958
 21
75.995527989809701
  0
LINE
  8
_0-2_0-10
  6
CONTINUOUS
 62
    6
 10
363.13118814736958
 20
220.99552798980519
 11
415.13118814736958
 21
220.99552798980519
  0
LINE
  8
_0-2_0-10
  6
CONTINUOUS
 62
    6
 10
358.63118814736958
 20
235.29552798980486
 11
358.63118814736958
 21
64.195527989809761
  0
LINE
  8
_0-2_0-10
  6
CONTINUOUS
 62
    6
 10
359.13118814736958
 20
235.29552798980486
 11
359.13118814736958
 21
224.99552798980519
  0
ARC
  8
_0-2_0-10
  6
CONTINUOUS
 62
    6
 10
363.13118814736958
 20
224.99552798980519
 40
4
 50
180
 51
270
  0
ARC
  8
_0-2_0-10
  6
CONTINUOUS
 62
    6
 10
363.13118814736958
 20
71.995527989809701
 40
4
 50
90
 51
180
  0
LINE
  8
_0-2_0-10
  6
CONTINUOUS
 62
    6
 10
359.13118814736958
 20
71.995527989809701
 11
359.13118814736958
 21
64.195527989809761
  0
LINE
  8
_0-2_0-10
  6
CONTINUOUS
 62
    6
 10
359.33118814736963
 20
245.99552798980479
 11
359.83118814736963
 21
245.99552798980479
  0
LINE
  8
_0-2_0-10
  6
CONTINUOUS
 62
    3
 10
280.8173828140363
 20
40.995527989804941
 11
360.33118814736963
 21
40.995527989804941
  0
LINE
  8
_0-2_0-10
  6
CONTINUOUS
 62
    3
 10
363.73118814736949
 20
46.182577323138275
 11
363.73118814736949
 21
44.395527989805017
  0
LINE
  8
_0-2_0-10
  6
CONTINUOUS
 62
    5
 10
358.33118814736968
 20
246.49552798980479
 11
358.33118814736968
 21
237.37919198980469
  0
LINE
  8
_0-2_0-10
  6
CONTINUOUS
 62
    5
 10
358.83118814736968
 20
236.99552798980479
 11
322.60896948070291
 21
227.2898146564714
  0
LINE
  8
_0-2_0-10
  6
CONTINUOUS
 62
    5
 10
358.83118814736968
 20
246.99552798980479
 11
364.33118814736963
 21
246.99552798980479
  0
LINE
  8
_0-2_0-10
  6
CONTINUOUS
 62
    5
 10
358.83118814736968
 20
246.49552798980479
 11
358.83118814736968
 21
236.29552798980486
  0
ARC
  8
_0-2_0-10
  6
CONTINUOUS
 62
    5
 10
358.33118814736968
 20
237.37919198980469
 40
0.5
 50
285.00000000000119
 51
0.0000000000000127
  0
LINE
  8
_0-2_0-10
  6
CONTINUOUS
 62
    5
 10
321.99659614736958
 20
227.64336798980477
 11
320.8319108140364
 21
231.99003332313802
  0
LINE
  8
_0-2_0-10
  6
CONTINUOUS
 62
    5
 10
321.31487348070288
 20
232.1194439898048
 11
320.8319108140364
 21
231.99003332313802
  0
LINE
  8
_0-2_0-10
  6
CONTINUOUS
 62
    5
 10
322.47956014736951
 20
227.77277732313811
 11
321.31487348070288
 21
232.1194439898048
  0
LINE
  8
_0-2_0-10
  6
CONTINUOUS
 62
    5
 10
322.12600681403631
 20
227.4192239898048
 11
322.12600681403631
 21
223.06143598980489
  0
LINE
  8
_0-2_0-10
  6
CONTINUOUS
 62
    5
 10
321.99659614736958
 20
223.28557998980468
 11
321.17265214736971
 21
226.36058132313812
  0
LINE
  8
_0-2_0-10
  6
CONTINUOUS
 62
    5
 10
320.8319108140364
 20
231.99003332313802
 11
320.8319108140364
 21
228.94877198980466
  0
LINE
  8
_0-2_0-10
  6
CONTINUOUS
 62
    5
 10
329.72400281403633
 20
224.46345065647139
 11
329.72400281403633
 21
224.28962265647137
  0
LINE
  8
_0-2_0-10
  6
CONTINUOUS
 62
    5
 10
329.09812148070301
 20
224.67079065647138
 11
322.60896948070291
 21
222.93202665647137
  0
LINE
  8
_0-2_0-10
  6
CONTINUOUS
 62
    5
 10
329.72400281403633
 20
224.28962265647137
 11
329.85341348070289
 21
223.80665998980467
  0
LINE
  8
_0-2_0-10
  6
CONTINUOUS
 62
    5
 10
329.85341348070289
 20
224.09123465647141
 11
329.85341348070289
 21
223.80665998980467
  0
ARC
  8
_0-2_0-10
  6
CONTINUOUS
 62
    5
 10
322.47956014736951
 20
223.41498932313808
 40
0.5
 50
195.0000000000011
 51
285.00000000000119
  0
ARC
  8
_0-2_0-10
  6
CONTINUOUS
 62
    5
 10
322.47956014736951
 20
227.77277732313811
 40
0.5
 50
195.0000000000011
 51
285.00000000000119
  0
LINE
  8
_0-2_0-10
  6
CONTINUOUS
 62
    5
 10
353.83118814736968
 20
245.49552798980479
 11
353.83118814736968
 21
236.17341998980461
  0
ARC
  8
_0-2_0-10
  6
CONTINUOUS
 62
    5
 10
329.25341348070293
 20
224.09123465647141
 40
0.5999999999999999
 50
0
 51
105.00000000000119
  0
ARC
  8
_0-2_0-10
  6
CONTINUOUS
 62
    5
 10
354.83118814736968
 20
245.49552798980479
 40
1
 50
90
 51
180
  0
ARC
  8
_0-2_0-10
  6
CONTINUOUS
 62
    5
 10
330.83191081403629
 20
228.94877198980466
 40
10
 50
180
 51
195.0000000000011
  0
LINE
  8
_0-2_0-10
  6
CONTINUOUS
 62
    5
 10
358.33118814736968
 20
237.37919198980469
 11
322.47956014736951
 21
227.77277732313811
  0
LINE
  8
_0-2_0-10
  6
CONTINUOUS
 62
    3
 10
328.57699881403618
 20
246.99552798980479
 11
328.57699881403618
 21
229.40658132313799
  0
LINE
  8
_0-2_0-10
  6
CONTINUOUS
 62
    3
 10
328.57699881403618
 20
224.53115598980477
 11
328.57699881403618
 21
40.995527989804941
  0
LINE
  8
_0-2_0-10
  6
CONTINUOUS
 62
    5
 10
358.83118814736968
 20
246.49552798980479
 11
364.33118814736963
 21
246.49552798980479
  0
LINE
  8
_0-2_0-10
  6
CONTINUOUS
 62
    3
 10
364.33118814736963
 20
75.995527989809701
 11
364.33118814736963
 21
46.695527989804972
  0
ARC
  8
_0-2_0-10
  6
CONTINUOUS
 62
    3
 10
364.0311881473695
 20
46.695527989804972
 40
0.2999999999999999
 50
309.92769199999742
 51
0
  0
LINE
  8
_0-0_0
  6
CONTINUOUS
 62
    7
 10
416.13118814736958
 20
75.995527989809701
 11
451.51877481403749
 21
75.995527989809701
  0
LINE
  8
_0-0_0
  6
CONTINUOUS
 62
    7
 10
416.13118814736958
 20
220.99552798980508
 11
451.51877481403749
 21
220.99552798980508
  0
LINE
  8
_0-0_0
  6
CONTINUOUS
 62
    7
 10
450.18544148070418
 20
79.995527989809701
 11
450.18544148070418
 21
216.99552798980508
  0
INSERT
  2
-000-EDTIP_ARROW_S_0
  8
_0-0_0
 10
450.18544148070418
 20
75.995527989809701
 41
4
 42
4
 50
270
  0
INSERT
  2
-001-EDTIP_ARROW_E_1
  8
_0-0_0
 10
450.18544148070418
 20
220.99552798980508
 41
4
 42
4
 50
90
  0
CIRCLE
  8
_0-1_0-00
  6
CONTINUOUS
 62
    7
 10
414.79785481403621
 20
75.995527989809701
 40
0.0066666666666667
  0
CIRCLE
  8
_0-1_0-00
  6
CONTINUOUS
 62
    7
 10
414.79785481403621
 20
220.99552798980508
 40
0.0066666666666667
  0
CIRCLE
  8
_0-1_0-00
  6
CONTINUOUS
 62
    7
 10
450.18544148070418
 20
220.99552798980508
 40
0.0066666666666667
  0
LINE
  8
_0-2_0-10
  6
CONTINUOUS
 62
    6
 10
359.13118814736958
 20
235.29552798980486
 11
358.63118814736958
 21
235.29552798980486
  0
LINE
  8
_0-2_0-10
  6
CONTINUOUS
 62
    5
 10
357.63118814736958
 20
231.2496919898048
 11
329.85341348070289
 21
223.80665998980467
  0
LINE
  8
_0-2_0-10
  6
CONTINUOUS
 62
    7
 10
362.37703081403628
 20
246.49552798980479
 11
363.24305614736948
 21
245.99552798980479
  0
LINE
  8
_0-2_0-10
  6
CONTINUOUS
 62
    6
 10
359.13118814736958
 20
64.195527989809761
 11
358.63118814736958
 21
64.195527989809761
  0
LINE
  8
_0-2_0-10
  6
CONTINUOUS
 62
    2
 10
441.13118814736958
 20
154.59552798980499
 11
441.13118814736958
 21
142.39552798980508
  0
ARC
  8
_0-2_0-10
  6
CONTINUOUS
 62
    2
 10
440.73118814736949
 20
154.59552798980499
 40
0.4
 50
0
 51
90
  0
ARC
  8
_0-2_0-10
  6
CONTINUOUS
 62
    2
 10
440.73118814736949
 20
142.39552798980508
 40
0.4
 50
270
 51
0
  0
LINE
  8
_0-2_0-10
  6
CONTINUOUS
 62
    7
 10
384.13118814736958
 20
223.45793598980512
 11
384.20064681403619
 21
223.85185865647181
  0
LINE
  8
_0-2_0-10
  6
CONTINUOUS
 62
    7
 10
384.13118814736958
 20
223.45793598980512
 11
386.10080281403628
 21
223.11063865647182
  0
ARC
  8
_0-2_0-10
  6
CONTINUOUS
 62
    7
 10
386.17026281403633
 20
223.50456265647179
 40
0.4
 50
260.00000000000142
 51
297.39251799999891
  0
ARC
  8
_0-2_0-10
  6
CONTINUOUS
 62
    7
 10
390.77110148070289
 20
214.62580798980508
 40
9.5999999999999996
 50
42.607482000001148
 51
117.39251799999878
  0
LINE
  8
_0-2_0-10
  6
CONTINUOUS
 62
    7
 10
384.20064681403619
 20
223.85185865647181
 11
386.17026281403633
 21
223.50456265647179
  0
ARC
  8
_0-2_0-10
  6
CONTINUOUS
 62
    7
 10
390.77110148070289
 20
214.62580798980508
 40
10
 50
42.607482000001148
 51
117.39251799999878
  0
LINE
  8
_0-2_0-10
  6
CONTINUOUS
 62
    7
 10
398.13118814736952
 20
220.99552798980519
 11
410.13118814736958
 21
220.99552798980519
  0
LINE
  8
_0-2_0-10
  6
CONTINUOUS
 62
    7
 10
398.13118814736952
 20
221.39552798980517
 11
410.13118814736958
 21
221.39552798980517
  0
LINE
  8
_0-2_0-10
  6
CONTINUOUS
 62
    7
 10
410.13118814736958
 20
221.39552798980517
 11
410.13118814736958
 21
220.99552798980519
  0
LINE
  8
_0-2_0-10
  6
CONTINUOUS
 62
    6
 10
418.13118814736958
 20
127.233119989805
 11
418.13118814736958
 21
78.995527989809701
  0
LINE
  8
_0-2_0-10
  6
CONTINUOUS
 62
    6
 10
418.13118814736958
 20
217.99552798980519
 11
418.13118814736958
 21
127.2331198477344
  0
LINE
  8
_0-2_0-10
  6
CONTINUOUS
 62
    2
 10
418.13118814736958
 20
154.99552798980508
 11
440.73118814736949
 21
154.99552798980508
  0
LINE
  8
_0-2_0-10
  6
CONTINUOUS
 62
    2
 10
418.13118814736958
 20
141.99552798980508
 11
440.73118814736949
 21
141.99552798980508
  0
LINE
  8
_0-2_0-10
  6
CONTINUOUS
 62
    3
 10
364.33118814736963
 20
246.99552798980479
 11
364.33118814736963
 21
220.99552798980519
  0
LINE
  8
_0-1_0-00
  6
CONTINUOUS
 62
    7
 10
441.13118814736958
 20
148.49552798980508
 11
441.13118814736958
 21
259.46296132313796
  0
INSERT
  2
-031-_D31
  8
_0-0_0
 10
-51.007689229217987
 20
-35.504471318687905
 41
1
 42
1
 50
0
  0
INSERT
  2
-032-_D32
  8
_0-0_0
 10
-51.007689229217987
 20
-35.504471318687905
 41
1
 42
1
 50
0
  0
INSERT
  2
-033-_D33
  8
_0-0_0
 10
-51.007689229217987
 20
-35.504471318687905
 41
1
 42
1
 50
0
  0
INSERT
  2
-034-_D34
  8
_0-0_0
 10
-51.007689229217987
 20
-35.504471318687905
 41
1
 42
1
 50
0
  0
INSERT
  2
-035-_D35
  8
_0-0_0
 10
-51.007689229217987
 20
-35.504471318687905
 41
1
 42
1
 50
0
  0
INSERT
  2
-036-_D36
  8
_0-0_0
 10
-51.007689229217987
 20
-35.504471318687905
 41
1
 42
1
 50
0
  0
INSERT
  2
-037-_D37
  8
_0-0_0
 10
-51.007689229217987
 20
-35.504471318687905
 41
1
 42
1
 50
0
  0
LINE
  8
_0-2_0-10
  6
CONTINUOUS
 62
    7
 10
2.0870978256503178
 20
148.49552798980508
 11
229.44957915898373
 21
148.49552798980508
  0
LINE
  8
_0-2_0-10
  6
CONTINUOUS
 62
    7
 10
115.76833915898362
 20
255.48632532313817
 11
115.76833915898362
 21
24.084630143933424
  0
LINE
  8
_0-2_0-10
  6
CONTINUOUS
 62
    3
 10
26.768339158983678
 20
246.99552798980491
 11
26.768339158983678
 21
40.995527989804941
  0
LINE
  8
_0-2_0-10
  6
CONTINUOUS
 62
    3
 10
204.7683391589837
 20
246.99552798980491
 11
204.7683391589837
 21
40.995527989804941
  0
LINE
  8
_0-2_0-10
  6
CONTINUOUS
 62
    3
 10
213.76833915898373
 20
246.99552798980491
 11
204.2683391589837
 21
246.99552798980491
  0
LINE
  8
_0-2_0-10
  6
CONTINUOUS
 62
    3
 10
213.76833915898373
 20
246.99552798980491
 11
213.76833915898373
 21
40.995527989804941
  0
LINE
  8
_0-2_0-10
  6
CONTINUOUS
 62
    3
 10
17.768339158983678
 20
246.99552798980491
 11
17.768339158983678
 21
40.995527989804941
  0
LINE
  8
_0-2_0-10
  6
CONTINUOUS
 62
    7
 10
22.268339158983678
 20
183.26849865647159
 11
22.268339158983678
 21
173.72255732313828
  0
ARC
  8
_0-2_0-10
  6
CONTINUOUS
 62
    3
 10
22.268339158983678
 20
178.49552798980508
 40
2.149999999999999
 50
8.0209330000001486
 51
171.97906699999987
  0
ARC
  8
_0-2_0-10
  6
CONTINUOUS
 62
    3
 10
22.268339158983678
 20
178.49552798980508
 40
2.149999999999999
 50
188.02093300000001
 51
351.97906699999981
  0
LINE
  8
_0-2_0-10
  6
CONTINUOUS
 62
    7
 10
17.495368492317027
 20
178.49552798980508
 11
27.04130982565033
 21
178.49552798980508
  0
LINE
  8
_0-2_0-10
  6
CONTINUOUS
 62
    3
 10
213.76833915898373
 20
40.995527989804941
 11
204.2683391589837
 21
40.995527989804941
  0
LINE
  8
_0-2_0-10
  6
CONTINUOUS
 62
    4
 10
219.76833915898362
 20
46.155782656471728
 11
219.76833915898362
 21
33.518493323138272
  0
LINE
  8
_0-2_0-10
  6
CONTINUOUS
 62
    4
 10
219.26833915898373
 20
46.155782656471728
 11
219.26833915898373
 21
33.518493323138272
  0
LINE
  8
_0-2_0-10
  6
CONTINUOUS
 62
    4
 10
219.26833915898373
 20
33.518493323138272
 11
219.76833915898362
 21
33.518493323138272
  0
LINE
  8
_0-2_0-10
  6
CONTINUOUS
 62
    4
 10
11.768339158983678
 20
46.155782656471728
 11
11.768339158983678
 21
33.518493323138272
  0
LINE
  8
_0-2_0-10
  6
CONTINUOUS
 62
    4
 10
12.268339158983678
 20
46.155782656471728
 11
12.268339158983678
 21
33.518493323138272
  0
LINE
  8
_0-2_0-10
  6
CONTINUOUS
 62
    4
 10
12.268339158983678
 20
33.518493323138272
 11
11.768339158983678
 21
33.518493323138272
  0
ARC
  8
_0-2_0-10
  6
CONTINUOUS
 62
    4
 10
115.7683591589834
 20
748.62264852981923
 40
722.6271205400144
 50
261.72529459576071
 51
278.27470540423928
  0
ARC
  8
_0-2_0-10
  6
CONTINUOUS
 62
    4
 10
115.768354557142
 20
747.27320550321348
 40
720.9241241800754
 50
261.74576606327559
 51
278.25423169034672
  0
LINE
  8
_0-2_0-10
  6
CONTINUOUS
 62
    4
 10
11.768339158983678
 20
46.155782656471728
 11
17.768339158983678
 21
46.155782656471728
  0
LINE
  8
_0-2_0-10
  6
CONTINUOUS
 62
    4
 10
12.268339158983678
 20
43.746553323138414
 11
17.768339158983678
 21
43.746553323138414
  0
LINE
  8
_0-2_0-10
  6
CONTINUOUS
 62
    4
 10
98.614742894317004
 20
46.155782656471728
 11
204.2683391589837
 21
46.155782656471728
  0
LINE
  8
_0-2_0-10
  6
CONTINUOUS
 62
    4
 10
98.272496006250719
 20
43.746553323138414
 11
204.2683391589837
 21
43.746553323138414
  0
LINE
  8
_0-2_0-10
  6
CONTINUOUS
 62
    7
 10
209.26833915898362
 20
183.26849865647159
 11
209.26833915898362
 21
173.72255732313828
  0
LINE
  8
_0-2_0-10
  6
CONTINUOUS
 62
    7
 10
214.04130982565033
 20
178.49552798980508
 11
204.49536849231699
 21
178.49552798980508
  0
LINE
  8
_0-2_0-10
  6
CONTINUOUS
 62
    4
 10
204.0183391589837
 20
246.49552798980491
 11
204.2683391589837
 21
246.49552798980491
  0
LINE
  8
_0-2_0-10
  6
CONTINUOUS
 62
    4
 10
98.822712947921019
 20
47.495527989804941
 11
204.2683391589837
 21
47.495527989804941
  0
LINE
  8
_0-2_0-10
  6
CONTINUOUS
 62
    3
 10
204.2683391589837
 20
246.99552798980491
 11
204.2683391589837
 21
40.995527989804941
  0
LINE
  8
_0-2_0-10
  6
CONTINUOUS
 62
    4
 10
213.76833915898373
 20
46.155782656471728
 11
219.76833915898362
 21
46.155782656471728
  0
LINE
  8
_0-2_0-10
  6
CONTINUOUS
 62
    4
 10
213.76833915898373
 20
43.746553323138414
 11
219.26833915898373
 21
43.746553323138414
  0
LINE
  8
_0-2_0-10
  6
CONTINUOUS
 62
    7
 10
131.6546751589837
 20
246.99552798980491
 11
131.77813382565031
 21
244.61706265647157
  0
LINE
  8
_0-2_0-10
  6
CONTINUOUS
 62
    7
 10
131.77813382565031
 20
244.61706265647157
 11
131.87217382565032
 21
242.73950932313809
  0
LINE
  8
_0-2_0-10
  6
CONTINUOUS
 62
    7
 10
131.87217382565032
 20
242.73950932313809
 11
131.95928182565032
 21
240.8637786564715
  0
LINE
  8
_0-2_0-10
  6
CONTINUOUS
 62
    7
 10
131.95928182565032
 20
240.8637786564715
 11
132.0359938256503
 21
238.99078132313829
  0
LINE
  8
_0-2_0-10
  6
CONTINUOUS
 62
    7
 10
132.0359938256503
 20
238.99078132313829
 11
132.09884315898372
 21
237.12143065647157
  0
LINE
  8
_0-2_0-10
  6
CONTINUOUS
 62
    7
 10
132.09884315898372
 20
237.12143065647157
 11
132.144364492317
 21
235.2566386564716
  0
LINE
  8
_0-2_0-10
  6
CONTINUOUS
 62
    7
 10
132.144364492317
 20
235.2566386564716
 11
132.16909115898371
 21
233.39731332313832
  0
LINE
  8
_0-2_0-10
  6
CONTINUOUS
 62
    7
 10
132.16909115898371
 20
233.39731332313832
 11
132.16955915898361
 21
231.5443706564715
  0
LINE
  8
_0-2_0-10
  6
CONTINUOUS
 62
    7
 10
132.16955915898361
 20
231.5443706564715
 11
132.14230182565032
 21
229.69871865647158
  0
LINE
  8
_0-2_0-10
  6
CONTINUOUS
 62
    7
 10
132.14230182565032
 20
229.69871865647158
 11
132.08385382565032
 21
227.86126932313808
  0
LINE
  8
_0-2_0-10
  6
CONTINUOUS
 62
    7
 10
132.08385382565032
 20
227.86126932313808
 11
131.99074982565031
 21
226.03293598980488
  0
LINE
  8
_0-2_0-10
  6
CONTINUOUS
 62
    7
 10
131.99074982565031
 20
226.03293598980488
 11
131.85952315898362
 21
224.21462798980476
  0
LINE
  8
_0-2_0-10
  6
CONTINUOUS
 62
    7
 10
131.85952315898362
 20
224.21462798980476
 11
131.68670849231702
 21
222.40725865647149
  0
LINE
  8
_0-2_0-10
  6
CONTINUOUS
 62
    7
 10
131.68670849231702
 20
222.40725865647149
 11
131.46884182565031
 21
220.61173865647148
  0
LINE
  8
_0-2_0-10
  6
CONTINUOUS
 62
    7
 10
131.46884182565031
 20
220.61173865647148
 11
131.20245649231702
 21
218.82897865647149
  0
LINE
  8
_0-2_0-10
  6
CONTINUOUS
 62
    7
 10
131.20245649231702
 20
218.82897865647149
 11
130.88408582565031
 21
190.5598906564717
  0
LINE
  8
_0-2_0-10
  6
CONTINUOUS
 62
    7
 10
130.88408582565031
 20
190.5598906564717
 11
130.51026582565032
 21
188.80538665647168
  0
LINE
  8
_0-2_0-10
  6
CONTINUOUS
 62
    7
 10
130.51026582565032
 20
188.80538665647168
 11
130.07752849231701
 21
187.06637865647169
  0
LINE
  8
_0-2_0-10
  6
CONTINUOUS
 62
    7
 10
130.07752849231701
 20
187.06637865647169
 11
129.58241115898371
 21
185.34377732313828
  0
LINE
  8
_0-2_0-10
  6
CONTINUOUS
 62
    7
 10
129.58241115898371
 20
185.34377732313828
 11
129.02144715898361
 21
183.63849332313839
  0
LINE
  8
_0-2_0-10
  6
CONTINUOUS
 62
    7
 10
129.02144715898361
 20
183.63849332313839
 11
128.3911698256503
 21
181.95143998980498
  0
LINE
  8
_0-2_0-10
  6
CONTINUOUS
 62
    7
 10
128.3911698256503
 20
181.95143998980498
 11
127.82931782565032
 21
180.60008132313828
  0
LINE
  8
_0-2_0-10
  6
CONTINUOUS
 62
    7
 10
127.82931782565032
 20
180.60008132313828
 11
127.22529382565031
 21
179.25988932313839
  0
LINE
  8
_0-2_0-10
  6
CONTINUOUS
 62
    7
 10
127.22529382565031
 20
179.25988932313839
 11
126.584568492317
 21
177.92949465647168
  0
LINE
  8
_0-2_0-10
  6
CONTINUOUS
 62
    7
 10
126.584568492317
 20
177.92949465647168
 11
125.91261515898361
 21
176.60753332313839
  0
LINE
  8
_0-2_0-10
  6
CONTINUOUS
 62
    7
 10
125.91261515898361
 20
176.60753332313839
 11
125.2149058256503
 21
175.29263865647158
  0
LINE
  8
_0-2_0-10
  6
CONTINUOUS
 62
    7
 10
125.2149058256503
 20
175.29263865647158
 11
124.4969111589836
 21
173.98344532313848
  0
LINE
  8
_0-2_0-10
  6
CONTINUOUS
 62
    7
 10
124.4969111589836
 20
173.98344532313848
 11
123.76410582565031
 21
172.6785853231384
  0
LINE
  8
_0-2_0-10
  6
CONTINUOUS
 62
    7
 10
123.76410582565031
 20
172.6785853231384
 11
123.02196049231702
 21
171.37669465647158
  0
LINE
  8
_0-2_0-10
  6
CONTINUOUS
 62
    7
 10
123.02196049231702
 20
171.37669465647158
 11
122.27594715898359
 21
170.0764066564717
  0
LINE
  8
_0-2_0-10
  6
CONTINUOUS
 62
    7
 10
122.27594715898359
 20
170.0764066564717
 11
121.5315391589836
 21
168.77635465647168
  0
LINE
  8
_0-2_0-10
  6
CONTINUOUS
 62
    7
 10
121.5315391589836
 20
168.77635465647168
 11
120.79420849231701
 21
167.4751733231383
  0
LINE
  8
_0-2_0-10
  6
CONTINUOUS
 62
    7
 10
120.79420849231701
 20
167.4751733231383
 11
120.06942715898361
 21
166.17149598980498
  0
LINE
  8
_0-2_0-10
  6
CONTINUOUS
 62
    7
 10
120.06942715898361
 20
166.17149598980498
 11
119.36266849231699
 21
164.86395598980499
  0
LINE
  8
_0-2_0-10
  6
CONTINUOUS
 62
    7
 10
119.36266849231699
 20
164.86395598980499
 11
118.6794018256503
 21
163.5511893231384
  0
LINE
  8
_0-2_0-10
  6
CONTINUOUS
 62
    7
 10
118.6794018256503
 20
163.5511893231384
 11
118.02510182565032
 21
162.23182798980499
  0
LINE
  8
_0-2_0-10
  6
CONTINUOUS
 62
    7
 10
118.02510182565032
 20
162.23182798980499
 11
117.40524049231692
 21
160.90450665647168
  0
LINE
  8
_0-2_0-10
  6
CONTINUOUS
 62
    7
 10
117.40524049231692
 20
160.90450665647168
 11
116.82528982565031
 21
159.56785998980498
  0
LINE
  8
_0-2_0-10
  6
CONTINUOUS
 62
    7
 10
116.82528982565031
 20
159.56785998980498
 11
116.2907218256503
 21
158.22051998980498
  0
LINE
  8
_0-2_0-10
  6
CONTINUOUS
 62
    7
 10
116.2907218256503
 20
158.22051998980498
 11
115.807008492317
 21
156.8611226564717
  0
LINE
  8
_0-2_0-10
  6
CONTINUOUS
 62
    7
 10
115.807008492317
 20
156.8611226564717
 11
115.37962315898371
 21
155.488299989805
  0
LINE
  8
_0-2_0-10
  6
CONTINUOUS
 62
    7
 10
115.37962315898371
 20
155.488299989805
 11
115.01403649231701
 21
154.10068798980498
  0
LINE
  8
_0-2_0-10
  6
CONTINUOUS
 62
    7
 10
115.01403649231701
 20
154.10068798980498
 11
114.698444492317
 21
152.61557598980499
  0
LINE
  8
_0-2_0-10
  6
CONTINUOUS
 62
    7
 10
114.698444492317
 20
152.61557598980499
 11
114.45161382565029
 21
151.11387998980498
  0
LINE
  8
_0-2_0-10
  6
CONTINUOUS
 62
    7
 10
114.45161382565029
 20
151.11387998980498
 11
114.26700849231701
 21
149.597099989805
  0
LINE
  8
_0-2_0-10
  6
CONTINUOUS
 62
    7
 10
114.26700849231701
 20
149.597099989805
 11
114.138096492317
 21
148.06673598980498
  0
LINE
  8
_0-2_0-10
  6
CONTINUOUS
 62
    7
 10
114.138096492317
 20
148.06673598980498
 11
114.05834582565032
 21
146.52428798980508
  0
LINE
  8
_0-2_0-10
  6
CONTINUOUS
 62
    7
 10
114.05834582565032
 20
146.52428798980508
 11
114.02122049231701
 21
144.971255989805
  0
LINE
  8
_0-2_0-10
  6
CONTINUOUS
 62
    7
 10
114.02122049231701
 20
144.971255989805
 11
114.0201898256503
 21
143.40913865647169
  0
LINE
  8
_0-2_0-10
  6
CONTINUOUS
 62
    7
 10
114.0201898256503
 20
143.40913865647169
 11
114.0487178256503
 21
141.83943598980499
  0
LINE
  8
_0-2_0-10
  6
CONTINUOUS
 62
    7
 10
114.0487178256503
 20
141.83943598980499
 11
114.100272492317
 21
140.263647989805
  0
LINE
  8
_0-2_0-10
  6
CONTINUOUS
 62
    7
 10
114.100272492317
 20
140.263647989805
 11
114.168320492317
 21
138.6832733231383
  0
LINE
  8
_0-2_0-10
  6
CONTINUOUS
 62
    7
 10
114.168320492317
 20
138.6832733231383
 11
114.24632849231701
 21
137.0998133231383
  0
LINE
  8
_0-2_0-10
  6
CONTINUOUS
 62
    7
 10
114.24632849231701
 20
137.0998133231383
 11
114.32776182565029
 21
135.51476665647169
  0
LINE
  8
_0-2_0-10
  6
CONTINUOUS
 62
    7
 10
114.32776182565029
 20
135.51476665647169
 11
114.40608849231702
 21
133.92963198980498
  0
LINE
  8
_0-2_0-10
  6
CONTINUOUS
 62
    7
 10
114.40608849231702
 20
133.92963198980498
 11
114.47477515898361
 21
132.34591198980498
  0
LINE
  8
_0-2_0-10
  6
CONTINUOUS
 62
    7
 10
114.47477515898361
 20
132.34591198980498
 11
114.52728849231701
 21
130.76510265647178
  0
LINE
  8
_0-2_0-10
  6
CONTINUOUS
 62
    7
 10
114.52728849231701
 20
130.76510265647178
 11
114.55709382565029
 21
129.18870665647159
  0
LINE
  8
_0-2_0-10
  6
CONTINUOUS
 62
    7
 10
114.55709382565029
 20
129.18870665647159
 11
114.55765915898362
 21
127.6182226564716
  0
LINE
  8
_0-2_0-10
  6
CONTINUOUS
 62
    7
 10
114.55765915898362
 20
127.6182226564716
 11
114.52245115898361
 21
126.0551493231384
  0
LINE
  8
_0-2_0-10
  6
CONTINUOUS
 62
    7
 10
114.52245115898361
 20
126.0551493231384
 11
114.44493515898372
 21
124.50098798980499
  0
LINE
  8
_0-2_0-10
  6
CONTINUOUS
 62
    7
 10
114.44493515898372
 20
124.50098798980499
 11
114.31857782565032
 21
122.95723732313828
  0
LINE
  8
_0-2_0-10
  6
CONTINUOUS
 62
    7
 10
114.31857782565032
 20
122.95723732313828
 11
114.13684715898361
 21
121.42539598980499
  0
LINE
  8
_0-2_0-10
  6
CONTINUOUS
 62
    7
 10
114.13684715898361
 20
121.42539598980499
 11
113.83495649231701
 21
119.5796586564717
  0
LINE
  8
_0-2_0-10
  6
CONTINUOUS
 62
    7
 10
113.83495649231701
 20
119.5796586564717
 11
113.44911115898361
 21
117.7520146564716
  0
LINE
  8
_0-2_0-10
  6
CONTINUOUS
 62
    7
 10
113.44911115898361
 20
117.7520146564716
 11
112.9869458256503
 21
115.9407226564717
  0
LINE
  8
_0-2_0-10
  6
CONTINUOUS
 62
    7
 10
112.9869458256503
 20
115.9407226564717
 11
112.45609649231701
 21
114.14403732313829
  0
LINE
  8
_0-2_0-10
  6
CONTINUOUS
 62
    7
 10
112.45609649231701
 20
114.14403732313829
 11
111.8641978256503
 21
112.36021465647169
  0
LINE
  8
_0-2_0-10
  6
CONTINUOUS
 62
    7
 10
111.8641978256503
 20
112.36021465647169
 11
111.21888449231701
 21
110.587507989805
  0
LINE
  8
_0-2_0-10
  6
CONTINUOUS
 62
    7
 10
111.21888449231701
 20
110.587507989805
 11
110.52779115898371
 21
108.82417598980498
  0
LINE
  8
_0-2_0-10
  6
CONTINUOUS
 62
    7
 10
110.52779115898371
 20
108.82417598980498
 11
109.79855249231701
 21
107.0684733231383
  0
LINE
  8
_0-2_0-10
  6
CONTINUOUS
 62
    7
 10
109.79855249231701
 20
107.0684733231383
 11
109.03880315898362
 21
105.3186546564716
  0
LINE
  8
_0-2_0-10
  6
CONTINUOUS
 62
    7
 10
109.03880315898362
 20
105.3186546564716
 11
108.25617915898359
 21
103.57297598980488
  0
LINE
  8
_0-2_0-10
  6
CONTINUOUS
 62
    7
 10
108.25617915898359
 20
103.57297598980488
 11
107.45831515898362
 21
101.8296933231384
  0
LINE
  8
_0-2_0-10
  6
CONTINUOUS
 62
    7
 10
107.45831515898362
 20
101.8296933231384
 11
106.6528458256503
 21
100.0870626564716
  0
LINE
  8
_0-2_0-10
  6
CONTINUOUS
 62
    7
 10
106.6528458256503
 20
100.0870626564716
 11
105.84740449231702
 21
98.343338656471701
  0
LINE
  8
_0-2_0-10
  6
CONTINUOUS
 62
    7
 10
105.84740449231702
 20
98.343338656471701
 11
105.04962849231699
 21
96.596775989804996
  0
LINE
  8
_0-2_0-10
  6
CONTINUOUS
 62
    7
 10
105.04962849231699
 20
96.596775989804996
 11
104.2671511589836
 21
94.845631989804985
  0
LINE
  8
_0-2_0-10
  6
CONTINUOUS
 62
    7
 10
104.2671511589836
 20
94.845631989804985
 11
103.50760849231701
 21
93.088162656471695
  0
LINE
  8
_0-2_0-10
  6
CONTINUOUS
 62
    7
 10
103.50760849231701
 20
93.088162656471695
 11
102.7786338256503
 21
91.322621323138392
  0
LINE
  8
_0-2_0-10
  6
CONTINUOUS
 62
    7
 10
102.7786338256503
 20
91.322621323138392
 11
102.08786182565032
 21
89.547265323136997
  0
LINE
  8
_0-2_0-10
  6
CONTINUOUS
 62
    7
 10
102.08786182565032
 20
89.547265323136997
 11
101.44292982565031
 21
87.7603506564717
  0
LINE
  8
_0-2_0-10
  6
CONTINUOUS
 62
    7
 10
101.44292982565031
 20
87.7603506564717
 11
100.85147115898359
 21
85.960130656471591
  0
LINE
  8
_0-2_0-10
  6
CONTINUOUS
 62
    7
 10
100.85147115898359
 20
85.960130656471591
 11
100.3211204923169
 21
84.144862656471701
  0
LINE
  8
_0-2_0-10
  6
CONTINUOUS
 62
    7
 10
100.3211204923169
 20
84.144862656471701
 11
100.15187515898361
 21
83.508177323138397
  0
LINE
  8
_0-2_0-10
  6
CONTINUOUS
 62
    7
 10
100.15187515898361
 20
83.508177323138397
 11
99.990587158983601
 21
82.869547989804999
  0
LINE
  8
_0-2_0-10
  6
CONTINUOUS
 62
    7
 10
99.990587158983601
 20
82.869547989804999
 11
99.836859158983713
 21
82.229071989804992
  0
LINE
  8
_0-2_0-10
  6
CONTINUOUS
 62
    7
 10
99.836859158983713
 20
82.229071989804992
 11
99.690292492317013
 21
52.086846656471607
  0
LINE
  8
_0-2_0-10
  6
CONTINUOUS
 62
    7
 10
99.690292492317013
 20
52.086846656471607
 11
99.550489825650316
 21
51.442969323138299
  0
LINE
  8
_0-2_0-10
  6
CONTINUOUS
 62
    7
 10
99.550489825650316
 20
51.442969323138299
 11
99.417052492317026
 21
50.797537323138385
  0
LINE
  8
_0-2_0-10
  6
CONTINUOUS
 62
    7
 10
99.417052492317026
 20
50.797537323138385
 11
99.289583158983703
 21
50.150646656471622
  0
LINE
  8
_0-2_0-10
  6
CONTINUOUS
 62
    7
 10
99.289583158983703
 20
50.150646656471622
 11
99.167684492316908
 21
49.502394656471651
  0
LINE
  8
_0-2_0-10
  6
CONTINUOUS
 62
    7
 10
99.167684492316908
 20
49.502394656471651
 11
99.0509578256503
 21
48.852879989805046
  0
LINE
  8
_0-2_0-10
  6
CONTINUOUS
 62
    7
 10
99.0509578256503
 20
48.852879989805046
 11
98.939005825650298
 21
48.202198656471637
  0
LINE
  8
_0-2_0-10
  6
CONTINUOUS
 62
    7
 10
98.939005825650298
 20
48.202198656471637
 11
98.831429825650303
 21
47.550449323138309
  0
LINE
  8
_0-2_0-10
  6
CONTINUOUS
 62
    7
 10
98.831429825650303
 20
47.550449323138309
 11
98.72783249231702
 21
46.897726656471604
  0
LINE
  8
_0-2_0-10
  6
CONTINUOUS
 62
    7
 10
98.72783249231702
 20
46.897726656471604
 11
98.627816492316924
 21
46.244130656471725
  0
LINE
  8
_0-2_0-10
  6
CONTINUOUS
 62
    7
 10
98.627816492316924
 20
46.244130656471725
 11
98.530983158983701
 21
45.58975598980497
  0
LINE
  8
_0-2_0-10
  6
CONTINUOUS
 62
    7
 10
98.530983158983701
 20
45.58975598980497
 11
98.436935158983601
 21
44.934701323138369
  0
LINE
  8
_0-2_0-10
  6
CONTINUOUS
 62
    7
 10
98.436935158983601
 20
44.934701323138369
 11
98.345273825650309
 21
44.279062656471637
  0
LINE
  8
_0-2_0-10
  6
CONTINUOUS
 62
    7
 10
98.345273825650309
 20
44.279062656471637
 11
98.255601825650302
 21
43.62293998980499
  0
LINE
  8
_0-2_0-10
  6
CONTINUOUS
 62
    7
 10
98.255601825650302
 20
43.62293998980499
 11
98.167521825650311
 21
42.966426656471639
  0
LINE
  8
_0-2_0-10
  6
CONTINUOUS
 62
    7
 10
98.167521825650311
 20
42.966426656471639
 11
98.080635158983625
 21
42.30962265647166
  0
LINE
  8
_0-2_0-10
  6
CONTINUOUS
 62
    7
 10
98.080635158983625
 20
42.30962265647166
 11
97.994544492317004
 21
41.652623989804965
  0
LINE
  8
_0-2_0-10
  6
CONTINUOUS
 62
    7
 10
97.994544492317004
 20
41.652623989804965
 11
97.908851158983708
 21
40.995527989804941
  0
LINE
  8
_0-2_0-10
  6
CONTINUOUS
 62
    3
 10
204.2683391589837
 20
40.995527989804941
 11
17.768339158983678
 21
40.995527989804941
  0
LINE
  8
_0-2_0-10
  6
CONTINUOUS
 62
    3
 10
157.6546751589837
 20
246.99552798980491
 11
17.768339158983678
 21
246.99552798980491
  0
LINE
  8
_0-2_0-10
  6
CONTINUOUS
 62
    5
 10
132.09209026015381
 20
228.12020087062577
 11
191.58790449231702
 21
222.9149893231382
  0
LINE
  8
_0-2_0-10
  6
CONTINUOUS
 62
    5
 10
158.15496849231701
 20
230.55638932313817
 11
189.00881782565042
 21
227.85702798980489
  0
LINE
  8
_0-2_0-10
  6
CONTINUOUS
 62
    5
 10
132.16920179880921
 20
232.95925936283268
 11
189.0200538256503
 21
227.98545332313821
  0
LINE
  8
_0-2_0-10
  6
CONTINUOUS
 62
    5
 10
132.06162513910712
 20
238.22841980939008
 11
203.5183391589837
 21
231.97676665647148
  0
LINE
  8
_0-2_0-10
  6
CONTINUOUS
 62
    5
 10
191.7471698256503
 20
224.73540265647162
 11
191.58790449231702
 21
222.9149893231382
  0
LINE
  8
_0-2_0-10
  6
CONTINUOUS
 62
    5
 10
204.0183391589837
 20
246.99552798980491
 11
157.6546751589837
 21
246.99552798980491
  0
LINE
  8
_0-2_0-10
  6
CONTINUOUS
 62
    5
 10
192.28353515898371
 20
224.22790265647151
 11
203.5183391589837
 21
223.24498532313819
  0
LINE
  8
_0-2_0-10
  6
CONTINUOUS
 62
    5
 10
192.24019782565031
 20
223.74959198980477
 11
203.47476049231701
 21
222.76669465647151
  0
ARC
  8
_0-2_0-10
  6
CONTINUOUS
 62
    5
 10
192.23124182565041
 20
223.63018665647157
 40
0.5999999999999999
 50
85.000000000000227
 51
159.63548999999829
  0
ARC
  8
_0-2_0-10
  6
CONTINUOUS
 62
    5
 10
192.18790449231701
 20
223.1518746564715
 40
0.5999999999999999
 50
85.000000000000227
 51
159.1091209999991
  0
ARC
  8
_0-2_0-10
  6
CONTINUOUS
 62
    5
 10
188.7473498256503
 20
224.86844398980477
 40
3
 50
355.00000000000022
 51
85.000000000000213
  0
ARC
  8
_0-2_0-10
  6
CONTINUOUS
 62
    5
 10
188.75858582565041
 20
224.99686932313821
 40
3
 50
355.00000000000022
 51
85.000000000000213
  0
LINE
  8
_0-2_0-10
  6
CONTINUOUS
 62
    5
 10
204.0183391589837
 20
246.99552798980491
 11
204.0183391589837
 21
223.26479198980499
  0
LINE
  8
_0-2_0-10
  6
CONTINUOUS
 62
    5
 10
203.5183391589837
 20
246.99552798980491
 11
203.5183391589837
 21
223.24498532313819
  0
ARC
  8
_0-2_0-10
  6
CONTINUOUS
 62
    5
 10
203.5183391589837
 20
223.26479198980499
 40
0.5
 50
265.00000000000022
 51
0
  0
LINE
  8
_0-2_0-10
  6
CONTINUOUS
 62
    5
 10
203.5183391589837
 20
227.74101065647161
 11
204.0183391589837
 21
227.74101065647161
  0
LINE
  8
_0-2_0-10
  6
CONTINUOUS
 62
    5
 10
203.5183391589837
 20
235.40786665647149
 11
204.0183391589837
 21
235.40786665647149
  0
LINE
  8
_0-2_0-10
  6
CONTINUOUS
 62
    7
 10
209.26833915898362
 20
178.49552798980508
 11
218.34996530037972
 21
166.03149270155699
  0
TEXT
  8
_0-2_0-10
 62
    7
 10
221.28834046283571
 20
167.5798681216757
 40
3.1199999999999992
 41
1
 50
0
  1
2-φ4.3
  0
LINE
  8
_0-2_0-10
  6
CONTINUOUS
 62
    7
 10
240.0681632468183
 20
166.03149270155699
 11
218.34996530037972
 21
166.03149270155699
  0
INSERT
  2
-038-_D38
  8
_0-0_0
 10
-51.007689229217987
 20
-35.504471318687905
 41
1
 42
1
 50
0
  0
INSERT
  2
-039-_D39
  8
_0-0_0
 10
-51.007689229217987
 20
-35.504471318687905
 41
1
 42
1
 50
0
  0
INSERT
  2
-040-_D40
  8
_0-0_0
 10
-51.007689229217987
 20
-35.504471318687905
 41
1
 42
1
 50
0
  0
CIRCLE
  8
_0-2_0-10
  6
CONTINUOUS
 62
    3
 10
209.26833915898362
 20
178.49552798980499
 40
2.149999999999999
  0
TEXT
  8
_0-1_0-00
 62
    7
 10
228.11731101525418
 20
-25.641971145811169
 40
4.875
 41
1
 50
0
  1
マックス株式会社
  0
TEXT
  8
_0-1_0-00
 62
    7
 10
308.53356101525429
 20
-25.641971145811169
 40
4.875
 41
1
 50
0
  1
2024/1/9
  0
TEXT
  8
_0-1_0-00
 62
    7
 10
371.8673110152543
 20
-21.986971145811168
 40
2.9249999999999989
 41
1
 50
0
  1
名称
  0
TEXT
  8
_0-1_0-00
 62
    7
 10
296.86731101525418
 20
-21.986971145811168
 40
2.9249999999999989
 41
1
 50
0
  1
日付
  0
ARC
  8
_0-2_0-10
  6
CONTINUOUS
 62
    4
 10
112.1317412208393
 20
148.49552798980508
 40
82.963917525773183
 50
261.42407869909288
 51
306.86989800000071
  0
LINE
  8
_0-2_0-10
  6
CONTINUOUS
 62
    4
 10
131.30282450967101
 20
219.50068262898039
 11
148.00802988063321
 21
219.50068262898039
  0
LINE
  8
_0-2_0-10
  6
CONTINUOUS
 62
    4
 10
131.20610510191031
 20
218.853396649599
 11
148.00802988063321
 21
218.853396649599
  0
LINE
  8
_0-2_0-10
  6
CONTINUOUS
 62
    4
 10
131.0079992771588
 20
201.56253829908339
 11
166.0007380593274
 21
201.56253829908339
  0
LINE
  8
_0-2_0-10
  6
CONTINUOUS
 62
    4
 10
131.00070944634501
 20
200.915252319702
 11
166.0007380593274
 21
200.915252319702
  0
LINE
  8
_0-2_0-10
  6
CONTINUOUS
 62
    4
 10
131.0795487514425
 20
207.91563108258858
 11
156.2851221830387
 21
207.91563108258858
  0
LINE
  8
_0-2_0-10
  6
CONTINUOUS
 62
    4
 10
130.75999706477492
 20
189.9774867526917
 11
171.50855159884631
 21
189.9774867526917
  0
LINE
  8
_0-2_0-10
  6
CONTINUOUS
 62
    4
 10
129.01617968875322
 20
183.62439396918648
 11
175.2773357912861
 21
183.62439396918648
  0
LINE
  8
_0-2_0-10
  6
CONTINUOUS
 62
    4
 10
128.7743558691217
 20
182.97710798980489
 11
175.2773357912861
 21
182.977107989805
  0
LINE
  8
_0-2_0-10
  6
CONTINUOUS
 62
    4
 10
123.39970415391002
 20
172.0393424227947
 11
179.75290678784972
 21
172.03934242279478
  0
LINE
  8
_0-2_0-10
  6
CONTINUOUS
 62
    4
 10
119.80713914967222
 20
165.68624963928959
 11
179.62733977754041
 21
165.68624963928959
  0
LINE
  8
_0-2_0-10
  6
CONTINUOUS
 62
    4
 10
119.4572645945995
 20
165.038963659908
 11
179.62733977754041
 21
165.03896365990809
  0
LINE
  8
_0-2_0-10
  6
CONTINUOUS
 62
    4
 10
115.0141708864339
 20
154.10119809289778
 11
182.7041700180903
 21
154.10119809289778
  0
LINE
  8
_0-2_0-10
  6
CONTINUOUS
 62
    4
 10
114.12162202498751
 20
147.74810530939268
 11
180.0973929046882
 21
147.74810530939268
  0
LINE
  8
_0-2_0-10
  6
CONTINUOUS
 62
    4
 10
114.08815477787152
 20
147.10081933001109
 11
180.0973929046882
 21
147.10081933001109
  0
LINE
  8
_0-2_0-10
  6
CONTINUOUS
 62
    4
 10
114.29445543716852
 20
136.1630537630009
 11
181.8237937981589
 21
136.1630537630009
  0
LINE
  8
_0-2_0-10
  6
CONTINUOUS
 62
    4
 10
114.5453476069448
 20
129.80996097949579
 11
175.88724465726551
 21
129.80996097949579
  0
LINE
  8
_0-2_0-10
  6
CONTINUOUS
 62
    4
 10
114.5571031963685
 20
129.1626750001142
 11
175.88724465726551
 21
129.1626750001142
  0
LINE
  8
_0-2_0-10
  6
CONTINUOUS
 62
    4
 10
113.5489469271755
 20
118.22490943310398
 11
176.57823592874311
 21
118.22490943310398
  0
LINE
  8
_0-2_0-10
  6
CONTINUOUS
 62
    4
 10
111.68640769729179
 20
111.87181664959868
 11
165.74221352324491
 21
111.87181664959868
  0
LINE
  8
_0-2_0-10
  6
CONTINUOUS
 62
    4
 10
111.4507780351324
 20
111.22453067021729
 11
165.74221352324491
 21
111.22453067021729
  0
LINE
  8
_0-2_0-10
  6
CONTINUOUS
 62
    4
 10
106.74515121181951
 20
100.28676510320698
 11
166.04447524145791
 21
100.28676510320698
  0
LINE
  8
_0-2_0-10
  6
CONTINUOUS
 62
    4
 10
103.87302065179071
 20
93.933672319701798
 11
143.36766115211079
 21
93.933672319701798
  0
LINE
  8
_0-2_0-10
  6
CONTINUOUS
 62
    4
 10
103.59327675552441
 20
93.286386340320404
 11
143.36766115211079
 21
93.286386340320404
  0
LINE
  8
_0-2_0-10
  6
CONTINUOUS
 62
    4
 10
99.865553435413517
 20
82.348620773310088
 11
147.34982555073631
 21
82.348620773310088
  0
ARC
  8
_0-2_0-10
  6
CONTINUOUS
 62
    4
 10
112.1317412208393
 20
148.49552798980508
 40
82.963917525773183
 50
261.42407869909288
 51
72.705860587864791
  0
ARC
  8
_0-2_0-10
  6
CONTINUOUS
 62
    4
 10
112.1317412208393
 20
148.49552798980508
 40
82.963917525773183
 50
35.78176100000082
 51
46.365534999998686
  0
LINE
  8
_0-2_0-10
  6
CONTINUOUS
 62
    7
 10
156.2992992964408
 20
82.722332113516188
 11
149.5724951727293
 21
82.722332113516188
  0
LINE
  8
_0-2_0-10
  6
CONTINUOUS
 62
    4
 10
161.46163812805582
 20
83.469754793928601
 11
157.95185881534112
 21
83.469754793928601
  0
LINE
  8
_0-2_0-10
  6
CONTINUOUS
 62
    4
 10
168.1435789527982
 20
87.954290876402794
 11
163.06049682221402
 21
87.954290876402794
  0
LINE
  8
_0-2_0-10
  6
CONTINUOUS
 62
    7
 10
174.7389582655129
 20
100.6604764434131
 11
168.0121541418016
 21
100.6604764434131
  0
LINE
  8
_0-2_0-10
  6
CONTINUOUS
 62
    4
 10
178.7086018393962
 20
101.4078991238255
 11
176.30407730331361
 21
101.4078991238255
  0
LINE
  8
_0-2_0-10
  6
CONTINUOUS
 62
    4
 10
182.38311111774672
 20
105.89243520629969
 11
178.95687771568472
 21
105.89243520629969
  0
LINE
  8
_0-2_0-10
  6
CONTINUOUS
 62
    4
 10
190.23651640984292
 20
123.8305795361968
 11
188.18127744077071
 21
123.8305795361968
  0
LINE
  8
_0-2_0-10
  6
CONTINUOUS
 62
    4
 10
188.28087001809021
 20
119.34604345372258
 11
186.30885207994592
 21
119.34604345372258
  0
LINE
  8
_0-2_0-10
  6
CONTINUOUS
 62
    7
 10
185.07945537891501
 20
118.59862077331018
 11
178.35265125520362
 21
118.59862077331018
  0
LINE
  8
_0-2_0-10
  6
CONTINUOUS
 62
    4
 10
193.5726943479872
 20
141.76872386609369
 11
191.77895565382911
 21
141.76872386609369
  0
LINE
  8
_0-2_0-10
  6
CONTINUOUS
 62
    7
 10
190.0942370283995
 20
136.5367651032071
 11
183.3674329046882
 21
136.5367651032071
  0
LINE
  8
_0-2_0-10
  6
CONTINUOUS
 62
    4
 10
192.95298527582221
 20
159.7068681959906
 11
190.50969840297
 21
159.7068681959906
  0
LINE
  8
_0-2_0-10
  6
CONTINUOUS
 62
    7
 10
190.7551938668875
 20
154.47490943310398
 11
184.0283897431762
 21
154.47490943310398
  0
LINE
  8
_0-2_0-10
  6
CONTINUOUS
 62
    4
 10
190.23651640984292
 20
173.1604764434133
 11
188.2566475438634
 21
173.1604764434133
  0
LINE
  8
_0-2_0-10
  6
CONTINUOUS
 62
    7
 10
187.4895646572655
 20
172.41305376300098
 11
180.7627605335542
 21
172.41305376300098
  0
LINE
  8
_0-2_0-10
  6
CONTINUOUS
 62
    4
 10
178.7086018393962
 20
195.58315685578449
 11
175.69868884970532
 21
195.58315685578449
  0
LINE
  8
_0-2_0-10
  6
CONTINUOUS
 62
    7
 10
178.99430864351981
 20
190.3511980928979
 11
172.26750451980842
 21
190.3511980928979
  0
LINE
  8
_0-2_0-10
  6
CONTINUOUS
 62
    4
 10
161.46163812805582
 20
213.52130118568138
 11
160.02223558510061
 21
213.52130118568138
  0
LINE
  8
_0-2_0-10
  6
CONTINUOUS
 62
    4
 10
168.1435789527982
 20
209.0367651032071
 11
164.09746905589082
 21
209.0367651032071
  0
LINE
  8
_0-2_0-10
  6
CONTINUOUS
 62
    7
 10
163.75934898716241
 20
208.28934242279478
 11
157.0325448634511
 21
208.28934242279478
  0
ARC
  8
_0-2_0-10
  6
CONTINUOUS
 62
    4
 10
112.1317412208393
 20
148.49552798980508
 40
82.963917525773183
 50
313.63446500000128
 51
324.21823899999907
  0
ARC
  8
_0-2_0-10
  6
CONTINUOUS
 62
    4
 10
112.1317412208393
 20
148.49552798980508
 40
82.963917525773183
 50
329.75646699999867
 51
338.36988900000062
  0
ARC
  8
_0-2_0-10
  6
CONTINUOUS
 62
    4
 10
112.1317412208393
 20
148.49552798980508
 40
82.963917525773183
 50
8.7275869999981487
 51
16.523205999999778
  0
LINE
  8
_0-2_0-10
  6
CONTINUOUS
 62
    4
 10
157.0325448634511
 20
210.53161046403189
 11
157.0325448634511
 21
208.28934242279478
  0
LINE
  8
_0-2_0-10
  6
CONTINUOUS
 62
    4
 10
172.7544175094992
 20
193.11262194169498
 11
172.26750451980842
 21
190.3511980928979
  0
LINE
  8
_0-2_0-10
  6
CONTINUOUS
 62
    4
 10
187.07434445108
 20
158.10493609977069
 11
184.0283897431762
 21
154.47490943310398
  0
ARC
  8
_0-2_0-10
  6
CONTINUOUS
 62
    4
 10
160.02223558510061
 20
210.53161046403189
 40
2.9896907216494841
 50
90
 51
180
  0
LINE
  8
_0-2_0-10
  6
CONTINUOUS
 62
    4
 10
178.98579001809031
 20
190.44857032657489
 11
178.99430864351981
 21
190.3511980928979
  0
ARC
  8
_0-2_0-10
  6
CONTINUOUS
 62
    4
 10
175.69868884970532
 20
192.59346613413498
 40
2.9896907216494841
 50
90
 51
170.0000000000013
  0
LINE
  8
_0-2_0-10
  6
CONTINUOUS
 62
    4
 10
187.52838280159539
 20
172.5811879898049
 11
187.4895646572655
 21
172.41305376300098
  0
LINE
  8
_0-2_0-10
  6
CONTINUOUS
 62
    4
 10
190.84049771568481
 20
154.67587445028598
 11
190.7551938668875
 21
154.47490943310398
  0
LINE
  8
_0-2_0-10
  6
CONTINUOUS
 62
    4
 10
187.93548300778101
 20
140.36981568739949
 11
183.3674329046882
 21
136.5367651032071
  0
LINE
  8
_0-2_0-10
  6
CONTINUOUS
 62
    4
 10
183.89423634111432
 20
122.4788805671246
 11
178.35265125520362
 21
118.59862077331018
  0
LINE
  8
_0-2_0-10
  6
CONTINUOUS
 62
    4
 10
190.25391242358861
 20
136.79229994856788
 11
190.0942370283995
 21
136.5367651032071
  0
ARC
  8
_0-2_0-10
  6
CONTINUOUS
 62
    4
 10
190.50969840297
 20
155.22233211351638
 40
4.4845360824742259
 50
90
 51
139.99999999999968
  0
ARC
  8
_0-2_0-10
  6
CONTINUOUS
 62
    4
 10
191.77895565382911
 20
135.7893424227947
 40
5.9793814432989691
 50
90
 51
130.00000000000281
  0
LINE
  8
_0-2_0-10
  6
CONTINUOUS
 62
    4
 10
174.20399496654391
 20
104.52956874581869
 11
168.0121541418016
 21
100.6604764434131
  0
LINE
  8
_0-2_0-10
  6
CONTINUOUS
 62
    4
 10
157.81812197685312
 20
86.743994312828988
 11
149.5724951727293
 21
82.722332113516188
  0
ARC
  8
_0-2_0-10
  6
CONTINUOUS
 62
    4
 10
188.18127744077071
 20
116.3563527320731
 40
7.4742268041237114
 50
90
 51
124.99999999999711
  0
LINE
  8
_0-2_0-10
  6
CONTINUOUS
 62
    4
 10
185.4486104304614
 20
118.980892594614
 11
185.07945537891501
 21
118.59862077331018
  0
ARC
  8
_0-2_0-10
  6
CONTINUOUS
 62
    4
 10
178.95687771568472
 20
96.923363041351308
 40
8.9690721649484537
 50
90
 51
121.99999999999769
  0
LINE
  8
_0-2_0-10
  6
CONTINUOUS
 62
    4
 10
175.4681717363033
 20
101.15233637468469
 11
174.7389582655129
 21
100.6604764434131
  0
ARC
  8
_0-2_0-10
  6
CONTINUOUS
 62
    4
 10
163.06049682221402
 20
75.995527989804898
 40
11.95876288659794
 50
90
 51
116.00000000000198
  0
ARC
  8
_0-2_0-10
  6
CONTINUOUS
 62
    4
 10
161.46163812805582
 20
214.26872386609369
 40
0.7474226804123712
 50
270
 51
53.13010199999934
  0
ARC
  8
_0-2_0-10
  6
CONTINUOUS
 62
    4
 10
178.7086018393962
 20
196.48006407227919
 40
0.8969072164948452
 50
270
 51
35.78176100000082
  0
ARC
  8
_0-2_0-10
  6
CONTINUOUS
 62
    4
 10
192.95298527582221
 20
160.90274448465029
 40
1.1958762886597928
 50
270
 51
8.727586999998147
  0
ARC
  8
_0-2_0-10
  6
CONTINUOUS
 62
    4
 10
193.5726943479872
 20
143.11408469083599
 40
1.3453608247422679
 50
270
 51
356.21951400000028
  0
ARC
  8
_0-2_0-10
  6
CONTINUOUS
 62
    4
 10
190.23651640984292
 20
125.32542489702149
 40
1.494845360824742
 50
270
 51
343.47679400000021
  0
ARC
  8
_0-2_0-10
  6
CONTINUOUS
 62
    4
 10
182.38311111774672
 20
107.53676510320698
 40
1.6443298969072159
 50
270
 51
329.75646699999867
  0
ARC
  8
_0-2_0-10
  6
CONTINUOUS
 62
    4
 10
168.1435789527982
 20
89.748105309392599
 40
1.7938144329896898
 50
270
 51
313.63446500000128
  0
ARC
  8
_0-2_0-10
  6
CONTINUOUS
 62
    4
 10
161.46163812805582
 20
82.722332113516188
 40
0.7474226804123712
 50
306.86989800000071
 51
90
  0
ARC
  8
_0-2_0-10
  6
CONTINUOUS
 62
    4
 10
178.7086018393962
 20
100.5109919073308
 40
0.8969072164948452
 50
324.21823899999907
 51
89.999999999999971
  0
ARC
  8
_0-2_0-10
  6
CONTINUOUS
 62
    4
 10
188.28087001809021
 20
118.29965170114328
 40
1.0463917525773189
 50
338.36988900000062
 51
90
  0
ARC
  8
_0-2_0-10
  6
CONTINUOUS
 62
    4
 10
190.23651640984292
 20
171.66563108258858
 40
1.494845360824742
 50
16.523205999999778
 51
89.999999999999985
  0
ARC
  8
_0-2_0-10
  6
CONTINUOUS
 62
    4
 10
168.1435789527982
 20
207.24295067021759
 40
1.7938144329896898
 50
46.365534999998686
 51
90
  0
ARC
  8
_0-2_0-10
  6
CONTINUOUS
 62
    4
 10
164.09746905589082
 20
208.58831149495958
 40
0.4484536082474226
 50
90
 51
214.99999999999749
  0
ARC
  8
_0-2_0-10
  6
CONTINUOUS
 62
    4
 10
179.58145400434452
 20
190.5006826289802
 40
0.597938144329897
 50
90
 51
185
  0
ARC
  8
_0-2_0-10
  6
CONTINUOUS
 62
    4
 10
188.2566475438634
 20
172.41305376300098
 40
0.7474226804123712
 50
90
 51
166.99999999999968
  0
ARC
  8
_0-2_0-10
  6
CONTINUOUS
 62
    4
 10
191.66610678784971
 20
154.32542489702149
 40
0.8969072164948452
 50
90
 51
157.00000000000062
  0
ARC
  8
_0-2_0-10
  6
CONTINUOUS
 62
    4
 10
191.14130245795291
 20
136.2377960310421
 40
1.0463917525773189
 50
90
 51
147.99999999999769
  0
ARC
  8
_0-2_0-10
  6
CONTINUOUS
 62
    4
 10
186.30885207994592
 20
118.15016716506269
 40
1.1958762886597928
 50
90
 51
135.99999999999729
  0
ARC
  8
_0-2_0-10
  6
CONTINUOUS
 62
    4
 10
176.30407730331361
 20
99.913053763000789
 40
1.494845360824742
 50
90
 51
123.9999999999989
  0
ARC
  8
_0-2_0-10
  6
CONTINUOUS
 62
    4
 10
157.95185881534112
 20
81.67594036093709
 40
1.7938144329896898
 50
90
 51
124.43955700000381
  0
INSERT
  2
-028-BLKF018_35
  8
_0-2_0-10
 10
-74.680566408026606
 20
-208.18860273184441
 41
1.993127147766323
 42
1.993127147766323
 50
0
  0
INSERT
  2
-002-BLKF019_2
  8
_0-2_0-10
 10
-74.680566408026606
 20
-208.18860273184441
 41
1.993127147766323
 42
1.993127147766323
 50
0
  0
LINE
  8
_0-2_0-10
  6
CONTINUOUS
 62
    4
 10
150.99772060228272
 20
220.99552151423657
 11
150.99772060228272
 21
220.34824201042368
  0
INSERT
  2
-003-BLKF020_3
  8
_0-2_0-10
 10
-74.680566408026606
 20
-208.18860273184441
 41
1.993127147766323
 42
1.993127147766323
 50
0
  0
INSERT
  2
-004-BLKF021_4
  8
_0-2_0-10
 10
-74.680566408026606
 20
-208.18860273184441
 41
1.993127147766323
 42
1.993127147766323
 50
0
  0
LINE
  8
_0-2_0-10
  6
CONTINUOUS
 62
    4
 10
163.75934898716241
 20
208.28934242279478
 11
169.06200197685311
 21
204.50285527502819
  0
LINE
  8
_0-2_0-10
  6
CONTINUOUS
 62
    4
 10
169.73785146138922
 20
203.43109500011428
 11
169.73785146138922
 21
202.783809020733
  0
INSERT
  2
-005-BLKF022_5
  8
_0-2_0-10
 10
-74.680566408026606
 20
-208.18860273184441
 41
1.993127147766323
 42
1.993127147766323
 50
0
  0
INSERT
  2
-006-BLKF023_6
  8
_0-2_0-10
 10
-74.680566408026606
 20
-208.18860273184441
 41
1.993127147766323
 42
1.993127147766323
 50
0
  0
INSERT
  2
-007-BLKF024_7
  8
_0-2_0-10
 10
-74.680566408026606
 20
-208.18860273184441
 41
1.993127147766323
 42
1.993127147766323
 50
0
  0
LINE
  8
_0-2_0-10
  6
CONTINUOUS
 62
    4
 10
178.99430864351981
 20
190.3511980928979
 11
179.74480671912121
 21
186.0620901203892
  0
LINE
  8
_0-2_0-10
  6
CONTINUOUS
 62
    4
 10
179.76187187376029
 20
185.86666201042359
 11
179.76187187376029
 21
185.2374317698738
  0
INSERT
  2
-008-BLKF025_8
  8
_0-2_0-10
 10
-74.680566408026606
 20
-208.18860273184441
 41
1.993127147766323
 42
1.993127147766323
 50
0
  0
LINE
  8
_0-2_0-10
  6
CONTINUOUS
 62
    4
 10
172.24461943389792
 20
190.28630386609358
 11
172.26750451980842
 21
190.3511980928979
  0
INSERT
  2
-009-BLKF026_9
  8
_0-2_0-10
 10
-74.680566408026606
 20
-208.18860273184441
 41
1.993127147766323
 42
1.993127147766323
 50
0
  0
INSERT
  2
-010-BLKF027_10
  8
_0-2_0-10
 10
-74.680566408026606
 20
-208.18860273184441
 41
1.993127147766323
 42
1.993127147766323
 50
0
  0
LINE
  8
_0-2_0-10
  6
CONTINUOUS
 62
    4
 10
185.4534696744476
 20
168.00340743997679
 11
187.4895646572655
 21
172.41305376300098
  0
LINE
  8
_0-2_0-10
  6
CONTINUOUS
 62
    4
 10
185.4534696744476
 20
167.35611946746828
 11
187.4895646572655
 21
171.76576778361939
  0
LINE
  8
_0-2_0-10
  6
CONTINUOUS
 62
    4
 10
187.4895646572655
 20
172.41305376300098
 11
187.4895646572655
 21
171.76576778361939
  0
INSERT
  2
-011-BLKF028_11
  8
_0-2_0-10
 10
-74.680566408026606
 20
-208.18860273184441
 41
1.993127147766323
 42
1.993127147766323
 50
0
  0
LINE
  8
_0-2_0-10
  6
CONTINUOUS
 62
    4
 10
180.71611537891502
 20
172.35810922691828
 11
180.7627605335542
 21
172.41305376300098
  0
INSERT
  2
-012-BLKF029_12
  8
_0-2_0-10
 10
-74.680566408026606
 20
-208.18860273184441
 41
1.993127147766323
 42
1.993127147766323
 50
0
  0
INSERT
  2
-013-BLKF030_13
  8
_0-2_0-10
 10
-74.680566408026606
 20
-208.18860273184441
 41
1.993127147766323
 42
1.993127147766323
 50
0
  0
LINE
  8
_0-2_0-10
  6
CONTINUOUS
 62
    4
 10
186.97745455417282
 20
150.0250119073307
 11
190.7551938668875
 21
154.47490943310398
  0
LINE
  8
_0-2_0-10
  6
CONTINUOUS
 62
    4
 10
186.97745455417282
 20
149.3777259279492
 11
190.7551938668875
 21
153.82762345372248
  0
LINE
  8
_0-2_0-10
  6
CONTINUOUS
 62
    4
 10
190.7551938668875
 20
154.47490943310398
 11
190.7551938668875
 21
153.82762345372248
  0
INSERT
  2
-014-BLKF031_14
  8
_0-2_0-10
 10
-74.680566408026606
 20
-208.18860273184441
 41
1.993127147766323
 42
1.993127147766323
 50
0
  0
LINE
  8
_0-2_0-10
  6
CONTINUOUS
 62
    4
 10
183.8492873376779
 20
154.36818743997679
 11
184.0283897431762
 21
154.47490943310398
  0
INSERT
  2
-015-BLKF032_15
  8
_0-2_0-10
 10
-74.680566408026606
 20
-208.18860273184441
 41
1.993127147766323
 42
1.993127147766323
 50
0
  0
INSERT
  2
-016-BLKF033_16
  8
_0-2_0-10
 10
-74.680566408026606
 20
-208.18860273184441
 41
1.993127147766323
 42
1.993127147766323
 50
0
  0
LINE
  8
_0-2_0-10
  6
CONTINUOUS
 62
    4
 10
184.76115098028961
 20
132.26940414100769
 11
190.0942370283995
 21
136.5367651032071
  0
LINE
  8
_0-2_0-10
  6
CONTINUOUS
 62
    4
 10
184.76115098028961
 20
131.62211816162619
 11
190.0942370283995
 21
135.88947912382548
  0
LINE
  8
_0-2_0-10
  6
CONTINUOUS
 62
    4
 10
190.0942370283995
 20
136.5367651032071
 11
190.0942370283995
 21
135.88947912382548
  0
INSERT
  2
-017-BLKF034_17
  8
_0-2_0-10
 10
-74.680566408026606
 20
-208.18860273184441
 41
1.993127147766323
 42
1.993127147766323
 50
0
  0
LINE
  8
_0-2_0-10
  6
CONTINUOUS
 62
    4
 10
182.9768357912861
 20
136.37289018911769
 11
183.3674329046882
 21
136.5367651032071
  0
INSERT
  2
-018-BLKF035_18
  8
_0-2_0-10
 10
-74.680566408026606
 20
-208.18860273184441
 41
1.993127147766323
 42
1.993127147766323
 50
0
  0
INSERT
  2
-019-BLKF036_19
  8
_0-2_0-10
 10
-74.680566408026606
 20
-208.18860273184441
 41
1.993127147766323
 42
1.993127147766323
 50
0
  0
LINE
  8
_0-2_0-10
  6
CONTINUOUS
 62
    4
 10
176.49523214867451
 20
114.15400902073278
 11
185.07945537891501
 21
118.59862077331018
  0
LINE
  8
_0-2_0-10
  6
CONTINUOUS
 62
    4
 10
176.49523214867451
 20
113.5067230413513
 11
185.07945537891501
 21
117.95133479392859
  0
LINE
  8
_0-2_0-10
  6
CONTINUOUS
 62
    4
 10
185.07945537891501
 20
118.59862077331018
 11
185.07945537891501
 21
117.95133479392859
  0
INSERT
  2
-020-BLKF037_20
  8
_0-2_0-10
 10
-74.680566408026606
 20
-208.18860273184441
 41
1.993127147766323
 42
1.993127147766323
 50
0
  0
LINE
  8
_0-2_0-10
  6
CONTINUOUS
 62
    4
 10
177.86434706276381
 20
118.42766427846478
 11
178.35265125520362
 21
118.59862077331018
  0
INSERT
  2
-021-BLKF038_21
  8
_0-2_0-10
 10
-74.680566408026606
 20
-208.18860273184441
 41
1.993127147766323
 42
1.993127147766323
 50
0
  0
INSERT
  2
-022-BLKF039_22
  8
_0-2_0-10
 10
-74.680566408026606
 20
-208.18860273184441
 41
1.993127147766323
 42
1.993127147766323
 50
0
  0
LINE
  8
_0-2_0-10
  6
CONTINUOUS
 62
    4
 10
164.26533421053011
 20
97.128202697708786
 11
174.7389582655129
 21
100.6604764434131
  0
LINE
  8
_0-2_0-10
  6
CONTINUOUS
 62
    4
 10
164.26533421053011
 20
96.480916718327392
 11
174.7389582655129
 21
100.0131904640317
  0
LINE
  8
_0-2_0-10
  6
CONTINUOUS
 62
    4
 10
174.7389582655129
 20
100.6604764434131
 11
174.7389582655129
 21
100.0131904640317
  0
INSERT
  2
-023-BLKF040_23
  8
_0-2_0-10
 10
-74.680566408026606
 20
-208.18860273184441
 41
1.993127147766323
 42
1.993127147766323
 50
0
  0
LINE
  8
_0-2_0-10
  6
CONTINUOUS
 62
    4
 10
167.47034046482571
 20
100.49119616849918
 11
168.0121541418016
 21
100.6604764434131
  0
ARC
  8
_0-2_0-10
  6
CONTINUOUS
 62
    4
 10
112.1317412208393
 20
148.49552798980508
 40
79.226804123711346
 50
303.88187499999787
 51
304.43955700000384
  0
INSERT
  2
-024-BLKF041_24
  8
_0-2_0-10
 10
-74.680566408026606
 20
-208.18860273184441
 41
1.993127147766323
 42
1.993127147766323
 50
0
  0
INSERT
  2
-025-BLKF042_25
  8
_0-2_0-10
 10
-74.680566408026606
 20
-208.18860273184441
 41
1.993127147766323
 42
1.993127147766323
 50
0
  0
LINE
  8
_0-2_0-10
  6
CONTINUOUS
 62
    4
 10
156.29929730331372
 20
82.075048127261993
 11
156.29929730331372
 21
82.722332113516188
  0
INSERT
  2
-026-BLKF043_26
  8
_0-2_0-10
 10
-74.680566408026606
 20
-208.18860273184441
 41
1.993127147766323
 42
1.993127147766323
 50
0
  0
LINE
  8
_0-2_0-10
  6
CONTINUOUS
 62
    4
 10
148.66042025864001
 20
82.499909089461297
 11
149.5724951727293
 21
82.722332113516188
  0
ARC
  8
_0-2_0-10
  6
CONTINUOUS
 62
    4
 10
112.1317412208393
 20
148.49552798980508
 40
90.886597938144333
 50
262.15180955009088
 51
58.112391695611847
  0
INSERT
  2
-027-BLKF044_27
  8
_0-2_0-10
 10
-74.680566408026606
 20
-208.18860273184441
 41
1.993127147766323
 42
1.993127147766323
 50
0
  0
LINE
  8
_0-2_0-10
  6
CONTINUOUS
 62
    7
 10
150.335158048163
 20
222.14001559030967
 11
150.24570391984261
 21
221.98507649917578
  0
LINE
  8
_0-2_0-10
  6
CONTINUOUS
 62
    7
 10
146.86538403870881
 20
223.60441781798377
 11
146.5204932695052
 21
223.00704948645787
  0
LINE
  8
_0-2_0-10
  6
CONTINUOUS
 62
    7
 10
142.7576267191211
 20
223.9637985739973
 11
142.71687011523641
 21
223.8932060711111
  0
LINE
  8
_0-2_0-10
  6
CONTINUOUS
 62
    7
 10
165.661525756922
 20
218.789156168499
 11
165.58124028528382
 21
218.650097649125
  0
LINE
  8
_0-2_0-10
  6
CONTINUOUS
 62
    7
 10
164.34622696563121
 20
209.0367651032071
 11
163.86935146109081
 21
208.21079250550459
  0
LINE
  8
_0-2_0-10
  6
CONTINUOUS
 62
    7
 10
106.14820941155912
 20
93.286386340320404
 11
105.95858596310731
 21
92.957948883275804
  0
LINE
  8
_0-2_0-10
  6
CONTINUOUS
 62
    7
 10
162.5439117658347
 20
76.127540210213794
 11
162.7025491246195
 21
75.852772250973401
  0
LINE
  8
_0-2_0-10
  6
CONTINUOUS
 62
    7
 10
127.01380974317621
 20
189.98706970801819
 11
127.019342464987
 21
189.9774867526917
  0
LINE
  8
_0-2_0-10
  6
CONTINUOUS
 62
    7
 10
146.41952548200771
 20
223.64342530939248
 11
146.8296430569554
 21
222.93308083469847
  0
ARC
  8
_0-2_0-10
  6
CONTINUOUS
 62
    7
 10
112.1317412208393
 20
148.49552798980508
 40
88.195876288659803
 50
261.9194565566338
 51
61.795693811064637
  0
LINE
  8
_0-2_0-10
  6
CONTINUOUS
 62
    4
 10
149.4149424579528
 20
222.31450977674657
 11
143.18035902152661
 21
223.80622592794927
  0
LINE
  8
_0-2_0-10
  6
CONTINUOUS
 62
    4
 10
143.18035902152661
 20
223.80622592794927
 11
131.98171927433972
 21
225.90780651643277
  0
ARC
  8
_0-2_0-10
  6
CONTINUOUS
 62
    4
 10
182.38311111774672
 20
189.454290876403
 40
1.6443298969072159
 50
30.243533000007452
 51
90.000000000006508
  0
LINE
  8
_0-2_0-10
  6
CONTINUOUS
 62
    4
 10
182.38311111774672
 20
191.09862077331018
 11
179.58145400434452
 21
191.09862077331018
  0
LINE
  8
_0-2_0-10
  6
CONTINUOUS
 62
    4
 10
180.7627605335542
 20
172.41305376300098
 11
182.21040409883499
 21
175.82348703374228
  0
ARC
  8
_0-2_0-10
  6
CONTINUOUS
 62
    4
 10
184.96242891843391
 20
174.65532180423809
 40
2.9896907216494841
 50
89.999999999993505
 51
156.99999999999531
  0
LINE
  8
_0-2_0-10
  6
CONTINUOUS
 62
    4
 10
184.96242891843391
 20
177.6450125258876
 11
188.28087001809021
 21
177.6450125258876
  0
ARC
  8
_0-2_0-10
  6
CONTINUOUS
 62
    4
 10
188.28089454707361
 20
178.6913888104288
 40
1.046376284830377
 50
269.99865688161617
 51
21.631330194684814
  0
ARC
  8
_0-2_0-10
  6
CONTINUOUS
 62
    4
 10
112.1317412208393
 20
148.49552798980508
 40
82.963917525773183
 50
21.630110999999445
 51
30.243532999998741
  0
ARC
  8
_0-2_0-10
  6
CONTINUOUS
 62
    4
 10
110.42418394294782
 20
148.49552705126538
 40
84.667833923230844
 50
356.29570313359101
 51
3.7042983683277475
  0
ARC
  8
_0-2_0-10
  6
CONTINUOUS
 62
    4
 10
193.5726943479872
 20
153.876971288774
 40
1.3453608247422679
 50
3.7804860000062321
 51
90.000000000006494
  0
LINE
  8
_0-2_0-10
  6
CONTINUOUS
 62
    4
 10
193.5726943479872
 20
155.22233211351638
 11
191.66610678784971
 21
155.22233211351638
  0
ARC
  8
_0-2_0-10
  6
CONTINUOUS
 62
    4
 10
111.18609719525491
 20
148.70734200685268
 40
83.930777361991943
 50
343.52176565353448
 51
351.22744482619719
  0
ARC
  8
_0-2_0-10
  6
CONTINUOUS
 62
    4
 10
192.95298527582221
 20
136.08831149495958
 40
1.1958762886597928
 50
351.27241299999849
 51
89.999999999993477
  0
LINE
  8
_0-2_0-10
  6
CONTINUOUS
 62
    4
 10
192.95298527582221
 20
137.2841877836195
 11
191.14130245795291
 21
137.2841877836195
  0
LINE
  8
_0-2_0-10
  6
CONTINUOUS
 62
    4
 10
112.1241901262426
 20
75.348077167248291
 11
105.22666981190471
 21
75.498982216609192
  0
LINE
  8
_0-2_0-10
  6
CONTINUOUS
 62
    4
 10
105.22666981190471
 20
75.498982216609192
 11
99.805869168786699
 21
75.855813398065393
  0
LINE
  8
_0-2_0-10
  6
CONTINUOUS
 62
    4
 10
112.1317412208393
 20
75.995527989804898
 11
105.22666981190471
 21
76.1462701891177
  0
LINE
  8
_0-2_0-10
  6
CONTINUOUS
 62
    4
 10
105.22666981190471
 20
76.1462701891177
 11
99.809015597210105
 21
76.5028933698662
  0
LINE
  8
_0-2_0-10
  6
CONTINUOUS
 62
    3
 10
-43.757690207107032
 20
148.49552798980508
 11
-41.257690207107032
 21
148.49552798980508
  0
LINE
  8
_0-2_0-10
  6
CONTINUOUS
 62
    3
 10
463.74230979289319
 20
148.49552798980508
 11
461.24230979289308
 21
148.49552798980508
  0
ARC
  8
_0-2_0-10
  6
CONTINUOUS
 62
    4
 10
393.13118814736958
 20
148.49552798980508
 40
45.299999999999997
 50
303.49583592537669
 51
351.75027576908792
  0
ARC
  8
_0-2_0-10
  6
CONTINUOUS
 62
    4
 10
393.13118814736958
 20
148.49552798980508
 40
45.299999999999997
 50
303.49583592537669
 51
351.75027600000009
  0
ARC
  8
_0-2_0-10
  6
CONTINUOUS
 62
    4
 10
393.13118814736958
 20
148.49552798980508
 40
45.299999999999997
 50
8.2497242309121752
 51
56.504164074623332
  0
LINE
  8
_0-2_0-10
  6
CONTINUOUS
 62
    3
 10
209.99230979289313
 20
323.49552798980505
 11
209.99230979289313
 21
325.99552798980505
  0
LINE
  8
_0-2_0-10
  6
CONTINUOUS
 62
    4
 10
363.83118814736963
 20
43.746553323138414
 11
346.33118814736968
 21
26.246553323138442
  0
LINE
  8
_0-2_0-10
  6
CONTINUOUS
 62
    4
 10
358.83118814736968
 20
245.99552798980479
 11
358.83118814736968
 21
236.29552798980486
  0
LINE
  8
_0-2_0-10
  6
CONTINUOUS
 62
    4
 10
359.33118814736963
 20
246.49552798980479
 11
364.33118814736963
 21
246.49552798980479
  0
LINE
  8
_0-2_0-10
  6
CONTINUOUS
 62
    4
 10
359.33118814736963
 20
245.99552798980479
 11
364.33118814736963
 21
245.99552798980479
  0
ARC
  8
_0-2_0-10
  6
CONTINUOUS
 62
    4
 10
359.33118814736963
 20
245.99552798980479
 40
0.5
 50
90
 51
180
  0
LINE
  8
_0-2_0-10
  6
CONTINUOUS
 62
    4
 10
363.83118814736963
 20
46.155782656471728
 11
359.2017774807029
 21
47.396229323138413
  0
LINE
  8
_0-2_0-10
  6
CONTINUOUS
 62
    4
 10
363.96059748070302
 20
46.638745323138323
 11
359.33118814736963
 21
47.879191989805008
  0
LINE
  8
_0-2_0-10
  6
CONTINUOUS
 62
    4
 10
364.18474148070293
 20
43.392998656471718
 11
346.68474148070299
 21
25.892998656471732
  0
ARC
  8
_0-2_0-10
  6
CONTINUOUS
 62
    4
 10
359.33118814736963
 20
47.879191989805008
 40
0.5
 50
180
 51
254.9999999999988
  0
LINE
  8
_0-2_0-10
  6
CONTINUOUS
 62
    4
 10
354.7162028140363
 20
40.995527989804941
 11
352.54246414736962
 21
38.821790656471648
  0
ARC
  8
_0-2_0-10
  6
CONTINUOUS
 62
    4
 10
354.66378414736959
 20
36.700469323138349
 40
3
 50
135.00000000000034
 51
224.99999999999968
  0
LINE
  8
_0-2_0-10
  6
CONTINUOUS
 62
    4
 10
352.54246414736962
 20
34.579149323138381
 11
353.60312414736949
 21
33.518489323138268
  0
LINE
  8
_0-2_0-10
  6
CONTINUOUS
 62
    4
 10
358.13118814736958
 20
235.79552798980486
 11
358.13118814736958
 21
63.695527989809761
  0
LINE
  8
_0-2_0-10
  6
CONTINUOUS
 62
    4
 10
357.63118814736958
 20
63.695527989809761
 11
357.63118814736958
 21
79.934365323143097
  0
LINE
  8
_0-2_0-10
  6
CONTINUOUS
 62
    4
 10
364.33118814736963
 20
43.746553323138414
 11
364.33118814736963
 21
46.155782656471728
  0
LINE
  8
_0-2_0-10
  6
CONTINUOUS
 62
    4
 10
363.83118814736963
 20
43.746553323138414
 11
363.83118814736963
 21
46.155782656471728
  0
ARC
  8
_0-2_0-10
  6
CONTINUOUS
 62
    4
 10
363.83118814736963
 20
46.155782656471728
 40
0.5
 50
0
 51
74.999999999998834
  0
ARC
  8
_0-2_0-10
  6
CONTINUOUS
 62
    4
 10
363.83118814736963
 20
43.746553323138414
 40
0.5
 50
315.00000000000022
 51
359.99999999999994
  0
LINE
  8
_0-2_0-10
  6
CONTINUOUS
 62
    4
 10
346.68474148070299
 20
25.892998656471732
 11
346.33118814736968
 21
26.246553323138442
  0
LINE
  8
_0-2_0-10
  6
CONTINUOUS
 62
    4
 10
364.33118814736963
 20
246.49552798980479
 11
364.33118814736963
 21
245.99552798980479
  0
ARC
  8
_0-2_0-10
  6
CONTINUOUS
 62
    4
 10
357.63118814736958
 20
80.495527989809701
 40
0.5
 50
297.00000000000181
 51
0.0000000000000127
  0
LINE
  8
_0-2_0-10
  6
CONTINUOUS
 62
    4
 10
357.63118814736958
 20
233.5955279898047
 11
358.13118814736958
 21
233.5955279898047
  0
LINE
  8
_0-2_0-10
  6
CONTINUOUS
 62
    4
 10
358.83118814736968
 20
242.89552798980477
 11
359.33118814736963
 21
242.89552798980477
  0
LINE
  8
_0-2_0-10
  6
CONTINUOUS
 62
    4
 10
359.33118814736963
 20
245.99552798980479
 11
359.33118814736963
 21
223.47565998980522
  0
LINE
  8
_0-2_0-10
  6
CONTINUOUS
 62
    4
 10
358.83118814736968
 20
63.195527989809761
 11
358.83118814736968
 21
47.879191989805008
  0
LINE
  8
_0-2_0-10
  6
CONTINUOUS
 62
    4
 10
357.63118814736958
 20
188.49552798980508
 11
357.63118814736958
 21
199.93436569627098
  0
LINE
  8
_0-2_0-10
  6
CONTINUOUS
 62
    4
 10
357.63118814736958
 20
80.495527989809701
 11
357.63118814736958
 21
97.793121755029602
  0
LINE
  8
_0-2_0-10
  6
CONTINUOUS
 62
    4
 10
357.63118814736958
 20
98.354284048563584
 11
357.63118814736958
 21
115.7312660849266
  0
LINE
  8
_0-2_0-10
  6
CONTINUOUS
 62
    4
 10
357.63118814736958
 20
116.29242837846049
 11
357.63118814736958
 21
133.66941041482348
  0
LINE
  8
_0-2_0-10
  6
CONTINUOUS
 62
    4
 10
357.63118814736958
 20
134.23057270835749
 11
357.63118814736958
 21
151.6075547447204
  0
LINE
  8
_0-2_0-10
  6
CONTINUOUS
 62
    4
 10
357.63118814736958
 20
152.1687170382543
 11
357.63118814736958
 21
169.54569907461728
  0
LINE
  8
_0-2_0-10
  6
CONTINUOUS
 62
    4
 10
357.63118814736958
 20
170.10686136815129
 11
357.63118814736958
 21
187.4838434045142
  0
LINE
  8
_0-2_0-10
  6
CONTINUOUS
 62
    4
 10
357.63118814736952
 20
188.0450056980481
 11
357.63118814736958
 21
205.42198773441128
  0
LINE
  8
_0-2_0-10
  6
CONTINUOUS
 62
    4
 10
357.63118814736958
 20
205.98315002794529
 11
357.63118814736958
 21
223.36013206430831
  0
LINE
  8
_0-2_0-10
  6
CONTINUOUS
 62
    4
 10
357.63118814736958
 20
223.92129435784218
 11
357.63118814736958
 21
235.79552798980486
  0
LINE
  8
_0-2_0-10
  6
CONTINUOUS
 62
    4
 10
357.63118814736958
 20
68.995527989809701
 11
358.13118814736958
 21
68.995527989809701
  0
LINE
  8
_0-2_0-10
  6
CONTINUOUS
 62
    4
 10
358.13118814736958
 20
235.79552798980486
 11
358.83118814736968
 21
235.79552798980486
  0
LINE
  8
_0-2_0-10
  6
CONTINUOUS
 62
    4
 10
358.13118814736958
 20
236.29552798980486
 11
358.83118814736968
 21
236.29552798980486
  0
ARC
  8
_0-2_0-10
  6
CONTINUOUS
 62
    4
 10
358.13118814736958
 20
235.79552798980486
 40
0.5
 50
90
 51
180
  0
ARC
  8
_0-2_0-10
  6
CONTINUOUS
 62
    4
 10
358.83118814736968
 20
236.29552798980486
 40
0.5
 50
270
 51
0
  0
LINE
  8
_0-2_0-10
  6
CONTINUOUS
 62
    4
 10
358.13118814736958
 20
63.695527989809761
 11
358.83118814736968
 21
63.695527989809761
  0
LINE
  8
_0-2_0-10
  6
CONTINUOUS
 62
    4
 10
358.13118814736958
 20
63.195527989809761
 11
358.83118814736968
 21
63.195527989809761
  0
ARC
  8
_0-2_0-10
  6
CONTINUOUS
 62
    4
 10
358.13118814736958
 20
63.695527989809761
 40
0.5
 50
180
 51
270
  0
ARC
  8
_0-2_0-10
  6
CONTINUOUS
 62
    4
 10
358.83118814736968
 20
63.195527989809761
 40
0.5
 50
0
 51
90
  0
LINE
  8
_0-2_0-10
  6
CONTINUOUS
 62
    4
 10
359.33118814736963
 20
73.515397323141797
 11
359.33118814736963
 21
47.879191989805008
  0
LINE
  8
_0-2_0-10
  6
CONTINUOUS
 62
    4
 10
349.87380814736962
 20
75.95637065647169
 11
350.1461281473696
 21
75.537035989804991
  0
LINE
  8
_0-2_0-10
  6
CONTINUOUS
 62
    4
 10
357.63118814736958
 20
80.495527989804998
 11
354.0671614807029
 21
78.679566656471791
  0
LINE
  8
_0-2_0-10
  6
CONTINUOUS
 62
    4
 10
357.85818281403624
 20
80.050025323138399
 11
354.29415748070289
 21
78.234062656471692
  0
LINE
  8
_0-2_0-10
  6
CONTINUOUS
 62
    4
 10
354.0671614807029
 20
78.679566656471791
 11
349.87380814736962
 21
75.95637065647169
  0
LINE
  8
_0-2_0-10
  6
CONTINUOUS
 62
    4
 10
354.339481480703
 20
78.260230656471691
 11
350.1461281473696
 21
75.537035989804991
  0
LINE
  8
_0-2_0-10
  6
CONTINUOUS
 62
    4
 10
357.1405348140363
 20
80.245527989804998
 11
357.36753081403622
 21
79.800025323138399
  0
ARC
  8
_0-2_0-10
  6
CONTINUOUS
 62
    4
 10
357.63118814736958
 20
80.495527989804998
 40
0.5
 50
297.00000000000181
 51
0.0000000000000127
  0
ARC
  8
_0-2_0-10
  6
CONTINUOUS
 62
    4
 10
357.63118814736958
 20
98.354284048568302
 40
0.5
 50
297.00000000000181
 51
0.0000000000000127
  0
LINE
  8
_0-2_0-10
  6
CONTINUOUS
 62
    4
 10
349.87380814736962
 20
93.815126715230292
 11
350.1461281473696
 21
93.395792048563606
  0
LINE
  8
_0-2_0-10
  6
CONTINUOUS
 62
    4
 10
357.63118814736958
 20
98.354284048563584
 11
354.0671614807029
 21
96.538322715230293
  0
LINE
  8
_0-2_0-10
  6
CONTINUOUS
 62
    4
 10
357.85818281403624
 20
97.908781381897
 11
354.29415748070289
 21
96.092818715230293
  0
LINE
  8
_0-2_0-10
  6
CONTINUOUS
 62
    4
 10
354.0671614807029
 20
96.538322715230293
 11
349.87380814736962
 21
93.815126715230292
  0
LINE
  8
_0-2_0-10
  6
CONTINUOUS
 62
    4
 10
354.339481480703
 20
96.118986715230306
 11
350.1461281473696
 21
93.395792048563606
  0
LINE
  8
_0-2_0-10
  6
CONTINUOUS
 62
    4
 10
357.1405348140363
 20
98.104284048563584
 11
357.36753081403622
 21
97.658781381897
  0
ARC
  8
_0-2_0-10
  6
CONTINUOUS
 62
    4
 10
357.63118814736958
 20
98.354284048563584
 40
0.5
 50
297.00000000000181
 51
0.0000000000000127
  0
ARC
  8
_0-2_0-10
  6
CONTINUOUS
 62
    4
 10
357.63118814736958
 20
116.29242837846518
 40
0.5
 50
297.00000000000181
 51
0.0000000000000127
  0
LINE
  8
_0-2_0-10
  6
CONTINUOUS
 62
    4
 10
349.87380814736962
 20
111.7532710451272
 11
350.1461281473696
 21
111.33393637846049
  0
LINE
  8
_0-2_0-10
  6
CONTINUOUS
 62
    4
 10
357.63118814736958
 20
116.29242837846049
 11
354.0671614807029
 21
114.47646704512729
  0
LINE
  8
_0-2_0-10
  6
CONTINUOUS
 62
    4
 10
357.85818281403624
 20
115.84692571179388
 11
354.29415748070289
 21
114.03096304512729
  0
LINE
  8
_0-2_0-10
  6
CONTINUOUS
 62
    4
 10
354.0671614807029
 20
114.47646704512729
 11
349.87380814736962
 21
111.7532710451272
  0
LINE
  8
_0-2_0-10
  6
CONTINUOUS
 62
    4
 10
354.339481480703
 20
114.05713104512719
 11
350.1461281473696
 21
111.33393637846049
  0
LINE
  8
_0-2_0-10
  6
CONTINUOUS
 62
    4
 10
357.1405348140363
 20
116.04242837846049
 11
357.36753081403622
 21
115.59692571179388
  0
ARC
  8
_0-2_0-10
  6
CONTINUOUS
 62
    4
 10
357.63118814736958
 20
116.29242837846049
 40
0.5
 50
297.00000000000181
 51
0.0000000000000127
  0
ARC
  8
_0-2_0-10
  6
CONTINUOUS
 62
    4
 10
357.63118814736958
 20
134.2305727083621
 40
0.5
 50
297.00000000000181
 51
0.0000000000000127
  0
LINE
  8
_0-2_0-10
  6
CONTINUOUS
 62
    4
 10
349.87380814736962
 20
129.69141537502409
 11
350.1461281473696
 21
129.2720807083574
  0
LINE
  8
_0-2_0-10
  6
CONTINUOUS
 62
    4
 10
357.63118814736958
 20
134.23057270835738
 11
354.0671614807029
 21
132.4146113750242
  0
LINE
  8
_0-2_0-10
  6
CONTINUOUS
 62
    4
 10
357.85818281403624
 20
133.7850700416908
 11
354.29415748070289
 21
131.96910737502409
  0
LINE
  8
_0-2_0-10
  6
CONTINUOUS
 62
    4
 10
354.0671614807029
 20
132.4146113750242
 11
349.87380814736962
 21
129.69141537502409
  0
LINE
  8
_0-2_0-10
  6
CONTINUOUS
 62
    4
 10
354.339481480703
 20
131.9952753750241
 11
350.1461281473696
 21
129.2720807083574
  0
LINE
  8
_0-2_0-10
  6
CONTINUOUS
 62
    4
 10
357.1405348140363
 20
133.98057270835738
 11
357.36753081403622
 21
133.5350700416908
  0
ARC
  8
_0-2_0-10
  6
CONTINUOUS
 62
    4
 10
357.63118814736958
 20
134.23057270835738
 40
0.5
 50
297.00000000000181
 51
0.0000000000000127
  0
ARC
  8
_0-2_0-10
  6
CONTINUOUS
 62
    4
 10
357.63118814736958
 20
152.16871703825898
 40
0.5
 50
297.00000000000181
 51
0.0000000000000127
  0
LINE
  8
_0-2_0-10
  6
CONTINUOUS
 62
    4
 10
349.87380814736962
 20
147.629559704921
 11
350.1461281473696
 21
147.21022503825429
  0
LINE
  8
_0-2_0-10
  6
CONTINUOUS
 62
    4
 10
357.63118814736958
 20
152.1687170382543
 11
354.0671614807029
 21
150.35275570492109
  0
LINE
  8
_0-2_0-10
  6
CONTINUOUS
 62
    4
 10
357.85818281403624
 20
151.72321437158768
 11
354.29415748070289
 21
149.90725170492109
  0
LINE
  8
_0-2_0-10
  6
CONTINUOUS
 62
    4
 10
354.0671614807029
 20
150.35275570492109
 11
349.87380814736962
 21
147.629559704921
  0
LINE
  8
_0-2_0-10
  6
CONTINUOUS
 62
    4
 10
354.339481480703
 20
149.93341970492099
 11
350.1461281473696
 21
147.21022503825429
  0
LINE
  8
_0-2_0-10
  6
CONTINUOUS
 62
    4
 10
357.1405348140363
 20
151.9187170382543
 11
357.36753081403622
 21
151.47321437158768
  0
ARC
  8
_0-2_0-10
  6
CONTINUOUS
 62
    4
 10
357.63118814736958
 20
152.1687170382543
 40
0.5
 50
297.00000000000181
 51
0.0000000000000127
  0
ARC
  8
_0-2_0-10
  6
CONTINUOUS
 62
    4
 10
357.63118814736958
 20
170.1068613681559
 40
0.5
 50
297.00000000000181
 51
0.0000000000000127
  0
LINE
  8
_0-2_0-10
  6
CONTINUOUS
 62
    4
 10
349.87380814736962
 20
165.56770403481789
 11
350.1461281473696
 21
165.1483693681512
  0
LINE
  8
_0-2_0-10
  6
CONTINUOUS
 62
    4
 10
357.63118814736958
 20
170.10686136815118
 11
354.0671614807029
 21
168.290900034818
  0
LINE
  8
_0-2_0-10
  6
CONTINUOUS
 62
    4
 10
357.85818281403624
 20
169.6613587014846
 11
354.29415748070289
 21
167.845396034818
  0
LINE
  8
_0-2_0-10
  6
CONTINUOUS
 62
    4
 10
354.0671614807029
 20
168.290900034818
 11
349.87380814736962
 21
165.56770403481789
  0
LINE
  8
_0-2_0-10
  6
CONTINUOUS
 62
    4
 10
354.339481480703
 20
167.87156403481799
 11
350.1461281473696
 21
165.1483693681512
  0
LINE
  8
_0-2_0-10
  6
CONTINUOUS
 62
    4
 10
357.1405348140363
 20
169.85686136815118
 11
357.36753081403622
 21
169.4113587014846
  0
ARC
  8
_0-2_0-10
  6
CONTINUOUS
 62
    4
 10
357.63118814736958
 20
170.10686136815118
 40
0.5
 50
297.00000000000181
 51
0.0000000000000127
  0
ARC
  8
_0-2_0-10
  6
CONTINUOUS
 62
    4
 10
357.63118814736958
 20
188.04500569805279
 40
0.5
 50
297.00000000000181
 51
0.0000000000000127
  0
LINE
  8
_0-2_0-10
  6
CONTINUOUS
 62
    4
 10
349.87380814736962
 20
183.5058483647148
 11
350.1461281473696
 21
183.08651369804809
  0
LINE
  8
_0-2_0-10
  6
CONTINUOUS
 62
    4
 10
357.63118814736958
 20
188.0450056980481
 11
354.0671614807029
 21
186.22904436471489
  0
LINE
  8
_0-2_0-10
  6
CONTINUOUS
 62
    4
 10
357.85818281403624
 20
187.59950303138148
 11
354.29415748070289
 21
185.78354036471478
  0
LINE
  8
_0-2_0-10
  6
CONTINUOUS
 62
    4
 10
354.0671614807029
 20
186.22904436471489
 11
349.87380814736962
 21
183.5058483647148
  0
LINE
  8
_0-2_0-10
  6
CONTINUOUS
 62
    4
 10
354.339481480703
 20
185.80970836471479
 11
350.1461281473696
 21
183.08651369804809
  0
LINE
  8
_0-2_0-10
  6
CONTINUOUS
 62
    4
 10
357.1405348140363
 20
187.7950056980481
 11
357.36753081403622
 21
187.34950303138148
  0
ARC
  8
_0-2_0-10
  6
CONTINUOUS
 62
    4
 10
357.63118814736958
 20
188.0450056980481
 40
0.5
 50
297.00000000000181
 51
0.0000000000000127
  0
ARC
  8
_0-2_0-10
  6
CONTINUOUS
 62
    4
 10
357.63118814736958
 20
205.9831500279499
 40
0.5
 50
297.00000000000181
 51
0.0000000000000127
  0
LINE
  8
_0-2_0-10
  6
CONTINUOUS
 62
    4
 10
349.87380814736962
 20
201.44399269461189
 11
350.1461281473696
 21
201.0246580279452
  0
LINE
  8
_0-2_0-10
  6
CONTINUOUS
 62
    4
 10
357.63118814736958
 20
205.98315002794518
 11
354.0671614807029
 21
204.167188694612
  0
LINE
  8
_0-2_0-10
  6
CONTINUOUS
 62
    4
 10
357.85818281403624
 20
205.5376473612786
 11
354.29415748070289
 21
203.721684694612
  0
LINE
  8
_0-2_0-10
  6
CONTINUOUS
 62
    4
 10
354.0671614807029
 20
204.167188694612
 11
349.87380814736962
 21
201.44399269461189
  0
LINE
  8
_0-2_0-10
  6
CONTINUOUS
 62
    4
 10
354.339481480703
 20
203.7478526946119
 11
350.1461281473696
 21
201.0246580279452
  0
LINE
  8
_0-2_0-10
  6
CONTINUOUS
 62
    4
 10
357.1405348140363
 20
205.73315002794518
 11
357.36753081403622
 21
205.2876473612786
  0
ARC
  8
_0-2_0-10
  6
CONTINUOUS
 62
    4
 10
357.63118814736958
 20
205.98315002794518
 40
0.5
 50
297.00000000000181
 51
0.0000000000000127
  0
ARC
  8
_0-2_0-10
  6
CONTINUOUS
 62
    4
 10
357.63118814736958
 20
223.9212943578469
 40
0.5
 50
297.00000000000181
 51
0.0000000000000127
  0
LINE
  8
_0-2_0-10
  6
CONTINUOUS
 62
    4
 10
349.87380814736962
 20
219.38213702450889
 11
350.1461281473696
 21
218.9628023578422
  0
LINE
  8
_0-2_0-10
  6
CONTINUOUS
 62
    4
 10
357.63118814736958
 20
223.92129435784218
 11
354.0671614807029
 21
222.105333024509
  0
LINE
  8
_0-2_0-10
  6
CONTINUOUS
 62
    4
 10
357.85818281403624
 20
223.4757916911756
 11
354.29415748070289
 21
221.65982902450892
  0
LINE
  8
_0-2_0-10
  6
CONTINUOUS
 62
    4
 10
354.0671614807029
 20
222.105333024509
 11
349.87380814736962
 21
219.38213702450889
  0
LINE
  8
_0-2_0-10
  6
CONTINUOUS
 62
    4
 10
354.339481480703
 20
221.6859970245089
 11
350.1461281473696
 21
218.9628023578422
  0
LINE
  8
_0-2_0-10
  6
CONTINUOUS
 62
    4
 10
357.1405348140363
 20
223.67129435784218
 11
357.36753081403622
 21
223.2257916911756
  0
ARC
  8
_0-2_0-10
  6
CONTINUOUS
 62
    4
 10
357.63118814736958
 20
223.92129435784218
 40
0.5
 50
297.00000000000181
 51
0.0000000000000127
  0
TEXT
  8
_0-1_0-00
 62
    7
 10
-34.572688984745752
 20
-19.47697114581112
 40
4.3874999999999992
 41
1
 50
0
  1
型番：VC150JKP-FD□　　※)□はカラーを示します。
  0
TEXT
  8
_0-1_0-00
 62
    7
 10
384.22635900339741
 20
-26.048697621744054
 40
4.875
 41
1
 50
0
  1
耐外風フード付換気口(FD付)
  0
ENDSEC
  0
EOF
