  0
SECTION
  2
HEADER
  9
$ACADVER
  1
AC1009
  9
$INSBASE
 10
0
 20
0
 30
0
  9
$EXTMIN
 10
0
 20
0
  9
$EXTMAX
 10
420
 20
297
  9
$LIMMIN
 10
0
 20
0
  9
$LIMMAX
 10
420
 20
297
  9
$LTSCALE
 40
1
  0
ENDSEC
  0
SECTION
  2
TABLES
  0
TABLE
  2
LTYPE
 70
     9
  0
LTYPE
  2
CONTINUOUS
 70
    64
  3
実線
 72
    65
 73
     0
 40
0.0
  0
LTYPE
  2
DASHED1
 70
    64
  3
--  --  --  --  --  --  --  --  
 72
    65
 73
     2
 40
2.5
 49
1.25
 49
-1.25
  0
LTYPE
  2
DASHED2
 70
    64
  3
----    ----    ----    ----    
 72
    65
 73
     2
 40
5.0
 49
2.5
 49
-2.5
  0
LTYPE
  2
DASHED3
 70
    64
  3
------  ------  ------  ------  
 72
    65
 73
     2
 40
5.0
 49
3.75
 49
-1.25
  0
LTYPE
  2
CENTER1
 70
    64
  3
----- - ----- - ----- - ----- - 
 72
    65
 73
     4
 40
10.0
 49
6.25
 49
-1.25
 49
1.25
 49
-1.25
  0
LTYPE
  2
CENTER2
 70
    64
  3
----------  --  ----------  --  
 72
    65
 73
     4
 40
20.0
 49
12.5
 49
-2.5
 49
2.5
 49
-2.5
  0
LTYPE
  2
PHANTOM1
 70
    64
  3
--- - - --- - - --- - - --- - - 
 72
    65
 73
     6
 40
10.0
 49
3.25
 49
-1.25
 49
1.25
 49
-1.25
 49
1.25
 49
-1.25
  0
LTYPE
  2
PHANTOM2
 70
    64
  3
--------  -  -  --------  -  -  
 72
    65
 73
     6
 40
20.0
 49
10.0
 49
-2.5
 49
1.25
 49
-2.5
 49
1.25
 49
-2.5
  0
LTYPE
  2
DOT
 70
    64
  3
-   -   -   -   -   -   -   -   
 72
    65
 73
     2
 40
2.5
 49
0.625
 49
-1.875
  0
LTYPE
  2
DUMMY
 70
    64
  3
ダミー
 72
    65
 73
     0
 40
0.0
  0
LTYPE
  2
RAND1
 70
    64
  3
ランダム線1
 72
    65
 73
     4
 40
10.0
 49
1.0
 49
-2.0
 49
3.0
 49
-4.0
  0
LTYPE
  2
RAND2
 70
    64
  3
ランダム線2
 72
    65
 73
     4
 40
14.0
 49
2.0
 49
-3.0
 49
4.0
 49
-5.0
  0
LTYPE
  2
RAND3
 70
    64
  3
ランダム線3
 72
    65
 73
     4
 40
18.0
 49
3.0
 49
-4.0
 49
5.0
 49
-6.0
  0
LTYPE
  2
RAND4
 70
    64
  3
ランダム線4
 72
    65
 73
     4
 40
22.0
 49
4.0
 49
-5.0
 49
6.0
 49
-7.0
  0
LTYPE
  2
RAND5
 70
    64
  3
ランダム線5
 72
    65
 73
     4
 40
26.0
 49
5.0
 49
-6.0
 49
7.0
 49
-8.0
  0
LTYPE
  2
LONG1
 70
    64
  3
----------  --  ----------  --  
 72
    65
 73
     4
 40
40.0
 49
32.5
 49
-2.5
 49
2.5
 49
-2.5
  0
LTYPE
  2
LONG2
 70
    64
  3
--------  -  -  --------  -  -  
 72
    65
 73
     6
 40
40.0
 49
30.0
 49
-2.5
 49
1.25
 49
-2.5
 49
1.25
 49
-2.5
  0
LTYPE
  2
LONG3
 70
    64
  3
+++++++++++++++..+++++++++++++++
 72
    65
 73
     2
 40
40.0
 49
37.5
 49
-2.5
  0
LTYPE
  2
LONG4
 70
    64
  3
+++++++++++++++..+++++++++++++++
 72
    65
 73
     2
 40
80.0
 49
75.0
 49
-5.0
  0
LTYPE
  2
LONG5
 70
    64
  3
----------  --  ----------  --  
 72
    65
 73
     4
 40
60.0
 49
37.5
 49
-7.5
 49
7.5
 49
-7.5
  0
LTYPE
  2
dashed
 70
   64
  3
-------   -------------   ------
 72
   65
 73
    2
 40
7.5
 49
6
 49
-1.5
  0
LTYPE
  2
dashed_spaced
 70
   64
  3
----        --------        ----
 72
   65
 73
    2
 40
12
 49
6
 49
-6
  0
LTYPE
  2
long_dashed_dotted
 70
   64
  3
------------- --- --------------
 72
   65
 73
    4
 40
15.25
 49
12
 49
-1.5
 49
0.25
 49
-1.5
  0
LTYPE
  2
long_dashed_double-dotted
 70
   64
  3
----------- --- --- ------------
 72
   65
 73
    6
 40
17
 49
12
 49
-1.5
 49
0.25
 49
-1.5
 49
0.25
 49
-1.5
  0
LTYPE
  2
long_dashed_triplicate-dotted
 70
   64
  3
--------- --- --- --- ----------
 72
   65
 73
    8
 40
18.75
 49
12
 49
-1.5
 49
0.25
 49
-1.5
 49
0.25
 49
-1.5
 49
0.25
 49
-1.5
  0
LTYPE
  2
dotted
 70
   64
  3
   -       -       -       -    
 72
   65
 73
    2
 40
1.75
 49
0.25
 49
-1.5
  0
LTYPE
  2
chain
 70
   64
  3
-------------- -- --------------
 72
   65
 73
    4
 40
18.5
 49
12
 49
-1.5
 49
3.5
 49
-1.5
  0
LTYPE
  2
chain_double_dash
 70
   64
  3
------------ -- -- -------------
 72
   65
 73
    6
 40
23.5
 49
12
 49
-1.5
 49
3.5
 49
-1.5
 49
3.5
 49
-1.5
  0
LTYPE
  2
dashed_dotted
 70
   64
  3
-----------     -     ----------
 72
   65
 73
    4
 40
9.25
 49
6
 49
-1.5
 49
0.25
 49
-1.5
  0
LTYPE
  2
double-dashed_dotted
 70
   64
  3
------   -----------   -   -----
 72
   65
 73
    6
 40
16.75
 49
6
 49
-1.5
 49
6
 49
-1.5
 49
0.25
 49
-1.5
  0
LTYPE
  2
dashed_double-dotted
 70
   64
  3
---------    -    -    ---------
 72
   65
 73
    6
 40
11
 49
6
 49
-1.5
 49
0.25
 49
-1.5
 49
0.25
 49
-1.5
  0
LTYPE
  2
double-dashed_double-dotted
 70
   64
  3
-----   ---------   -   -   ----
 72
   65
 73
    8
 40
18.5
 49
6
 49
-1.5
 49
6
 49
-1.5
 49
0.25
 49
-1.5
 49
0.25
 49
-1.5
  0
LTYPE
  2
dashed_triplicate-dotted
 70
   64
  3
-------    -    -    -    ------
 72
   65
 73
    8
 40
12.75
 49
6
 49
-1.5
 49
0.25
 49
-1.5
 49
0.25
 49
-1.5
 49
0.25
 49
-1.5
  0
LTYPE
  2
double-dashed_triplicate-dotted
 70
   64
  3
-----  ---------  -  -  -  -----
 72
   65
 73
   10
 40
20.25
 49
6
 49
-1.5
 49
6
 49
-1.5
 49
0.25
 49
-1.5
 49
0.25
 49
-1.5
 49
0.25
 49
-1.5
  0
LTYPE
  2
undefined
 70
   64
  3
--------------------------------
 72
   65
 73
    0
 40
0
  0
LTYPE
  2
_
 70
   64
  3
                                
 72
   65
 73
    0
 40
0
  0
LTYPE
  2
__18
 70
   64
  3
                                
 72
   65
 73
    0
 40
0
  0
LTYPE
  2
__19
 70
   64
  3
                                
 72
   65
 73
    0
 40
0
  0
LTYPE
  2
__20
 70
   64
  3
                                
 72
   65
 73
    0
 40
0
  0
LTYPE
  2
__21
 70
   64
  3
                                
 72
   65
 73
    0
 40
0
  0
LTYPE
  2
__22
 70
   64
  3
                                
 72
   65
 73
    0
 40
0
  0
LTYPE
  2
__23
 70
   64
  3
                                
 72
   65
 73
    0
 40
0
  0
LTYPE
  2
__24
 70
   64
  3
                                
 72
   65
 73
    0
 40
0
  0
LTYPE
  2
__25
 70
   64
  3
                                
 72
   65
 73
    0
 40
0
  0
LTYPE
  2
__26
 70
   64
  3
                                
 72
   65
 73
    0
 40
0
  0
LTYPE
  2
__27
 70
   64
  3
                                
 72
   65
 73
    0
 40
0
  0
LTYPE
  2
__28
 70
   64
  3
                                
 72
   65
 73
    0
 40
0
  0
LTYPE
  2
__29
 70
   64
  3
                                
 72
   65
 73
    0
 40
0
  0
LTYPE
  2
__30
 70
   64
  3
                                
 72
   65
 73
    0
 40
0
  0
LTYPE
  2
__31
 70
   64
  3
                                
 72
   65
 73
    0
 40
0
  0
LTYPE
  2
__32
 70
   64
  3
                                
 72
   65
 73
    0
 40
0
  0
ENDTAB
  0
TABLE
  2
STYLE
  5
3
100
AcDbSymbolTable
 70
     1
  0
STYLE
  5
10
100
AcDbSymbolTableRecord
100
AcDbTextStyleTableRecord
  2
STANDARD
 70
     0
 40
0.0
 41
1.0
 50
0.0
 71
     0
 42
0.2
  3
txt
  4
bigfont.shx
  0
STYLE
  5
26
100
AcDbSymbolTableRecord
100
AcDbTextStyleTableRecord
  2
TATEGAKI
 70
    68
 40
0.0
 41
1.0
 50
0.0
 71
     0
 42
1.0
  3
txt
  4
bigfont.shx
  0
ENDTAB
  0
TABLE
  2
LAYER
 70
    4
  0
LAYER
  2
_0-0_0
 70
   64
 62
    7
  6
CONTINUOUS
  0
LAYER
  2
_0-1_0-00
 70
   64
 62
    7
  6
CONTINUOUS
  0
LAYER
  2
_0-3_0-10
 70
   64
 62
    7
  6
CONTINUOUS
  0
LAYER
  2
ADD_LINE
 70
   64
 62
    7
  6
CONTINUOUS
  0
ENDTAB
  0
ENDSEC
  0
SECTION
  2
BLOCKS
  0
BLOCK
  2
-000-EDTIP_ARROW_S_0
 70
   64
 10
0
 20
0
 30
0
  0
LINE
  8
_0-1_0-00
  6
CONTINUOUS
 62
    7
 10
0
 20
0
 11
-1
 21
0
  0
LINE
  8
_0-1_0-00
  6
CONTINUOUS
 62
    7
 10
0
 20
0
 11
-0.9659259999999999
 21
0.258819
  0
LINE
  8
_0-1_0-00
  6
CONTINUOUS
 62
    7
 10
0
 20
0
 11
-0.9659259999999999
 21
-0.258819
  0
ENDBLK
  0
BLOCK
  2
-001-EDTIP_ARROW_E_1
 70
   64
 10
0
 20
0
 30
0
  0
LINE
  8
_0-0_0
  6
CONTINUOUS
 62
    7
 10
0
 20
0
 11
-1
 21
0
  0
LINE
  8
_0-0_0
  6
CONTINUOUS
 62
    7
 10
0
 20
0
 11
-0.9659259999999999
 21
-0.258819
  0
LINE
  8
_0-0_0
  6
CONTINUOUS
 62
    7
 10
0
 20
0
 11
-0.9659259999999999
 21
0.258819
  0
ENDBLK
  0
BLOCK
  2
-002-EDTIP_ARROW_S
 70
   64
 10
0
 20
0
 30
0
  0
LINE
  8
_0-0_0
  6
CONTINUOUS
 62
    7
 10
0
 20
0
 11
-1
 21
0
  0
LINE
  8
_0-0_0
  6
CONTINUOUS
 62
    7
 10
0
 20
0
 11
-0.9659259999999999
 21
0.258819
  0
LINE
  8
_0-0_0
  6
CONTINUOUS
 62
    7
 10
0
 20
0
 11
-0.9659259999999999
 21
-0.258819
  0
ENDBLK
  0
BLOCK
  2
-003-EDTIP_ARROW_E
 70
   64
 10
0
 20
0
 30
0
  0
LINE
  8
_0-0_0
  6
CONTINUOUS
 62
    7
 10
0
 20
0
 11
-1
 21
0
  0
LINE
  8
_0-0_0
  6
CONTINUOUS
 62
    7
 10
0
 20
0
 11
-0.9659259999999999
 21
-0.258819
  0
LINE
  8
_0-0_0
  6
CONTINUOUS
 62
    7
 10
0
 20
0
 11
-0.9659259999999999
 21
0.258819
  0
ENDBLK
  0
BLOCK
  2
-004-BLKF019_2
 70
   64
 10
0
 20
0
 30
0
  0
LINE
  8
_0-0_0
  6
CONTINUOUS
 62
    4
 10
111.728244
 20
214.25727900000001
 11
111.85897699999999
 21
214.26013299999999
  0
LINE
  8
_0-0_0
  6
CONTINUOUS
 62
    4
 10
111.85897699999999
 20
214.26013299999999
 11
111.98871599999999
 21
214.268673
  0
LINE
  8
_0-0_0
  6
CONTINUOUS
 62
    4
 10
111.98871599999999
 20
214.268673
 11
112.116472
 21
214.282834
  0
LINE
  8
_0-0_0
  6
CONTINUOUS
 62
    4
 10
112.116472
 20
214.282834
 11
112.241274
 21
214.30250899999998
  0
LINE
  8
_0-0_0
  6
CONTINUOUS
 62
    4
 10
112.241274
 20
214.30250899999998
 11
112.362171
 21
214.327548
  0
LINE
  8
_0-0_0
  6
CONTINUOUS
 62
    4
 10
112.362171
 20
214.327548
 11
112.478244
 21
214.35776000000001
  0
LINE
  8
_0-0_0
  6
CONTINUOUS
 62
    4
 10
112.478244
 20
214.35776000000001
 11
112.58860799999999
 21
214.39291499999998
  0
LINE
  8
_0-0_0
  6
CONTINUOUS
 62
    4
 10
112.58860799999999
 20
214.39291499999998
 11
112.692425
 21
214.43274500000001
  0
LINE
  8
_0-0_0
  6
CONTINUOUS
 62
    4
 10
112.692425
 20
214.43274500000001
 11
112.788904
 21
214.47694899999999
  0
LINE
  8
_0-0_0
  6
CONTINUOUS
 62
    4
 10
112.788904
 20
214.47694899999999
 11
112.87730999999999
 21
214.52518800000001
  0
LINE
  8
_0-0_0
  6
CONTINUOUS
 62
    4
 10
112.87730999999999
 20
214.52518800000001
 11
112.95697199999999
 21
214.57709600000001
  0
LINE
  8
_0-0_0
  6
CONTINUOUS
 62
    4
 10
112.95697199999999
 20
214.57709600000001
 11
113.02728199999998
 21
214.63227900000001
  0
LINE
  8
_0-0_0
  6
CONTINUOUS
 62
    4
 10
113.02728199999998
 20
214.63227900000001
 11
113.08770499999998
 21
214.69031499999999
  0
LINE
  8
_0-0_0
  6
CONTINUOUS
 62
    4
 10
113.08770499999998
 20
214.69031499999999
 11
113.13778299999998
 21
214.750764
  0
LINE
  8
_0-0_0
  6
CONTINUOUS
 62
    4
 10
113.13778299999998
 20
214.750764
 11
113.177132
 21
214.813164
  0
LINE
  8
_0-0_0
  6
CONTINUOUS
 62
    4
 10
113.177132
 20
214.813164
 11
113.205455
 21
214.87704299999998
  0
LINE
  8
_0-0_0
  6
CONTINUOUS
 62
    4
 10
113.205455
 20
214.87704299999998
 11
113.222536
 21
214.941912
  0
LINE
  8
_0-0_0
  6
CONTINUOUS
 62
    4
 10
113.222536
 20
214.941912
 11
113.228244
 21
215.00727900000001
  0
ENDBLK
  0
BLOCK
  2
-005-BLKF020_3
 70
   64
 10
0
 20
0
 30
0
  0
LINE
  8
_0-0_0
  6
CONTINUOUS
 62
    4
 10
111.728244
 20
214.58203800000001
 11
111.85897699999999
 21
214.58489199999999
  0
LINE
  8
_0-0_0
  6
CONTINUOUS
 62
    4
 10
111.85897699999999
 20
214.58489199999999
 11
111.98871599999999
 21
214.593432
  0
LINE
  8
_0-0_0
  6
CONTINUOUS
 62
    4
 10
111.98871599999999
 20
214.593432
 11
112.116472
 21
214.607594
  0
LINE
  8
_0-0_0
  6
CONTINUOUS
 62
    4
 10
112.116472
 20
214.607594
 11
112.241274
 21
214.62726900000001
  0
LINE
  8
_0-0_0
  6
CONTINUOUS
 62
    4
 10
112.241274
 20
214.62726900000001
 11
112.362171
 21
214.652307
  0
LINE
  8
_0-0_0
  6
CONTINUOUS
 62
    4
 10
112.362171
 20
214.652307
 11
112.478244
 21
214.68251900000001
  0
LINE
  8
_0-0_0
  6
CONTINUOUS
 62
    4
 10
112.478244
 20
214.68251900000001
 11
112.58860799999999
 21
214.71767399999998
  0
LINE
  8
_0-0_0
  6
CONTINUOUS
 62
    4
 10
112.58860799999999
 20
214.71767399999998
 11
112.692425
 21
214.757505
  0
LINE
  8
_0-0_0
  6
CONTINUOUS
 62
    4
 10
112.692425
 20
214.757505
 11
112.788904
 21
214.80170799999999
  0
LINE
  8
_0-0_0
  6
CONTINUOUS
 62
    4
 10
112.788904
 20
214.80170799999999
 11
112.87730999999999
 21
214.84994800000001
  0
LINE
  8
_0-0_0
  6
CONTINUOUS
 62
    4
 10
112.87730999999999
 20
214.84994800000001
 11
112.95697199999999
 21
214.901856
  0
LINE
  8
_0-0_0
  6
CONTINUOUS
 62
    4
 10
112.95697199999999
 20
214.901856
 11
113.02728199999998
 21
214.95703800000001
  0
LINE
  8
_0-0_0
  6
CONTINUOUS
 62
    4
 10
113.02728199999998
 20
214.95703800000001
 11
113.08770499999998
 21
215.01507499999999
  0
LINE
  8
_0-0_0
  6
CONTINUOUS
 62
    4
 10
113.08770499999998
 20
215.01507499999999
 11
113.13778299999998
 21
215.075523
  0
LINE
  8
_0-0_0
  6
CONTINUOUS
 62
    4
 10
113.13778299999998
 20
215.075523
 11
113.177132
 21
215.13792399999999
  0
LINE
  8
_0-0_0
  6
CONTINUOUS
 62
    4
 10
113.177132
 20
215.13792399999999
 11
113.205455
 21
215.20180199999998
  0
LINE
  8
_0-0_0
  6
CONTINUOUS
 62
    4
 10
113.205455
 20
215.20180199999998
 11
113.222536
 21
215.266671
  0
LINE
  8
_0-0_0
  6
CONTINUOUS
 62
    4
 10
113.222536
 20
215.266671
 11
113.228244
 21
215.33203800000001
  0
LINE
  8
_0-0_0
  6
CONTINUOUS
 62
    4
 10
113.228244
 20
215.33203800000001
 11
113.222536
 21
215.39740499999999
  0
LINE
  8
_0-0_0
  6
CONTINUOUS
 62
    4
 10
113.222536
 20
215.39740499999999
 11
113.205455
 21
215.462274
  0
LINE
  8
_0-0_0
  6
CONTINUOUS
 62
    4
 10
113.205455
 20
215.462274
 11
113.177132
 21
215.52615299999999
  0
LINE
  8
_0-0_0
  6
CONTINUOUS
 62
    4
 10
113.177132
 20
215.52615299999999
 11
113.13778299999998
 21
215.58855299999999
  0
LINE
  8
_0-0_0
  6
CONTINUOUS
 62
    4
 10
113.13778299999998
 20
215.58855299999999
 11
113.08770499999998
 21
215.64900199999999
  0
LINE
  8
_0-0_0
  6
CONTINUOUS
 62
    4
 10
113.08770499999998
 20
215.64900199999999
 11
113.02728199999998
 21
215.70703800000001
  0
LINE
  8
_0-0_0
  6
CONTINUOUS
 62
    4
 10
113.02728199999998
 20
215.70703800000001
 11
112.95697199999999
 21
215.76222100000001
  0
LINE
  8
_0-0_0
  6
CONTINUOUS
 62
    4
 10
112.95697199999999
 20
215.76222100000001
 11
112.87730999999999
 21
215.814129
  0
LINE
  8
_0-0_0
  6
CONTINUOUS
 62
    4
 10
112.87730999999999
 20
215.814129
 11
112.788904
 21
215.862368
  0
LINE
  8
_0-0_0
  6
CONTINUOUS
 62
    4
 10
112.788904
 20
215.862368
 11
112.692425
 21
215.90657200000001
  0
LINE
  8
_0-0_0
  6
CONTINUOUS
 62
    4
 10
112.692425
 20
215.90657200000001
 11
112.58860799999999
 21
215.946402
  0
LINE
  8
_0-0_0
  6
CONTINUOUS
 62
    4
 10
112.58860799999999
 20
215.946402
 11
112.478244
 21
215.981557
  0
LINE
  8
_0-0_0
  6
CONTINUOUS
 62
    4
 10
112.478244
 20
215.981557
 11
112.434126
 21
215.99380300000001
  0
ENDBLK
  0
BLOCK
  2
-006-BLKF021_4
 70
   64
 10
0
 20
0
 30
0
  0
LINE
  8
_0-0_0
  6
CONTINUOUS
 62
    4
 10
120.75561999999999
 20
205.25727900000001
 11
120.919037
 21
205.26084599999998
  0
LINE
  8
_0-0_0
  6
CONTINUOUS
 62
    4
 10
120.919037
 20
205.26084599999998
 11
121.08121099999999
 21
205.271522
  0
LINE
  8
_0-0_0
  6
CONTINUOUS
 62
    4
 10
121.08121099999999
 20
205.271522
 11
121.24090599999999
 21
205.28922299999999
  0
LINE
  8
_0-0_0
  6
CONTINUOUS
 62
    4
 10
121.24090599999999
 20
205.28922299999999
 11
121.39690799999999
 21
205.313817
  0
LINE
  8
_0-0_0
  6
CONTINUOUS
 62
    4
 10
121.39690799999999
 20
205.313817
 11
121.54802899999998
 21
205.34511499999999
  0
LINE
  8
_0-0_0
  6
CONTINUOUS
 62
    4
 10
121.54802899999998
 20
205.34511499999999
 11
121.69311999999999
 21
205.38288
  0
LINE
  8
_0-0_0
  6
CONTINUOUS
 62
    4
 10
121.69311999999999
 20
205.38288
 11
121.83107599999999
 21
205.42682400000001
  0
LINE
  8
_0-0_0
  6
CONTINUOUS
 62
    4
 10
121.83107599999999
 20
205.42682400000001
 11
121.960847
 21
205.47661199999998
  0
LINE
  8
_0-0_0
  6
CONTINUOUS
 62
    4
 10
121.960847
 20
205.47661199999998
 11
122.081445
 21
205.531866
  0
LINE
  8
_0-0_0
  6
CONTINUOUS
 62
    4
 10
122.081445
 20
205.531866
 11
122.19195399999999
 21
205.59216499999999
  0
LINE
  8
_0-0_0
  6
CONTINUOUS
 62
    4
 10
122.19195399999999
 20
205.59216499999999
 11
122.29152999999999
 21
205.65705099999999
  0
LINE
  8
_0-0_0
  6
CONTINUOUS
 62
    4
 10
122.29152999999999
 20
205.65705099999999
 11
122.379418
 21
205.72602900000001
  0
LINE
  8
_0-0_0
  6
CONTINUOUS
 62
    4
 10
122.379418
 20
205.72602900000001
 11
122.454947
 21
205.798574
  0
LINE
  8
_0-0_0
  6
CONTINUOUS
 62
    4
 10
122.454947
 20
205.798574
 11
122.517544
 21
205.87413499999999
  0
LINE
  8
_0-0_0
  6
CONTINUOUS
 62
    4
 10
122.517544
 20
205.87413499999999
 11
122.566731
 21
205.95213599999999
  0
LINE
  8
_0-0_0
  6
CONTINUOUS
 62
    4
 10
122.566731
 20
205.95213599999999
 11
122.602135
 21
206.03198399999999
  0
LINE
  8
_0-0_0
  6
CONTINUOUS
 62
    4
 10
122.602135
 20
206.03198399999999
 11
122.623485
 21
206.11306999999999
  0
LINE
  8
_0-0_0
  6
CONTINUOUS
 62
    4
 10
122.623485
 20
206.11306999999999
 11
122.63061999999999
 21
206.19477900000001
  0
ENDBLK
  0
BLOCK
  2
-007-BLKF022_5
 70
   64
 10
0
 20
0
 30
0
  0
LINE
  8
_0-0_0
  6
CONTINUOUS
 62
    4
 10
120.75561999999999
 20
205.58203800000001
 11
120.919037
 21
205.58560600000001
  0
LINE
  8
_0-0_0
  6
CONTINUOUS
 62
    4
 10
120.919037
 20
205.58560600000001
 11
121.08121099999999
 21
205.596281
  0
LINE
  8
_0-0_0
  6
CONTINUOUS
 62
    4
 10
121.08121099999999
 20
205.596281
 11
121.24090599999999
 21
205.61398299999999
  0
LINE
  8
_0-0_0
  6
CONTINUOUS
 62
    4
 10
121.24090599999999
 20
205.61398299999999
 11
121.39690799999999
 21
205.638576
  0
LINE
  8
_0-0_0
  6
CONTINUOUS
 62
    4
 10
121.39690799999999
 20
205.638576
 11
121.54802899999998
 21
205.66987499999999
  0
LINE
  8
_0-0_0
  6
CONTINUOUS
 62
    4
 10
121.54802899999998
 20
205.66987499999999
 11
121.69311999999999
 21
205.707639
  0
LINE
  8
_0-0_0
  6
CONTINUOUS
 62
    4
 10
121.69311999999999
 20
205.707639
 11
121.83107599999999
 21
205.75158300000001
  0
LINE
  8
_0-0_0
  6
CONTINUOUS
 62
    4
 10
121.83107599999999
 20
205.75158300000001
 11
121.960847
 21
205.80137199999998
  0
LINE
  8
_0-0_0
  6
CONTINUOUS
 62
    4
 10
121.960847
 20
205.80137199999998
 11
122.081445
 21
205.856626
  0
LINE
  8
_0-0_0
  6
CONTINUOUS
 62
    4
 10
122.081445
 20
205.856626
 11
122.19195399999999
 21
205.91692499999999
  0
LINE
  8
_0-0_0
  6
CONTINUOUS
 62
    4
 10
122.19195399999999
 20
205.91692499999999
 11
122.29152999999999
 21
205.98180999999999
  0
LINE
  8
_0-0_0
  6
CONTINUOUS
 62
    4
 10
122.29152999999999
 20
205.98180999999999
 11
122.379418
 21
206.05078800000001
  0
LINE
  8
_0-0_0
  6
CONTINUOUS
 62
    4
 10
122.379418
 20
206.05078800000001
 11
122.454947
 21
206.12333399999999
  0
LINE
  8
_0-0_0
  6
CONTINUOUS
 62
    4
 10
122.454947
 20
206.12333399999999
 11
122.517544
 21
206.19889399999999
  0
LINE
  8
_0-0_0
  6
CONTINUOUS
 62
    4
 10
122.517544
 20
206.19889399999999
 11
122.566731
 21
206.27689499999999
  0
LINE
  8
_0-0_0
  6
CONTINUOUS
 62
    4
 10
122.566731
 20
206.27689499999999
 11
122.602135
 21
206.35674299999999
  0
LINE
  8
_0-0_0
  6
CONTINUOUS
 62
    4
 10
122.602135
 20
206.35674299999999
 11
122.623485
 21
206.43782999999999
  0
LINE
  8
_0-0_0
  6
CONTINUOUS
 62
    4
 10
122.623485
 20
206.43782999999999
 11
122.63061999999999
 21
206.51953800000001
  0
LINE
  8
_0-0_0
  6
CONTINUOUS
 62
    4
 10
122.63061999999999
 20
206.51953800000001
 11
122.623485
 21
206.601247
  0
LINE
  8
_0-0_0
  6
CONTINUOUS
 62
    4
 10
122.623485
 20
206.601247
 11
122.602135
 21
206.68233299999999
  0
LINE
  8
_0-0_0
  6
CONTINUOUS
 62
    4
 10
122.602135
 20
206.68233299999999
 11
122.566731
 21
206.76218099999999
  0
LINE
  8
_0-0_0
  6
CONTINUOUS
 62
    4
 10
122.566731
 20
206.76218099999999
 11
122.517544
 21
206.84018199999999
  0
LINE
  8
_0-0_0
  6
CONTINUOUS
 62
    4
 10
122.517544
 20
206.84018199999999
 11
122.454947
 21
206.91574299999999
  0
LINE
  8
_0-0_0
  6
CONTINUOUS
 62
    4
 10
122.454947
 20
206.91574299999999
 11
122.379418
 21
206.98828800000001
  0
LINE
  8
_0-0_0
  6
CONTINUOUS
 62
    4
 10
122.379418
 20
206.98828800000001
 11
122.29152999999999
 21
207.05726599999999
  0
ENDBLK
  0
BLOCK
  2
-008-BLKF023_6
 70
   64
 10
0
 20
0
 30
0
  0
LINE
  8
_0-0_0
  6
CONTINUOUS
 62
    4
 10
115.881061
 20
208.76953800000001
 11
115.91374399999999
 21
208.77025199999999
  0
LINE
  8
_0-0_0
  6
CONTINUOUS
 62
    4
 10
115.91374399999999
 20
208.77025199999999
 11
115.946179
 21
208.772387
  0
LINE
  8
_0-0_0
  6
CONTINUOUS
 62
    4
 10
115.946179
 20
208.772387
 11
115.97811799999999
 21
208.77592699999999
  0
LINE
  8
_0-0_0
  6
CONTINUOUS
 62
    4
 10
115.97811799999999
 20
208.77592699999999
 11
116.00931799999999
 21
208.78084599999999
  0
LINE
  8
_0-0_0
  6
CONTINUOUS
 62
    4
 10
116.00931799999999
 20
208.78084599999999
 11
116.03954299999999
 21
208.78710599999999
  0
LINE
  8
_0-0_0
  6
CONTINUOUS
 62
    4
 10
116.03954299999999
 20
208.78710599999999
 11
116.068561
 21
208.79465899999999
  0
LINE
  8
_0-0_0
  6
CONTINUOUS
 62
    4
 10
116.068561
 20
208.79465899999999
 11
116.096152
 21
208.803447
  0
LINE
  8
_0-0_0
  6
CONTINUOUS
 62
    4
 10
116.096152
 20
208.803447
 11
116.122106
 21
208.81340499999998
  0
LINE
  8
_0-0_0
  6
CONTINUOUS
 62
    4
 10
116.122106
 20
208.81340499999998
 11
116.14622599999998
 21
208.82445599999999
  0
LINE
  8
_0-0_0
  6
CONTINUOUS
 62
    4
 10
116.14622599999998
 20
208.82445599999999
 11
116.168327
 21
208.83651599999998
  0
LINE
  8
_0-0_0
  6
CONTINUOUS
 62
    4
 10
116.168327
 20
208.83651599999998
 11
116.18824299999998
 21
208.84949299999999
  0
LINE
  8
_0-0_0
  6
CONTINUOUS
 62
    4
 10
116.18824299999998
 20
208.84949299999999
 11
116.20582
 21
208.86328800000001
  0
LINE
  8
_0-0_0
  6
CONTINUOUS
 62
    4
 10
116.20582
 20
208.86328800000001
 11
116.220926
 21
208.87779699999998
  0
LINE
  8
_0-0_0
  6
CONTINUOUS
 62
    4
 10
116.220926
 20
208.87779699999998
 11
116.233446
 21
208.89291
  0
LINE
  8
_0-0_0
  6
CONTINUOUS
 62
    4
 10
116.233446
 20
208.89291
 11
116.243283
 21
208.90851
  0
LINE
  8
_0-0_0
  6
CONTINUOUS
 62
    4
 10
116.243283
 20
208.90851
 11
116.250364
 21
208.92447899999999
  0
LINE
  8
_0-0_0
  6
CONTINUOUS
 62
    4
 10
116.250364
 20
208.92447899999999
 11
116.25463399999999
 21
208.940697
  0
LINE
  8
_0-0_0
  6
CONTINUOUS
 62
    4
 10
116.25463399999999
 20
208.940697
 11
116.256061
 21
208.95703800000001
  0
ENDBLK
  0
BLOCK
  2
-009-BLKF024_7
 70
   64
 10
0
 20
0
 30
0
  0
LINE
  8
_0-0_0
  6
CONTINUOUS
 62
    4
 10
125.409913
 20
196.25727900000001
 11
125.606013
 21
196.26156
  0
LINE
  8
_0-0_0
  6
CONTINUOUS
 62
    4
 10
125.606013
 20
196.26156
 11
125.800621
 21
196.27437
  0
LINE
  8
_0-0_0
  6
CONTINUOUS
 62
    4
 10
125.800621
 20
196.27437
 11
125.99225599999998
 21
196.295612
  0
LINE
  8
_0-0_0
  6
CONTINUOUS
 62
    4
 10
125.99225599999998
 20
196.295612
 11
126.17945799999999
 21
196.32512500000001
  0
LINE
  8
_0-0_0
  6
CONTINUOUS
 62
    4
 10
126.17945799999999
 20
196.32512500000001
 11
126.360804
 21
196.362683
  0
LINE
  8
_0-0_0
  6
CONTINUOUS
 62
    4
 10
126.360804
 20
196.362683
 11
126.534913
 21
196.40799999999998
  0
LINE
  8
_0-0_0
  6
CONTINUOUS
 62
    4
 10
126.534913
 20
196.40799999999998
 11
126.70046
 21
196.460733
  0
LINE
  8
_0-0_0
  6
CONTINUOUS
 62
    4
 10
126.70046
 20
196.460733
 11
126.85618499999999
 21
196.52047899999999
  0
LINE
  8
_0-0_0
  6
CONTINUOUS
 62
    4
 10
126.85618499999999
 20
196.52047899999999
 11
127.00090299999999
 21
196.58678399999999
  0
LINE
  8
_0-0_0
  6
CONTINUOUS
 62
    4
 10
127.00090299999999
 20
196.58678399999999
 11
127.13351299999999
 21
196.659143
  0
LINE
  8
_0-0_0
  6
CONTINUOUS
 62
    4
 10
127.13351299999999
 20
196.659143
 11
127.253005
 21
196.73700500000001
  0
LINE
  8
_0-0_0
  6
CONTINUOUS
 62
    4
 10
127.253005
 20
196.73700500000001
 11
127.35846999999999
 21
196.81977900000001
  0
LINE
  8
_0-0_0
  6
CONTINUOUS
 62
    4
 10
127.35846999999999
 20
196.81977900000001
 11
127.449105
 21
196.906833
  0
LINE
  8
_0-0_0
  6
CONTINUOUS
 62
    4
 10
127.449105
 20
196.906833
 11
127.52422099999998
 21
196.99750599999998
  0
LINE
  8
_0-0_0
  6
CONTINUOUS
 62
    4
 10
127.52422099999998
 20
196.99750599999998
 11
127.583246
 21
197.09110699999999
  0
LINE
  8
_0-0_0
  6
CONTINUOUS
 62
    4
 10
127.583246
 20
197.09110699999999
 11
127.62573
 21
197.186925
  0
LINE
  8
_0-0_0
  6
CONTINUOUS
 62
    4
 10
127.62573
 20
197.186925
 11
127.651351
 21
197.28422900000001
  0
LINE
  8
_0-0_0
  6
CONTINUOUS
 62
    4
 10
127.651351
 20
197.28422900000001
 11
127.659913
 21
197.38227900000001
  0
ENDBLK
  0
BLOCK
  2
-010-BLKF025_8
 70
   64
 10
0
 20
0
 30
0
  0
LINE
  8
_0-0_0
  6
CONTINUOUS
 62
    4
 10
125.409913
 20
196.58203800000001
 11
125.606013
 21
196.586319
  0
LINE
  8
_0-0_0
  6
CONTINUOUS
 62
    4
 10
125.606013
 20
196.586319
 11
125.800621
 21
196.59913
  0
LINE
  8
_0-0_0
  6
CONTINUOUS
 62
    4
 10
125.800621
 20
196.59913
 11
125.99225599999998
 21
196.620372
  0
LINE
  8
_0-0_0
  6
CONTINUOUS
 62
    4
 10
125.99225599999998
 20
196.620372
 11
126.17945799999999
 21
196.64988399999998
  0
LINE
  8
_0-0_0
  6
CONTINUOUS
 62
    4
 10
126.17945799999999
 20
196.64988399999998
 11
126.360804
 21
196.687442
  0
LINE
  8
_0-0_0
  6
CONTINUOUS
 62
    4
 10
126.360804
 20
196.687442
 11
126.534913
 21
196.73276000000001
  0
LINE
  8
_0-0_0
  6
CONTINUOUS
 62
    4
 10
126.534913
 20
196.73276000000001
 11
126.70046
 21
196.785492
  0
LINE
  8
_0-0_0
  6
CONTINUOUS
 62
    4
 10
126.70046
 20
196.785492
 11
126.85618499999999
 21
196.84523799999999
  0
LINE
  8
_0-0_0
  6
CONTINUOUS
 62
    4
 10
126.85618499999999
 20
196.84523799999999
 11
127.00090299999999
 21
196.91154299999999
  0
LINE
  8
_0-0_0
  6
CONTINUOUS
 62
    4
 10
127.00090299999999
 20
196.91154299999999
 11
127.13351299999999
 21
196.983902
  0
LINE
  8
_0-0_0
  6
CONTINUOUS
 62
    4
 10
127.13351299999999
 20
196.983902
 11
127.253005
 21
197.061765
  0
LINE
  8
_0-0_0
  6
CONTINUOUS
 62
    4
 10
127.253005
 20
197.061765
 11
127.35846999999999
 21
197.14453800000001
  0
LINE
  8
_0-0_0
  6
CONTINUOUS
 62
    4
 10
127.35846999999999
 20
197.14453800000001
 11
127.449105
 21
197.231593
  0
LINE
  8
_0-0_0
  6
CONTINUOUS
 62
    4
 10
127.449105
 20
197.231593
 11
127.52422099999998
 21
197.32226600000001
  0
LINE
  8
_0-0_0
  6
CONTINUOUS
 62
    4
 10
127.52422099999998
 20
197.32226600000001
 11
127.583246
 21
197.41586699999999
  0
LINE
  8
_0-0_0
  6
CONTINUOUS
 62
    4
 10
127.583246
 20
197.41586699999999
 11
127.62573
 21
197.511684
  0
LINE
  8
_0-0_0
  6
CONTINUOUS
 62
    4
 10
127.62573
 20
197.511684
 11
127.651351
 21
197.60898800000001
  0
LINE
  8
_0-0_0
  6
CONTINUOUS
 62
    4
 10
127.651351
 20
197.60898800000001
 11
127.659913
 21
197.70703800000001
  0
LINE
  8
_0-0_0
  6
CONTINUOUS
 62
    4
 10
127.659913
 20
197.70703800000001
 11
127.651351
 21
197.805089
  0
ENDBLK
  0
BLOCK
  2
-011-BLKF026_9
 70
   64
 10
0
 20
0
 30
0
  0
LINE
  8
_0-0_0
  6
CONTINUOUS
 62
    4
 10
123.519023
 20
199.76953800000001
 11
123.55170699999999
 21
199.77025199999999
  0
LINE
  8
_0-0_0
  6
CONTINUOUS
 62
    4
 10
123.55170699999999
 20
199.77025199999999
 11
123.584141
 21
199.772387
  0
LINE
  8
_0-0_0
  6
CONTINUOUS
 62
    4
 10
123.584141
 20
199.772387
 11
123.61608099999999
 21
199.77592699999999
  0
LINE
  8
_0-0_0
  6
CONTINUOUS
 62
    4
 10
123.61608099999999
 20
199.77592699999999
 11
123.647281
 21
199.78084599999999
  0
LINE
  8
_0-0_0
  6
CONTINUOUS
 62
    4
 10
123.647281
 20
199.78084599999999
 11
123.67750499999999
 21
199.78710599999999
  0
LINE
  8
_0-0_0
  6
CONTINUOUS
 62
    4
 10
123.67750499999999
 20
199.78710599999999
 11
123.706523
 21
199.79465899999999
  0
LINE
  8
_0-0_0
  6
CONTINUOUS
 62
    4
 10
123.706523
 20
199.79465899999999
 11
123.734115
 21
199.803447
  0
LINE
  8
_0-0_0
  6
CONTINUOUS
 62
    4
 10
123.734115
 20
199.803447
 11
123.760069
 21
199.81340499999998
  0
LINE
  8
_0-0_0
  6
CONTINUOUS
 62
    4
 10
123.760069
 20
199.81340499999998
 11
123.784188
 21
199.82445599999999
  0
LINE
  8
_0-0_0
  6
CONTINUOUS
 62
    4
 10
123.784188
 20
199.82445599999999
 11
123.80629
 21
199.83651599999998
  0
LINE
  8
_0-0_0
  6
CONTINUOUS
 62
    4
 10
123.80629
 20
199.83651599999998
 11
123.826205
 21
199.84949299999999
  0
LINE
  8
_0-0_0
  6
CONTINUOUS
 62
    4
 10
123.826205
 20
199.84949299999999
 11
123.843783
 21
199.86328800000001
  0
LINE
  8
_0-0_0
  6
CONTINUOUS
 62
    4
 10
123.843783
 20
199.86328800000001
 11
123.858889
 21
199.87779699999998
  0
LINE
  8
_0-0_0
  6
CONTINUOUS
 62
    4
 10
123.858889
 20
199.87779699999998
 11
123.871408
 21
199.89291
  0
LINE
  8
_0-0_0
  6
CONTINUOUS
 62
    4
 10
123.871408
 20
199.89291
 11
123.881246
 21
199.90851
  0
LINE
  8
_0-0_0
  6
CONTINUOUS
 62
    4
 10
123.881246
 20
199.90851
 11
123.888326
 21
199.92447899999999
  0
ENDBLK
  0
BLOCK
  2
-012-BLKF027_10
 70
   64
 10
0
 20
0
 30
0
  0
LINE
  8
_0-0_0
  6
CONTINUOUS
 62
    4
 10
127.592415
 20
187.25727900000001
 11
127.85388299999999
 21
187.262987
  0
LINE
  8
_0-0_0
  6
CONTINUOUS
 62
    4
 10
127.85388299999999
 20
187.262987
 11
128.11336
 21
187.280067
  0
LINE
  8
_0-0_0
  6
CONTINUOUS
 62
    4
 10
128.11336
 20
187.280067
 11
128.36887200000001
 21
187.30839
  0
LINE
  8
_0-0_0
  6
CONTINUOUS
 62
    4
 10
128.36887200000001
 20
187.30839
 11
128.61847599999998
 21
187.34773999999998
  0
LINE
  8
_0-0_0
  6
CONTINUOUS
 62
    4
 10
128.61847599999998
 20
187.34773999999998
 11
128.86027000000001
 21
187.397817
  0
LINE
  8
_0-0_0
  6
CONTINUOUS
 62
    4
 10
128.86027000000001
 20
187.397817
 11
129.09241499999998
 21
187.45824099999998
  0
LINE
  8
_0-0_0
  6
CONTINUOUS
 62
    4
 10
129.09241499999998
 20
187.45824099999998
 11
129.31314499999999
 21
187.52855099999999
  0
LINE
  8
_0-0_0
  6
CONTINUOUS
 62
    4
 10
129.31314499999999
 20
187.52855099999999
 11
129.520778
 21
187.608212
  0
LINE
  8
_0-0_0
  6
CONTINUOUS
 62
    4
 10
129.520778
 20
187.608212
 11
129.71373600000001
 21
187.69661899999999
  0
LINE
  8
_0-0_0
  6
CONTINUOUS
 62
    4
 10
129.71373600000001
 20
187.69661899999999
 11
129.89054899999999
 21
187.79309699999998
  0
LINE
  8
_0-0_0
  6
CONTINUOUS
 62
    4
 10
129.89054899999999
 20
187.79309699999998
 11
130.04987099999999
 21
187.896914
  0
LINE
  8
_0-0_0
  6
CONTINUOUS
 62
    4
 10
130.04987099999999
 20
187.896914
 11
130.190491
 21
188.00727900000001
  0
LINE
  8
_0-0_0
  6
CONTINUOUS
 62
    4
 10
130.190491
 20
188.00727900000001
 11
130.311339
 21
188.12335100000001
  0
LINE
  8
_0-0_0
  6
CONTINUOUS
 62
    4
 10
130.311339
 20
188.12335100000001
 11
130.411493
 21
188.24424899999999
  0
LINE
  8
_0-0_0
  6
CONTINUOUS
 62
    4
 10
130.411493
 20
188.24424899999999
 11
130.490193
 21
188.36904999999998
  0
LINE
  8
_0-0_0
  6
CONTINUOUS
 62
    4
 10
130.490193
 20
188.36904999999998
 11
130.51552499999999
 21
188.41985199999999
  0
ENDBLK
  0
BLOCK
  2
-013-BLKF028_11
 70
   64
 10
0
 20
0
 30
0
  0
LINE
  8
_0-0_0
  6
CONTINUOUS
 62
    4
 10
127.592415
 20
187.58203800000001
 11
127.85388299999999
 21
187.587746
  0
LINE
  8
_0-0_0
  6
CONTINUOUS
 62
    4
 10
127.85388299999999
 20
187.587746
 11
128.11336
 21
187.604827
  0
LINE
  8
_0-0_0
  6
CONTINUOUS
 62
    4
 10
128.11336
 20
187.604827
 11
128.36887200000001
 21
187.63315
  0
LINE
  8
_0-0_0
  6
CONTINUOUS
 62
    4
 10
128.36887200000001
 20
187.63315
 11
128.61847599999998
 21
187.6724989999999
  0
LINE
  8
_0-0_0
  6
CONTINUOUS
 62
    4
 10
128.61847599999998
 20
187.6724989999999
 11
128.86027000000001
 21
187.722577
  0
LINE
  8
_0-0_0
  6
CONTINUOUS
 62
    4
 10
128.86027000000001
 20
187.722577
 11
129.09241499999998
 21
187.78299999999998
  0
LINE
  8
_0-0_0
  6
CONTINUOUS
 62
    4
 10
129.09241499999998
 20
187.78299999999998
 11
129.31314499999999
 21
187.85330999999999
  0
LINE
  8
_0-0_0
  6
CONTINUOUS
 62
    4
 10
129.31314499999999
 20
187.85330999999999
 11
129.520778
 21
187.932972
  0
LINE
  8
_0-0_0
  6
CONTINUOUS
 62
    4
 10
129.520778
 20
187.932972
 11
129.71373600000001
 21
188.02137799999999
  0
LINE
  8
_0-0_0
  6
CONTINUOUS
 62
    4
 10
129.71373600000001
 20
188.02137799999999
 11
129.89054899999999
 21
188.11785699999998
  0
LINE
  8
_0-0_0
  6
CONTINUOUS
 62
    4
 10
129.89054899999999
 20
188.11785699999998
 11
130.04987099999999
 21
188.221674
  0
LINE
  8
_0-0_0
  6
CONTINUOUS
 62
    4
 10
130.04987099999999
 20
188.221674
 11
130.190491
 21
188.33203800000001
  0
LINE
  8
_0-0_0
  6
CONTINUOUS
 62
    4
 10
130.190491
 20
188.33203800000001
 11
130.311339
 21
188.44811100000001
  0
LINE
  8
_0-0_0
  6
CONTINUOUS
 62
    4
 10
130.311339
 20
188.44811100000001
 11
130.411493
 21
188.56900799999999
  0
LINE
  8
_0-0_0
  6
CONTINUOUS
 62
    4
 10
130.411493
 20
188.56900799999999
 11
130.490193
 21
188.69381000000001
  0
LINE
  8
_0-0_0
  6
CONTINUOUS
 62
    4
 10
130.490193
 20
188.69381000000001
 11
130.51552499999999
 21
188.74461199999998
  0
ENDBLK
  0
BLOCK
  2
-014-BLKF029_12
 70
   64
 10
0
 20
0
 30
0
  0
LINE
  8
_0-0_0
  6
CONTINUOUS
 62
    4
 10
127.655415
 20
190.76953800000001
 11
127.70117199999998
 21
190.77053699999999
  0
LINE
  8
_0-0_0
  6
CONTINUOUS
 62
    4
 10
127.70117199999998
 20
190.77053699999999
 11
127.746581
 21
190.773526
  0
LINE
  8
_0-0_0
  6
CONTINUOUS
 62
    4
 10
127.746581
 20
190.773526
 11
127.791295
 21
190.77848299999999
  0
LINE
  8
_0-0_0
  6
CONTINUOUS
 62
    4
 10
127.791295
 20
190.77848299999999
 11
127.83497599999998
 21
190.785369
  0
LINE
  8
_0-0_0
  6
CONTINUOUS
 62
    4
 10
127.83497599999998
 20
190.785369
 11
127.87729
 21
190.79413299999998
  0
LINE
  8
_0-0_0
  6
CONTINUOUS
 62
    4
 10
127.87729
 20
190.79413299999998
 11
127.91791499999999
 21
190.804707
  0
LINE
  8
_0-0_0
  6
CONTINUOUS
 62
    4
 10
127.91791499999999
 20
190.804707
 11
127.95654299999999
 21
190.817011
  0
LINE
  8
_0-0_0
  6
CONTINUOUS
 62
    4
 10
127.95654299999999
 20
190.817011
 11
127.992879
 21
190.83095199999999
  0
LINE
  8
_0-0_0
  6
CONTINUOUS
 62
    4
 10
127.992879
 20
190.83095199999999
 11
128.02664599999999
 21
190.84642299999998
  0
LINE
  8
_0-0_0
  6
CONTINUOUS
 62
    4
 10
128.02664599999999
 20
190.84642299999998
 11
128.057589
 21
190.86330699999999
  0
LINE
  8
_0-0_0
  6
CONTINUOUS
 62
    4
 10
128.057589
 20
190.86330699999999
 11
128.08546999999998
 21
190.88147399999999
  0
LINE
  8
_0-0_0
  6
CONTINUOUS
 62
    4
 10
128.08546999999998
 20
190.88147399999999
 11
128.11007900000001
 21
190.900788
  0
LINE
  8
_0-0_0
  6
CONTINUOUS
 62
    4
 10
128.11007900000001
 20
190.900788
 11
128.13122699999999
 21
190.92110099999999
  0
LINE
  8
_0-0_0
  6
CONTINUOUS
 62
    4
 10
128.13122699999999
 20
190.92110099999999
 11
128.13867999999999
 21
190.929471
  0
ENDBLK
  0
BLOCK
  2
-015-BLKF030_13
 70
   64
 10
0
 20
0
 30
0
  0
LINE
  8
_0-0_0
  6
CONTINUOUS
 62
    4
 10
127.828252
 20
178.25727900000001
 11
128.15508600000001
 21
178.26441399999998
  0
LINE
  8
_0-0_0
  6
CONTINUOUS
 62
    4
 10
128.15508600000001
 20
178.26441399999998
 11
128.479433
 21
178.285764
  0
LINE
  8
_0-0_0
  6
CONTINUOUS
 62
    4
 10
128.479433
 20
178.285764
 11
128.79882399999999
 21
178.321168
  0
LINE
  8
_0-0_0
  6
CONTINUOUS
 62
    4
 10
128.79882399999999
 20
178.321168
 11
129.11082799999999
 21
178.37035499999998
  0
LINE
  8
_0-0_0
  6
CONTINUOUS
 62
    4
 10
129.11082799999999
 20
178.37035499999998
 11
129.413071
 21
178.432952
  0
LINE
  8
_0-0_0
  6
CONTINUOUS
 62
    4
 10
129.413071
 20
178.432952
 11
129.70325199999999
 21
178.50848099999998
  0
LINE
  8
_0-0_0
  6
CONTINUOUS
 62
    4
 10
129.70325199999999
 20
178.50848099999998
 11
129.97916399999999
 21
178.596369
  0
LINE
  8
_0-0_0
  6
CONTINUOUS
 62
    4
 10
129.97916399999999
 20
178.596369
 11
130.238706
 21
178.69594499999999
  0
LINE
  8
_0-0_0
  6
CONTINUOUS
 62
    4
 10
130.238706
 20
178.69594499999999
 11
130.479903
 21
178.806454
  0
LINE
  8
_0-0_0
  6
CONTINUOUS
 62
    4
 10
130.479903
 20
178.806454
 11
130.70091899999999
 21
178.927052
  0
LINE
  8
_0-0_0
  6
CONTINUOUS
 62
    4
 10
130.70091899999999
 20
178.927052
 11
130.90007199999999
 21
179.056823
  0
LINE
  8
_0-0_0
  6
CONTINUOUS
 62
    4
 10
130.90007199999999
 20
179.056823
 11
131.07584700000001
 21
179.19477900000001
  0
LINE
  8
_0-0_0
  6
CONTINUOUS
 62
    4
 10
131.07584700000001
 20
179.19477900000001
 11
131.22690600000001
 21
179.33986999999999
  0
LINE
  8
_0-0_0
  6
CONTINUOUS
 62
    4
 10
131.22690600000001
 20
179.33986999999999
 11
131.280145
 21
179.39965799999998
  0
ENDBLK
  0
BLOCK
  2
-016-BLKF031_14
 70
   64
 10
0
 20
0
 30
0
  0
LINE
  8
_0-0_0
  6
CONTINUOUS
 62
    4
 10
127.828252
 20
178.58203800000001
 11
128.15508600000001
 21
178.58917299999998
  0
LINE
  8
_0-0_0
  6
CONTINUOUS
 62
    4
 10
128.15508600000001
 20
178.58917299999998
 11
128.479433
 21
178.61052399999999
  0
LINE
  8
_0-0_0
  6
CONTINUOUS
 62
    4
 10
128.479433
 20
178.61052399999999
 11
128.79882399999999
 21
178.645927
  0
LINE
  8
_0-0_0
  6
CONTINUOUS
 62
    4
 10
128.79882399999999
 20
178.645927
 11
129.11082799999999
 21
178.69511499999998
  0
LINE
  8
_0-0_0
  6
CONTINUOUS
 62
    4
 10
129.11082799999999
 20
178.69511499999998
 11
129.413071
 21
178.757711
  0
LINE
  8
_0-0_0
  6
CONTINUOUS
 62
    4
 10
129.413071
 20
178.757711
 11
129.70325199999999
 21
178.83324099999998
  0
LINE
  8
_0-0_0
  6
CONTINUOUS
 62
    4
 10
129.70325199999999
 20
178.83324099999998
 11
129.97916399999999
 21
178.92112800000001
  0
LINE
  8
_0-0_0
  6
CONTINUOUS
 62
    4
 10
129.97916399999999
 20
178.92112800000001
 11
130.238706
 21
179.02070499999999
  0
LINE
  8
_0-0_0
  6
CONTINUOUS
 62
    4
 10
130.238706
 20
179.02070499999999
 11
130.479903
 21
179.131213
  0
LINE
  8
_0-0_0
  6
CONTINUOUS
 62
    4
 10
130.479903
 20
179.131213
 11
130.70091899999999
 21
179.251812
  0
LINE
  8
_0-0_0
  6
CONTINUOUS
 62
    4
 10
130.70091899999999
 20
179.251812
 11
130.90007199999999
 21
179.381582
  0
LINE
  8
_0-0_0
  6
CONTINUOUS
 62
    4
 10
130.90007199999999
 20
179.381582
 11
131.07584700000001
 21
179.51953800000001
  0
LINE
  8
_0-0_0
  6
CONTINUOUS
 62
    4
 10
131.07584700000001
 20
179.51953800000001
 11
131.22690600000001
 21
179.66462899999999
  0
LINE
  8
_0-0_0
  6
CONTINUOUS
 62
    4
 10
131.22690600000001
 20
179.66462899999999
 11
131.280145
 21
179.72441699999998
  0
ENDBLK
  0
BLOCK
  2
-017-BLKF032_15
 70
   64
 10
0
 20
0
 30
0
  0
LINE
  8
_0-0_0
  6
CONTINUOUS
 62
    4
 10
129.13613499999999
 20
181.76953800000001
 11
129.201502
 21
181.77096499999998
  0
LINE
  8
_0-0_0
  6
CONTINUOUS
 62
    4
 10
129.201502
 20
181.77096499999998
 11
129.26637099999999
 21
181.775235
  0
LINE
  8
_0-0_0
  6
CONTINUOUS
 62
    4
 10
129.26637099999999
 20
181.775235
 11
129.330249
 21
181.782316
  0
LINE
  8
_0-0_0
  6
CONTINUOUS
 62
    4
 10
129.330249
 20
181.782316
 11
129.39265
 21
181.79215400000001
  0
LINE
  8
_0-0_0
  6
CONTINUOUS
 62
    4
 10
129.39265
 20
181.79215400000001
 11
129.453099
 21
181.804673
  0
LINE
  8
_0-0_0
  6
CONTINUOUS
 62
    4
 10
129.453099
 20
181.804673
 11
129.51113499999999
 21
181.81977900000001
  0
LINE
  8
_0-0_0
  6
CONTINUOUS
 62
    4
 10
129.51113499999999
 20
181.81977900000001
 11
129.56631699999999
 21
181.83735599999999
  0
LINE
  8
_0-0_0
  6
CONTINUOUS
 62
    4
 10
129.56631699999999
 20
181.83735599999999
 11
129.61822599999999
 21
181.85727199999999
  0
LINE
  8
_0-0_0
  6
CONTINUOUS
 62
    4
 10
129.61822599999999
 20
181.85727199999999
 11
129.66646499999998
 21
181.87937299999998
  0
LINE
  8
_0-0_0
  6
CONTINUOUS
 62
    4
 10
129.66646499999998
 20
181.87937299999998
 11
129.71066799999999
 21
181.90349299999999
  0
ENDBLK
  0
BLOCK
  2
-018-BLKF033_16
 70
   64
 10
0
 20
0
 30
0
  0
LINE
  8
_0-0_0
  6
CONTINUOUS
 62
    4
 10
125.71591899999998
 20
169.25727900000001
 11
126.17348699999999
 21
169.267268
  0
LINE
  8
_0-0_0
  6
CONTINUOUS
 62
    4
 10
126.17348699999999
 20
169.267268
 11
126.627572
 21
169.29715799999999
  0
LINE
  8
_0-0_0
  6
CONTINUOUS
 62
    4
 10
126.627572
 20
169.29715799999999
 11
127.074719
 21
169.34672299999999
  0
LINE
  8
_0-0_0
  6
CONTINUOUS
 62
    4
 10
127.074719
 20
169.34672299999999
 11
127.511525
 21
169.41558599999999
  0
LINE
  8
_0-0_0
  6
CONTINUOUS
 62
    4
 10
127.511525
 20
169.41558599999999
 11
127.93466499999999
 21
169.50322099999999
  0
LINE
  8
_0-0_0
  6
CONTINUOUS
 62
    4
 10
127.93466499999999
 20
169.50322099999999
 11
128.34091900000001
 21
169.60896199999999
  0
LINE
  8
_0-0_0
  6
CONTINUOUS
 62
    4
 10
128.34091900000001
 20
169.60896199999999
 11
128.72719499999999
 21
169.73200499999998
  0
LINE
  8
_0-0_0
  6
CONTINUOUS
 62
    4
 10
128.72719499999999
 20
169.73200499999998
 11
129.09055399999999
 21
169.87141199999999
  0
LINE
  8
_0-0_0
  6
CONTINUOUS
 62
    4
 10
129.09055399999999
 20
169.87141199999999
 11
129.42823000000001
 21
170.02612300000001
  0
LINE
  8
_0-0_0
  6
CONTINUOUS
 62
    4
 10
129.42823000000001
 20
170.02612300000001
 11
129.73765199999999
 21
170.194961
  0
LINE
  8
_0-0_0
  6
CONTINUOUS
 62
    4
 10
129.73765199999999
 20
170.194961
 11
130.016467
 21
170.376641
  0
LINE
  8
_0-0_0
  6
CONTINUOUS
 62
    4
 10
130.016467
 20
170.376641
 11
130.16817199999999
 21
170.491241
  0
ENDBLK
  0
BLOCK
  2
-019-BLKF034_17
 70
   64
 10
0
 20
0
 30
0
  0
LINE
  8
_0-0_0
  6
CONTINUOUS
 62
    4
 10
125.71591899999998
 20
169.58203800000001
 11
126.17348699999999
 21
169.592027
  0
LINE
  8
_0-0_0
  6
CONTINUOUS
 62
    4
 10
126.17348699999999
 20
169.592027
 11
126.627572
 21
169.62191799999999
  0
LINE
  8
_0-0_0
  6
CONTINUOUS
 62
    4
 10
126.627572
 20
169.62191799999999
 11
127.074719
 21
169.67148299999999
  0
LINE
  8
_0-0_0
  6
CONTINUOUS
 62
    4
 10
127.074719
 20
169.67148299999999
 11
127.511525
 21
169.74034499999999
  0
LINE
  8
_0-0_0
  6
CONTINUOUS
 62
    4
 10
127.511525
 20
169.74034499999999
 11
127.93466499999999
 21
169.82797999999999
  0
LINE
  8
_0-0_0
  6
CONTINUOUS
 62
    4
 10
127.93466499999999
 20
169.82797999999999
 11
128.34091900000001
 21
169.93372199999998
  0
LINE
  8
_0-0_0
  6
CONTINUOUS
 62
    4
 10
128.34091900000001
 20
169.93372199999998
 11
128.72719499999999
 21
170.05676399999998
  0
LINE
  8
_0-0_0
  6
CONTINUOUS
 62
    4
 10
128.72719499999999
 20
170.05676399999998
 11
129.09055399999999
 21
170.19617199999999
  0
LINE
  8
_0-0_0
  6
CONTINUOUS
 62
    4
 10
129.09055399999999
 20
170.19617199999999
 11
129.42823000000001
 21
170.35088300000001
  0
LINE
  8
_0-0_0
  6
CONTINUOUS
 62
    4
 10
129.42823000000001
 20
170.35088300000001
 11
129.73765199999999
 21
170.519721
  0
LINE
  8
_0-0_0
  6
CONTINUOUS
 62
    4
 10
129.73765199999999
 20
170.519721
 11
130.016467
 21
170.7014
  0
LINE
  8
_0-0_0
  6
CONTINUOUS
 62
    4
 10
130.016467
 20
170.7014
 11
130.16817199999999
 21
170.816
  0
ENDBLK
  0
BLOCK
  2
-020-BLKF035_18
 70
   64
 10
0
 20
0
 30
0
  0
LINE
  8
_0-0_0
  6
CONTINUOUS
 62
    4
 10
128.69442900000001
 20
172.76953800000001
 11
128.77286899999998
 21
172.771251
  0
LINE
  8
_0-0_0
  6
CONTINUOUS
 62
    4
 10
128.77286899999998
 20
172.771251
 11
128.85071199999998
 21
172.776375
  0
LINE
  8
_0-0_0
  6
CONTINUOUS
 62
    4
 10
128.85071199999998
 20
172.776375
 11
128.927366
 21
172.784872
  0
LINE
  8
_0-0_0
  6
CONTINUOUS
 62
    4
 10
128.927366
 20
172.784872
 11
129.00224700000001
 21
172.79667699999998
  0
LINE
  8
_0-0_0
  6
CONTINUOUS
 62
    4
 10
129.00224700000001
 20
172.79667699999998
 11
129.07478499999999
 21
172.8117
  0
LINE
  8
_0-0_0
  6
CONTINUOUS
 62
    4
 10
129.07478499999999
 20
172.8117
 11
129.144429
 21
172.82982699999999
  0
LINE
  8
_0-0_0
  6
CONTINUOUS
 62
    4
 10
129.144429
 20
172.82982699999999
 11
129.21064799999999
 21
172.85092
  0
LINE
  8
_0-0_0
  6
CONTINUOUS
 62
    4
 10
129.21064799999999
 20
172.85092
 11
129.27293800000001
 21
172.874818
  0
ENDBLK
  0
BLOCK
  2
-021-BLKF036_19
 70
   64
 10
0
 20
0
 30
0
  0
LINE
  8
_0-0_0
  6
CONTINUOUS
 62
    4
 10
120.62591199999998
 20
160.25727900000001
 11
121.27957999999999
 21
160.27154899999999
  0
LINE
  8
_0-0_0
  6
CONTINUOUS
 62
    4
 10
121.27957999999999
 20
160.27154899999999
 11
121.928274
 21
160.31424999999998
  0
LINE
  8
_0-0_0
  6
CONTINUOUS
 62
    4
 10
121.928274
 20
160.31424999999998
 11
122.56705499999999
 21
160.38505699999998
  0
LINE
  8
_0-0_0
  6
CONTINUOUS
 62
    4
 10
122.56705499999999
 20
160.38505699999998
 11
123.19106299999998
 21
160.48343099999999
  0
LINE
  8
_0-0_0
  6
CONTINUOUS
 62
    4
 10
123.19106299999998
 20
160.48343099999999
 11
123.79554899999999
 21
160.60862499999998
  0
LINE
  8
_0-0_0
  6
CONTINUOUS
 62
    4
 10
123.79554899999999
 20
160.60862499999998
 11
124.37591199999998
 21
160.75968399999999
  0
LINE
  8
_0-0_0
  6
CONTINUOUS
 62
    4
 10
124.37591199999998
 20
160.75968399999999
 11
124.92773599999999
 21
160.935459
  0
LINE
  8
_0-0_0
  6
CONTINUOUS
 62
    4
 10
124.92773599999999
 20
160.935459
 11
125.446819
 21
161.134612
  0
LINE
  8
_0-0_0
  6
CONTINUOUS
 62
    4
 10
125.446819
 20
161.134612
 11
125.929213
 21
161.35562799999999
  0
LINE
  8
_0-0_0
  6
CONTINUOUS
 62
    4
 10
125.929213
 20
161.35562799999999
 11
126.02096099999998
 21
161.40230999999999
  0
ENDBLK
  0
BLOCK
  2
-022-BLKF037_20
 70
   64
 10
0
 20
0
 30
0
  0
LINE
  8
_0-0_0
  6
CONTINUOUS
 62
    4
 10
120.62591199999998
 20
160.58203800000001
 11
121.27957999999999
 21
160.59630799999999
  0
LINE
  8
_0-0_0
  6
CONTINUOUS
 62
    4
 10
121.27957999999999
 20
160.59630799999999
 11
121.928274
 21
160.63900899999998
  0
LINE
  8
_0-0_0
  6
CONTINUOUS
 62
    4
 10
121.928274
 20
160.63900899999998
 11
122.56705499999999
 21
160.70981599999998
  0
LINE
  8
_0-0_0
  6
CONTINUOUS
 62
    4
 10
122.56705499999999
 20
160.70981599999998
 11
123.19106299999998
 21
160.80819099999999
  0
LINE
  8
_0-0_0
  6
CONTINUOUS
 62
    4
 10
123.19106299999998
 20
160.80819099999999
 11
123.79554899999999
 21
160.93338399999998
  0
LINE
  8
_0-0_0
  6
CONTINUOUS
 62
    4
 10
123.79554899999999
 20
160.93338399999998
 11
124.37591199999998
 21
161.08444299999999
  0
LINE
  8
_0-0_0
  6
CONTINUOUS
 62
    4
 10
124.37591199999998
 20
161.08444299999999
 11
124.92773599999999
 21
161.260218
  0
LINE
  8
_0-0_0
  6
CONTINUOUS
 62
    4
 10
124.92773599999999
 20
161.260218
 11
125.446819
 21
161.459372
  0
LINE
  8
_0-0_0
  6
CONTINUOUS
 62
    4
 10
125.446819
 20
161.459372
 11
125.929213
 21
161.68038799999999
  0
LINE
  8
_0-0_0
  6
CONTINUOUS
 62
    4
 10
125.929213
 20
161.68038799999999
 11
126.02096099999998
 21
161.727069
  0
ENDBLK
  0
BLOCK
  2
-023-BLKF038_21
 70
   64
 10
0
 20
0
 30
0
  0
LINE
  8
_0-0_0
  6
CONTINUOUS
 62
    4
 10
126.062606
 20
163.76953800000001
 11
126.160656
 21
163.771679
  0
LINE
  8
_0-0_0
  6
CONTINUOUS
 62
    4
 10
126.160656
 20
163.771679
 11
126.25795999999999
 21
163.778084
  0
LINE
  8
_0-0_0
  6
CONTINUOUS
 62
    4
 10
126.25795999999999
 20
163.778084
 11
126.35377699999999
 21
163.78870499999999
  0
LINE
  8
_0-0_0
  6
CONTINUOUS
 62
    4
 10
126.35377699999999
 20
163.78870499999999
 11
126.44737899999998
 21
163.80346099999999
  0
LINE
  8
_0-0_0
  6
CONTINUOUS
 62
    4
 10
126.44737899999998
 20
163.80346099999999
 11
126.53805199999999
 21
163.82223999999999
  0
LINE
  8
_0-0_0
  6
CONTINUOUS
 62
    4
 10
126.53805199999999
 20
163.82223999999999
 11
126.625106
 21
163.84489899999999
  0
LINE
  8
_0-0_0
  6
CONTINUOUS
 62
    4
 10
126.625106
 20
163.84489899999999
 11
126.707879
 21
163.87126499999999
  0
ENDBLK
  0
BLOCK
  2
-024-BLKF039_22
 70
   64
 10
0
 20
0
 30
0
  0
LINE
  8
_0-0_0
  6
CONTINUOUS
 62
    4
 10
109.40005899999998
 20
151.25727900000001
 11
111.03422899999999
 21
151.29295300000001
  0
LINE
  8
_0-0_0
  6
CONTINUOUS
 62
    4
 10
111.03422899999999
 20
151.29295300000001
 11
112.65596299999998
 21
151.399706
  0
LINE
  8
_0-0_0
  6
CONTINUOUS
 62
    4
 10
112.65596299999998
 20
151.399706
 11
114.25291599999998
 21
151.57672400000001
  0
LINE
  8
_0-0_0
  6
CONTINUOUS
 62
    4
 10
114.25291599999998
 20
151.57672400000001
 11
115.812937
 21
151.82266000000001
  0
LINE
  8
_0-0_0
  6
CONTINUOUS
 62
    4
 10
115.812937
 20
151.82266000000001
 11
117.32415199999998
 21
152.13564299999998
  0
LINE
  8
_0-0_0
  6
CONTINUOUS
 62
    4
 10
117.32415199999998
 20
152.13564299999998
 11
118.77505899999998
 21
152.513291
  0
LINE
  8
_0-0_0
  6
CONTINUOUS
 62
    4
 10
118.77505899999998
 20
152.513291
 11
119.88492599999999
 21
152.86005199999999
  0
ENDBLK
  0
BLOCK
  2
-025-BLKF040_23
 70
   64
 10
0
 20
0
 30
0
  0
LINE
  8
_0-0_0
  6
CONTINUOUS
 62
    4
 10
109.40005899999998
 20
151.58203800000001
 11
111.03422899999999
 21
151.617713
  0
LINE
  8
_0-0_0
  6
CONTINUOUS
 62
    4
 10
111.03422899999999
 20
151.617713
 11
112.65596299999998
 21
151.724466
  0
LINE
  8
_0-0_0
  6
CONTINUOUS
 62
    4
 10
112.65596299999998
 20
151.724466
 11
114.25291599999998
 21
151.90148400000001
  0
LINE
  8
_0-0_0
  6
CONTINUOUS
 62
    4
 10
114.25291599999998
 20
151.90148400000001
 11
115.812937
 21
152.14742000000001
  0
LINE
  8
_0-0_0
  6
CONTINUOUS
 62
    4
 10
115.812937
 20
152.14742000000001
 11
117.32415199999998
 21
152.46040300000001
  0
LINE
  8
_0-0_0
  6
CONTINUOUS
 62
    4
 10
117.32415199999998
 20
152.46040300000001
 11
118.77505899999998
 21
152.83805
  0
LINE
  8
_0-0_0
  6
CONTINUOUS
 62
    4
 10
118.77505899999998
 20
152.83805
 11
119.88492599999999
 21
153.18481099999999
  0
ENDBLK
  0
BLOCK
  2
-026-BLKF041_24
 70
   64
 10
0
 20
0
 30
0
  0
LINE
  8
_0-0_0
  6
CONTINUOUS
 62
    4
 10
120.77756399999998
 20
154.76953800000001
 11
120.89522499999999
 21
154.772107
  0
LINE
  8
_0-0_0
  6
CONTINUOUS
 62
    4
 10
120.89522499999999
 20
154.772107
 11
121.01198899999998
 21
154.77979300000001
  0
LINE
  8
_0-0_0
  6
CONTINUOUS
 62
    4
 10
121.01198899999998
 20
154.77979300000001
 11
121.12697
 21
154.792538
  0
LINE
  8
_0-0_0
  6
CONTINUOUS
 62
    4
 10
121.12697
 20
154.792538
 11
121.239292
 21
154.810246
  0
LINE
  8
_0-0_0
  6
CONTINUOUS
 62
    4
 10
121.239292
 20
154.810246
 11
121.348099
 21
154.83278100000001
  0
LINE
  8
_0-0_0
  6
CONTINUOUS
 62
    4
 10
121.348099
 20
154.83278100000001
 11
121.45256399999999
 21
154.859971
  0
LINE
  8
_0-0_0
  6
CONTINUOUS
 62
    4
 10
121.45256399999999
 20
154.859971
 11
121.49295499999999
 21
154.872106
  0
ENDBLK
  0
BLOCK
  2
-027-BLKF042_25
 70
   64
 10
0
 20
0
 30
0
  0
LINE
  8
_0-0_0
  6
CONTINUOUS
 62
    4
 10
93.728244000000003
 20
142.58203800000001
 11
97.192683999999999
 21
142.65766899999999
  0
LINE
  8
_0-0_0
  6
CONTINUOUS
 62
    4
 10
97.192683999999999
 20
142.65766899999999
 11
100.63075899999998
 21
142.88398399999999
  0
LINE
  8
_0-0_0
  6
CONTINUOUS
 62
    4
 10
100.63075899999998
 20
142.88398399999999
 11
104.01630099999998
 21
143.259263
  0
LINE
  8
_0-0_0
  6
CONTINUOUS
 62
    4
 10
104.01630099999998
 20
143.259263
 11
107.32354399999998
 21
143.78064699999998
  0
LINE
  8
_0-0_0
  6
CONTINUOUS
 62
    4
 10
107.32354399999998
 20
143.78064699999998
 11
110.52732
 21
144.44417100000001
  0
LINE
  8
_0-0_0
  6
CONTINUOUS
 62
    4
 10
110.52732
 20
144.44417100000001
 11
113.603244
 21
145.24478300000001
  0
LINE
  8
_0-0_0
  6
CONTINUOUS
 62
    4
 10
113.603244
 20
145.24478300000001
 11
115.888176
 21
145.957039
  0
ENDBLK
  0
BLOCK
  2
-028-BLKF043_26
 70
   64
 10
0
 20
0
 30
0
  0
LINE
  8
_0-0_0
  6
CONTINUOUS
 62
    4
 10
93.728244000000003
 20
142.25727900000001
 11
97.192683999999999
 21
142.332909
  0
LINE
  8
_0-0_0
  6
CONTINUOUS
 62
    4
 10
97.192683999999999
 20
142.332909
 11
100.63075899999998
 21
142.55922499999999
  0
LINE
  8
_0-0_0
  6
CONTINUOUS
 62
    4
 10
100.63075899999998
 20
142.55922499999999
 11
104.01630099999998
 21
142.934503
  0
LINE
  8
_0-0_0
  6
CONTINUOUS
 62
    4
 10
104.01630099999998
 20
142.934503
 11
107.32354399999998
 21
143.45588799999998
  0
LINE
  8
_0-0_0
  6
CONTINUOUS
 62
    4
 10
107.32354399999998
 20
143.45588799999998
 11
110.52732
 21
144.11941200000001
  0
LINE
  8
_0-0_0
  6
CONTINUOUS
 62
    4
 10
110.52732
 20
144.11941200000001
 11
113.603244
 21
144.92002400000001
  0
LINE
  8
_0-0_0
  6
CONTINUOUS
 62
    4
 10
113.603244
 20
144.92002400000001
 11
115.888176
 21
145.63228
  0
ENDBLK
  0
BLOCK
  2
-029-BLKF044_27
 70
   64
 10
0
 20
0
 30
0
  0
LINE
  8
_0-0_0
  6
CONTINUOUS
 62
    4
 10
111.398007
 20
145.76953800000001
 11
111.52874099999999
 21
145.77239199999999
  0
LINE
  8
_0-0_0
  6
CONTINUOUS
 62
    4
 10
111.52874099999999
 20
145.77239199999999
 11
111.65847999999998
 21
145.780932
  0
LINE
  8
_0-0_0
  6
CONTINUOUS
 62
    4
 10
111.65847999999998
 20
145.780932
 11
111.786236
 21
145.795094
  0
LINE
  8
_0-0_0
  6
CONTINUOUS
 62
    4
 10
111.786236
 20
145.795094
 11
111.911038
 21
145.81476900000001
  0
LINE
  8
_0-0_0
  6
CONTINUOUS
 62
    4
 10
111.911038
 20
145.81476900000001
 11
112.031935
 21
145.839807
  0
LINE
  8
_0-0_0
  6
CONTINUOUS
 62
    4
 10
112.031935
 20
145.839807
 11
112.055564
 21
145.84544299999998
  0
ENDBLK
  0
BLOCK
  2
-030-BLKF018_35
 70
   64
 10
0
 20
0
 30
0
  0
LINE
  8
_0-3_0-10
  6
CONTINUOUS
 62
    4
 10
111.728244
 20
214.25727900000001
 11
111.85897699999999
 21
214.26013299999999
  0
LINE
  8
_0-3_0-10
  6
CONTINUOUS
 62
    4
 10
111.85897699999999
 20
214.26013299999999
 11
111.98871599999999
 21
214.268673
  0
LINE
  8
_0-3_0-10
  6
CONTINUOUS
 62
    4
 10
111.98871599999999
 20
214.268673
 11
112.116472
 21
214.282834
  0
LINE
  8
_0-3_0-10
  6
CONTINUOUS
 62
    4
 10
112.116472
 20
214.282834
 11
112.241274
 21
214.30250899999998
  0
LINE
  8
_0-3_0-10
  6
CONTINUOUS
 62
    4
 10
112.241274
 20
214.30250899999998
 11
112.362171
 21
214.327548
  0
LINE
  8
_0-3_0-10
  6
CONTINUOUS
 62
    4
 10
112.362171
 20
214.327548
 11
112.478244
 21
214.35776000000001
  0
LINE
  8
_0-3_0-10
  6
CONTINUOUS
 62
    4
 10
112.478244
 20
214.35776000000001
 11
112.58860799999999
 21
214.39291499999998
  0
LINE
  8
_0-3_0-10
  6
CONTINUOUS
 62
    4
 10
112.58860799999999
 20
214.39291499999998
 11
112.692425
 21
214.43274500000001
  0
LINE
  8
_0-3_0-10
  6
CONTINUOUS
 62
    4
 10
112.692425
 20
214.43274500000001
 11
112.788904
 21
214.47694899999999
  0
LINE
  8
_0-3_0-10
  6
CONTINUOUS
 62
    4
 10
112.788904
 20
214.47694899999999
 11
112.87730999999999
 21
214.52518800000001
  0
LINE
  8
_0-3_0-10
  6
CONTINUOUS
 62
    4
 10
112.87730999999999
 20
214.52518800000001
 11
112.95697199999999
 21
214.57709600000001
  0
LINE
  8
_0-3_0-10
  6
CONTINUOUS
 62
    4
 10
112.95697199999999
 20
214.57709600000001
 11
113.02728199999998
 21
214.63227900000001
  0
LINE
  8
_0-3_0-10
  6
CONTINUOUS
 62
    4
 10
113.02728199999998
 20
214.63227900000001
 11
113.08770499999998
 21
214.69031499999999
  0
LINE
  8
_0-3_0-10
  6
CONTINUOUS
 62
    4
 10
113.08770499999998
 20
214.69031499999999
 11
113.13778299999998
 21
214.750764
  0
LINE
  8
_0-3_0-10
  6
CONTINUOUS
 62
    4
 10
113.13778299999998
 20
214.750764
 11
113.177132
 21
214.813164
  0
LINE
  8
_0-3_0-10
  6
CONTINUOUS
 62
    4
 10
113.177132
 20
214.813164
 11
113.205455
 21
214.87704299999998
  0
LINE
  8
_0-3_0-10
  6
CONTINUOUS
 62
    4
 10
113.205455
 20
214.87704299999998
 11
113.222536
 21
214.941912
  0
LINE
  8
_0-3_0-10
  6
CONTINUOUS
 62
    4
 10
113.222536
 20
214.941912
 11
113.228244
 21
215.00727900000001
  0
ENDBLK
  0
BLOCK
  2
-031-_D31
 70
   64
 10
0
 20
0
 30
0
  0
LINE
  8
_0-0_0
  6
CONTINUOUS
 62
    7
 10
470.13887737658779
 20
256.4999993084931
 11
502.19313070992467
 21
256.4999993084931
  0
LINE
  8
_0-0_0
  6
CONTINUOUS
 62
    7
 10
470.13887737658779
 20
111.4999993084976
 11
502.19313070992478
 21
111.4999993084977
  0
LINE
  8
_0-0_0
  6
CONTINUOUS
 62
    7
 10
501.19313070992467
 20
253.4999993084931
 11
501.19313070992478
 21
114.4999993084977
  0
INSERT
  2
-002-EDTIP_ARROW_S
  8
_0-0_0
 10
501.19313070992467
 20
256.4999993084931
 41
3
 42
3
 50
90
  0
INSERT
  2
-003-EDTIP_ARROW_E
  8
_0-0_0
 10
501.19313070992478
 20
111.4999993084977
 41
3
 42
3
 50
270
  0
TEXT
  8
_0-0_0
 62
    7
 10
500.69313070992467
 20
181.7499993084952
 40
3
 41
1
 50
90
  1
145
  0
POINT
  8
_0-5__0-5__0-2_Defpoints
 62
    7
 10
469.13887737658779
 20
256.4999993084931
  0
POINT
  8
_0-5__0-5__0-2_Defpoints
 62
    7
 10
469.13887737658779
 20
111.4999993084976
  0
POINT
  8
_0-5__0-5__0-2_Defpoints
 62
    7
 10
501.19313070992478
 20
111.4999993084977
  0
ENDBLK
  0
BLOCK
  2
-032-_D32
 70
   64
 10
0
 20
0
 30
0
  0
LINE
  8
_0-0_0
  6
CONTINUOUS
 62
    7
 10
416.3388773765879
 20
282.49999930849287
 11
502.1997973765919
 21
282.49999930849287
  0
LINE
  8
_0-0_0
  6
CONTINUOUS
 62
    7
 10
470.13887737658779
 20
256.4999993084931
 11
502.1997973765919
 21
256.4999993084931
  0
LINE
  8
_0-0_0
  6
CONTINUOUS
 62
    7
 10
501.1997973765919
 20
279.49999930849287
 11
501.1997973765919
 21
259.4999993084931
  0
INSERT
  2
-002-EDTIP_ARROW_S
  8
_0-0_0
 10
501.1997973765919
 20
282.49999930849287
 41
3
 42
3
 50
90
  0
INSERT
  2
-003-EDTIP_ARROW_E
  8
_0-0_0
 10
501.1997973765919
 20
256.4999993084931
 41
3
 42
3
 50
270
  0
TEXT
  8
_0-0_0
 62
    7
 10
500.6997973765919
 20
267.99999930849281
 40
3
 41
1
 50
90
  1
26
  0
POINT
  8
_0-5__0-5__0-2_Defpoints
 62
    7
 10
415.3388773765879
 20
282.49999930849287
  0
POINT
  8
_0-5__0-5__0-2_Defpoints
 62
    7
 10
469.13887737658779
 20
256.4999993084931
  0
POINT
  8
_0-5__0-5__0-2_Defpoints
 62
    7
 10
501.1997973765919
 20
256.4999993084931
  0
ENDBLK
  0
BLOCK
  2
-033-_D33
 70
   64
 10
0
 20
0
 30
0
  0
LINE
  8
_0-0_0
  6
CONTINUOUS
 62
    7
 10
415.33887737658761
 20
283.4999993084927
 11
415.33887737658761
 21
294.63409930849252
  0
LINE
  8
_0-0_0
  6
CONTINUOUS
 62
    7
 10
331.82507204325429
 20
283.4999993084927
 11
331.82507204325429
 21
294.63409930849252
  0
LINE
  8
_0-0_0
  6
CONTINUOUS
 62
    7
 10
412.33887737658761
 20
293.63409930849252
 11
334.82507204325429
 21
293.63409930849252
  0
INSERT
  2
-002-EDTIP_ARROW_S
  8
_0-0_0
 10
415.33887737658761
 20
293.63409930849252
 41
3
 42
3
 50
0
  0
INSERT
  2
-003-EDTIP_ARROW_E
  8
_0-0_0
 10
331.82507204325429
 20
293.63409930849252
 41
3
 42
3
 50
180
  0
TEXT
  8
_0-0_0
 62
    7
 10
372.08197470992098
 20
294.13409930849252
 40
3
 41
1
 50
0
  1
84
  0
POINT
  8
_0-5__0-5__0-2_Defpoints
 62
    7
 10
415.33887737658761
 20
282.4999993084927
  0
POINT
  8
_0-5__0-5__0-2_Defpoints
 62
    7
 10
331.82507204325429
 20
282.4999993084927
  0
POINT
  8
_0-5__0-5__0-2_Defpoints
 62
    7
 10
331.82507204325429
 20
293.63409930849252
  0
ENDBLK
  0
BLOCK
  2
-034-_D34
 70
   64
 10
0
 20
0
 30
0
  0
LINE
  8
_0-0_0
  6
CONTINUOUS
 62
    7
 10
415.33887737658761
 20
283.4999993084927
 11
415.33887737658761
 21
294.63409930849252
  0
LINE
  8
_0-0_0
  6
CONTINUOUS
 62
    7
 10
469.13887737658757
 20
228.49999930849298
 11
469.13887737658757
 21
294.63409930849252
  0
LINE
  8
_0-0_0
  6
CONTINUOUS
 62
    7
 10
418.33887737658767
 20
293.63409930849252
 11
466.13887737658757
 21
293.63409930849252
  0
INSERT
  2
-002-EDTIP_ARROW_S
  8
_0-0_0
 10
415.33887737658761
 20
293.63409930849252
 41
3
 42
3
 50
180
  0
INSERT
  2
-003-EDTIP_ARROW_E
  8
_0-0_0
 10
469.13887737658757
 20
293.63409930849252
 41
3
 42
3
 50
0
  0
TEXT
  8
_0-0_0
 62
    7
 10
440.73887737658759
 20
294.13409930849252
 40
3
 41
1
 50
0
  1
54
  0
POINT
  8
_0-5__0-5__0-2_Defpoints
 62
    7
 10
415.33887737658761
 20
282.4999993084927
  0
POINT
  8
_0-5__0-5__0-2_Defpoints
 62
    7
 10
469.13887737658757
 20
227.49999930849298
  0
POINT
  8
_0-5__0-5__0-2_Defpoints
 62
    7
 10
469.13887737658757
 20
293.63409930849252
  0
ENDBLK
  0
BLOCK
  2
-035-_D35
 70
   64
 10
0
 20
0
 30
0
  0
LINE
  8
_0-0_0
  6
CONTINUOUS
 62
    7
 10
330.8250720432544
 20
282.49999930849281
 11
316.08891604325708
 21
282.49999930849281
  0
LINE
  8
_0-0_0
  6
CONTINUOUS
 62
    7
 10
330.8250720432544
 20
76.499999308492874
 11
316.08891604325708
 21
76.499999308492874
  0
LINE
  8
_0-0_0
  6
CONTINUOUS
 62
    7
 10
317.08891604325708
 20
279.49999930849281
 11
317.08891604325708
 21
79.499999308492874
  0
INSERT
  2
-002-EDTIP_ARROW_S
  8
_0-0_0
 10
317.08891604325708
 20
282.49999930849281
 41
3
 42
3
 50
90
  0
INSERT
  2
-003-EDTIP_ARROW_E
  8
_0-0_0
 10
317.08891604325708
 20
76.499999308492874
 41
3
 42
3
 50
270
  0
TEXT
  8
_0-0_0
 62
    7
 10
316.58891604325708
 20
177.2499993084927
 40
3
 41
1
 50
90
  1
206
  0
POINT
  8
_0-5__0-5__0-2_Defpoints
 62
    7
 10
331.8250720432544
 20
282.49999930849281
  0
POINT
  8
_0-5__0-5__0-2_Defpoints
 62
    7
 10
331.8250720432544
 20
76.499999308492874
  0
POINT
  8
_0-5__0-5__0-2_Defpoints
 62
    7
 10
317.08891604325708
 20
76.499999308492874
  0
ENDBLK
  0
BLOCK
  2
-036-_D36
 70
   64
 10
0
 20
0
 30
0
  0
LINE
  8
_0-0_0
  6
CONTINUOUS
 62
    7
 10
397.33887737658767
 20
63.751024641826312
 11
397.33887737658767
 21
50.958455308492922
  0
LINE
  8
_0-0_0
  6
CONTINUOUS
 62
    7
 10
415.33887737658761
 20
78.577691308492916
 11
415.33887737658761
 21
50.958455308492922
  0
LINE
  8
_0-0_0
  6
CONTINUOUS
 62
    7
 10
400.33887737658761
 20
51.958455308492908
 11
412.33887737658761
 21
51.958455308492908
  0
INSERT
  2
-002-EDTIP_ARROW_S
  8
_0-0_0
 10
397.33887737658767
 20
51.958455308492908
 41
3
 42
3
 50
180
  0
INSERT
  2
-003-EDTIP_ARROW_E
  8
_0-0_0
 10
415.33887737658761
 20
51.958455308492908
 41
3
 42
3
 50
0
  0
TEXT
  8
_0-0_0
 62
    7
 10
404.83887737658761
 20
52.458455308492922
 40
3
 41
1
 50
0
  1
18
  0
POINT
  8
_0-5__0-5__0-2_Defpoints
 62
    7
 10
397.33887737658767
 20
64.751024641826319
  0
POINT
  8
_0-5__0-5__0-2_Defpoints
 62
    7
 10
415.33887737658761
 20
79.577691308492916
  0
POINT
  8
_0-5__0-5__0-2_Defpoints
 62
    7
 10
415.33887737658761
 20
51.958455308492908
  0
ENDBLK
  0
BLOCK
  2
-037-_D37
 70
   64
 10
0
 20
0
 30
0
  0
LINE
  8
_0-0_0
  6
CONTINUOUS
 62
    7
 10
264.77602838820172
 20
283.49999930849281
 11
264.77602838820172
 21
294.63409930849269
  0
LINE
  8
_0-0_0
  6
CONTINUOUS
 62
    7
 10
68.776028388201652
 20
283.49999930849281
 11
68.776028388201652
 21
294.63409930849269
  0
LINE
  8
_0-0_0
  6
CONTINUOUS
 62
    7
 10
261.77602838820172
 20
293.63409930849269
 11
71.776028388201652
 21
293.63409930849269
  0
INSERT
  2
-002-EDTIP_ARROW_S
  8
_0-0_0
 10
264.77602838820172
 20
293.63409930849269
 41
3
 42
3
 50
0
  0
INSERT
  2
-003-EDTIP_ARROW_E
  8
_0-0_0
 10
68.776028388201652
 20
293.63409930849269
 41
3
 42
3
 50
180
  0
TEXT
  8
_0-0_0
 62
    7
 10
164.5260283882016
 20
294.13409930849269
 40
3
 41
1
 50
0
  1
196
  0
POINT
  8
_0-5__0-5__0-2_Defpoints
 62
    7
 10
264.77602838820172
 20
282.49999930849281
  0
POINT
  8
_0-5__0-5__0-2_Defpoints
 62
    7
 10
68.776028388201652
 20
282.49999930849281
  0
POINT
  8
_0-5__0-5__0-2_Defpoints
 62
    7
 10
68.776028388201652
 20
293.63409930849269
  0
ENDBLK
  0
BLOCK
  2
-038-_D38
 70
   64
 10
0
 20
0
 30
0
  0
LINE
  8
_0-0_0
  6
CONTINUOUS
 62
    7
 10
67.77602838820168
 20
282.49999930849287
 11
43.844817721534411
 21
282.49999930849287
  0
LINE
  8
_0-0_0
  6
CONTINUOUS
 62
    7
 10
61.77602838820168
 20
61.499999308492839
 11
43.844817721534461
 21
61.499999308492839
  0
LINE
  8
_0-0_0
  6
CONTINUOUS
 62
    7
 10
44.844817721534411
 20
279.49999930849287
 11
44.844817721534461
 21
64.499999308492846
  0
INSERT
  2
-002-EDTIP_ARROW_S
  8
_0-0_0
 10
44.844817721534411
 20
282.49999930849287
 41
3
 42
3
 50
90
  0
INSERT
  2
-003-EDTIP_ARROW_E
  8
_0-0_0
 10
44.844817721534461
 20
61.499999308492839
 41
3
 42
3
 50
270
  0
TEXT
  8
_0-0_0
 62
    7
 10
44.344817721534468
 20
169.74999930849278
 40
3
 41
1
 50
90
  1
221
  0
POINT
  8
_0-5__0-5__0-2_Defpoints
 62
    7
 10
68.77602838820168
 20
282.49999930849287
  0
POINT
  8
_0-5__0-5__0-2_Defpoints
 62
    7
 10
62.77602838820168
 20
61.499999308492839
  0
POINT
  8
_0-5__0-5__0-2_Defpoints
 62
    7
 10
44.844817721534461
 20
61.499999308492839
  0
ENDBLK
  0
BLOCK
  2
-039-_D39
 70
   64
 10
0
 20
0
 30
0
  0
LINE
  8
_0-0_0
  6
CONTINUOUS
 62
    7
 10
270.7760283882016
 20
80.660253975159633
 11
270.7760283882016
 21
50.958455308492922
  0
LINE
  8
_0-0_0
  6
CONTINUOUS
 62
    7
 10
62.776028388201652
 20
80.660253975159633
 11
62.776028388201652
 21
50.958455308492922
  0
LINE
  8
_0-0_0
  6
CONTINUOUS
 62
    7
 10
267.77602838820172
 20
51.958455308492908
 11
65.776028388201652
 21
51.958455308492908
  0
INSERT
  2
-002-EDTIP_ARROW_S
  8
_0-0_0
 10
270.7760283882016
 20
51.958455308492908
 41
3
 42
3
 50
0
  0
INSERT
  2
-003-EDTIP_ARROW_E
  8
_0-0_0
 10
62.776028388201652
 20
51.958455308492908
 41
3
 42
3
 50
180
  0
TEXT
  8
_0-0_0
 62
    7
 10
164.5260283882016
 20
52.458455308492922
 40
3
 41
1
 50
0
  1
208
  0
POINT
  8
_0-5__0-5__0-2_Defpoints
 62
    7
 10
270.7760283882016
 20
81.660253975159633
  0
POINT
  8
_0-5__0-5__0-2_Defpoints
 62
    7
 10
62.776028388201652
 20
81.660253975159633
  0
POINT
  8
_0-5__0-5__0-2_Defpoints
 62
    7
 10
62.776028388201652
 20
51.958455308492908
  0
ENDBLK
  0
ENDSEC
  0
SECTION
  2
ENTITIES
  0
LINE
  8
_0-3_0-10
  6
CONTINUOUS
 62
    3
 10
-43.736435136080672
 20
325.99727079445608
 11
463.76356486391955
 21
325.99727079445608
  0
LINE
  8
_0-3_0-10
  6
CONTINUOUS
 62
    3
 10
210.01356486391938
 20
-29.002729205543914
 11
210.01356486391938
 21
-26.502729205543914
  0
LINE
  8
_0-3_0-10
  6
CONTINUOUS
 62
    3
 10
463.76356486391932
 20
-29.002729205543914
 11
463.76356486391932
 21
325.99727079445608
  0
LINE
  8
_0-3_0-10
  6
CONTINUOUS
 62
    3
 10
-43.736435136080615
 20
-29.002729205543914
 11
-43.736435136080615
 21
325.99727079445608
  0
LINE
  8
_0-3_0-10
  6
CONTINUOUS
 62
    3
 10
-43.736435136080615
 20
-29.002729205543914
 11
463.76356486391932
 21
-29.002729205543914
  0
LINE
  8
_0-1_0-00
  6
CONTINUOUS
 62
    3
 10
220.01356486392069
 20
-16.502729205543914
 11
463.76356486391932
 21
-16.502729205543914
  0
LINE
  8
_0-1_0-00
  6
CONTINUOUS
 62
    3
 10
220.01356486392069
 20
-16.502729205543914
 11
220.01356486392069
 21
-29.002729205543914
  0
LINE
  8
_0-1_0-00
  6
CONTINUOUS
 62
    3
 10
295.01356486392057
 20
-16.502729205543914
 11
295.01356486392057
 21
-29.002729205543914
  0
LINE
  8
_0-1_0-00
  6
CONTINUOUS
 62
    3
 10
370.01356486392046
 20
-16.502729205543914
 11
370.01356486392046
 21
-29.002729205543914
  0
LINE
  8
_0-3_0-10
  6
CONTINUOUS
 62
    3
 10
280.83863788506266
 20
246.9972707944558
 11
364.35244321839599
 21
246.9972707944558
  0
LINE
  8
_0-3_0-10
  6
CONTINUOUS
 62
    3
 10
280.83863788506266
 20
246.9972707944558
 11
280.83863788506266
 21
40.997270794455943
  0
LINE
  8
_0-3_0-10
  6
CONTINUOUS
 62
    5
 10
354.85244321839604
 20
246.4972707944558
 11
358.35244321839604
 21
246.4972707944558
  0
ARC
  8
_0-3_0-10
  6
CONTINUOUS
 62
    5
 10
358.85244321839604
 20
246.4972707944558
 40
0.5
 50
90
 51
180
  0
LINE
  8
_0-3_0-10
  6
CONTINUOUS
 62
    3
 10
281.33863788506266
 20
246.9972707944558
 11
281.33863788506266
 21
40.997270794455943
  0
LINE
  8
_0-3_0-10
  6
CONTINUOUS
 62
    3
 10
360.35244321839599
 20
40.997270794455943
 11
363.75244321839585
 21
44.397270794456019
  0
ARC
  8
_0-3_0-10
  6
CONTINUOUS
 62
    6
 10
415.15244321839594
 20
217.99727079445619
 40
3
 50
0
 51
90
  0
ARC
  8
_0-3_0-10
  6
CONTINUOUS
 62
    6
 10
415.15244321839594
 20
78.997270794460703
 40
3
 50
270
 51
0
  0
LINE
  8
_0-3_0-10
  6
CONTINUOUS
 62
    6
 10
415.15244321839594
 20
75.997270794460703
 11
363.15244321839594
 21
75.997270794460703
  0
LINE
  8
_0-3_0-10
  6
CONTINUOUS
 62
    6
 10
363.15244321839594
 20
220.99727079445619
 11
415.15244321839594
 21
220.99727079445619
  0
LINE
  8
_0-3_0-10
  6
CONTINUOUS
 62
    6
 10
358.65244321839594
 20
235.29727079445586
 11
358.65244321839594
 21
64.197270794460763
  0
LINE
  8
_0-3_0-10
  6
CONTINUOUS
 62
    6
 10
359.15244321839594
 20
235.29727079445586
 11
359.15244321839594
 21
224.99727079445619
  0
ARC
  8
_0-3_0-10
  6
CONTINUOUS
 62
    6
 10
363.15244321839594
 20
224.99727079445619
 40
4
 50
180
 51
270
  0
ARC
  8
_0-3_0-10
  6
CONTINUOUS
 62
    6
 10
363.15244321839594
 20
71.997270794460703
 40
4
 50
90
 51
180
  0
LINE
  8
_0-3_0-10
  6
CONTINUOUS
 62
    6
 10
359.15244321839594
 20
71.997270794460703
 11
359.15244321839594
 21
64.197270794460763
  0
LINE
  8
_0-3_0-10
  6
CONTINUOUS
 62
    6
 10
359.35244321839599
 20
245.9972707944558
 11
359.85244321839599
 21
245.9972707944558
  0
LINE
  8
_0-3_0-10
  6
CONTINUOUS
 62
    3
 10
280.83863788506266
 20
40.997270794455943
 11
360.35244321839599
 21
40.997270794455943
  0
LINE
  8
_0-3_0-10
  6
CONTINUOUS
 62
    3
 10
363.75244321839585
 20
46.184320127789277
 11
363.75244321839585
 21
44.397270794456019
  0
LINE
  8
_0-3_0-10
  6
CONTINUOUS
 62
    5
 10
358.35244321839604
 20
246.4972707944558
 11
358.35244321839604
 21
237.38093479445569
  0
LINE
  8
_0-3_0-10
  6
CONTINUOUS
 62
    5
 10
358.85244321839604
 20
236.9972707944558
 11
322.63022455172927
 21
227.2915574611224
  0
LINE
  8
_0-3_0-10
  6
CONTINUOUS
 62
    5
 10
358.85244321839604
 20
246.9972707944558
 11
364.35244321839599
 21
246.9972707944558
  0
LINE
  8
_0-3_0-10
  6
CONTINUOUS
 62
    5
 10
358.85244321839604
 20
246.4972707944558
 11
358.85244321839604
 21
236.29727079445586
  0
ARC
  8
_0-3_0-10
  6
CONTINUOUS
 62
    5
 10
358.35244321839604
 20
237.38093479445569
 40
0.5
 50
285.00000000000119
 51
0.0000000000000127
  0
LINE
  8
_0-3_0-10
  6
CONTINUOUS
 62
    5
 10
322.01785121839594
 20
227.64511079445577
 11
320.85316588506276
 21
231.99177612778902
  0
LINE
  8
_0-3_0-10
  6
CONTINUOUS
 62
    5
 10
321.33612855172924
 20
232.1211867944558
 11
320.85316588506276
 21
231.99177612778902
  0
LINE
  8
_0-3_0-10
  6
CONTINUOUS
 62
    5
 10
322.50081521839587
 20
227.77452012778911
 11
321.33612855172924
 21
232.1211867944558
  0
LINE
  8
_0-3_0-10
  6
CONTINUOUS
 62
    5
 10
322.14726188506267
 20
227.4209667944558
 11
322.14726188506267
 21
223.06317879445589
  0
LINE
  8
_0-3_0-10
  6
CONTINUOUS
 62
    5
 10
322.01785121839594
 20
223.28732279445569
 11
321.19390721839607
 21
226.36232412778912
  0
LINE
  8
_0-3_0-10
  6
CONTINUOUS
 62
    5
 10
320.85316588506276
 20
231.99177612778902
 11
320.85316588506276
 21
228.95051479445567
  0
LINE
  8
_0-3_0-10
  6
CONTINUOUS
 62
    5
 10
329.74525788506269
 20
224.46519346112239
 11
329.74525788506269
 21
224.29136546112238
  0
LINE
  8
_0-3_0-10
  6
CONTINUOUS
 62
    5
 10
329.11937655172937
 20
224.67253346112238
 11
322.63022455172927
 21
222.93376946112238
  0
LINE
  8
_0-3_0-10
  6
CONTINUOUS
 62
    5
 10
329.74525788506269
 20
224.29136546112238
 11
329.87466855172925
 21
223.80840279445567
  0
LINE
  8
_0-3_0-10
  6
CONTINUOUS
 62
    5
 10
329.87466855172925
 20
224.09297746112241
 11
329.87466855172925
 21
223.80840279445567
  0
ARC
  8
_0-3_0-10
  6
CONTINUOUS
 62
    5
 10
322.50081521839587
 20
223.41673212778908
 40
0.5
 50
195.0000000000011
 51
285.00000000000119
  0
ARC
  8
_0-3_0-10
  6
CONTINUOUS
 62
    5
 10
322.50081521839587
 20
227.77452012778911
 40
0.5
 50
195.0000000000011
 51
285.00000000000119
  0
LINE
  8
_0-3_0-10
  6
CONTINUOUS
 62
    5
 10
353.85244321839604
 20
245.4972707944558
 11
353.85244321839604
 21
236.17516279445561
  0
ARC
  8
_0-3_0-10
  6
CONTINUOUS
 62
    5
 10
329.27466855172929
 20
224.09297746112241
 40
0.5999999999999997
 50
0
 51
105.00000000000119
  0
ARC
  8
_0-3_0-10
  6
CONTINUOUS
 62
    5
 10
354.85244321839604
 20
245.4972707944558
 40
1
 50
90
 51
180
  0
ARC
  8
_0-3_0-10
  6
CONTINUOUS
 62
    5
 10
330.85316588506265
 20
228.95051479445567
 40
10
 50
180
 51
195.0000000000011
  0
LINE
  8
_0-3_0-10
  6
CONTINUOUS
 62
    5
 10
358.35244321839604
 20
237.38093479445569
 11
322.50081521839587
 21
227.77452012778911
  0
LINE
  8
_0-3_0-10
  6
CONTINUOUS
 62
    3
 10
328.59825388506254
 20
246.9972707944558
 11
328.59825388506254
 21
229.408324127789
  0
LINE
  8
_0-3_0-10
  6
CONTINUOUS
 62
    3
 10
328.59825388506254
 20
224.53289879445577
 11
328.59825388506254
 21
40.997270794455943
  0
LINE
  8
_0-3_0-10
  6
CONTINUOUS
 62
    5
 10
358.85244321839604
 20
246.4972707944558
 11
364.35244321839599
 21
246.4972707944558
  0
LINE
  8
_0-3_0-10
  6
CONTINUOUS
 62
    3
 10
364.35244321839599
 20
75.997270794460703
 11
364.35244321839599
 21
46.697270794455974
  0
ARC
  8
_0-3_0-10
  6
CONTINUOUS
 62
    3
 10
364.05244321839586
 20
46.697270794455974
 40
0.2999999999999998
 50
309.92769199999742
 51
0
  0
LINE
  8
_0-0_0
  6
CONTINUOUS
 62
    7
 10
416.15244321839594
 20
75.997270794460703
 11
451.54002988506385
 21
75.997270794460703
  0
LINE
  8
_0-0_0
  6
CONTINUOUS
 62
    7
 10
416.15244321839594
 20
220.99727079445608
 11
451.54002988506385
 21
220.99727079445608
  0
LINE
  8
_0-0_0
  6
CONTINUOUS
 62
    7
 10
450.20669655173054
 20
79.997270794460703
 11
450.20669655173054
 21
216.99727079445608
  0
INSERT
  2
-000-EDTIP_ARROW_S_0
  8
_0-0_0
 10
450.20669655173054
 20
75.997270794460703
 41
4
 42
4
 50
270
  0
INSERT
  2
-001-EDTIP_ARROW_E_1
  8
_0-0_0
 10
450.20669655173054
 20
220.99727079445608
 41
4
 42
4
 50
90
  0
CIRCLE
  8
_0-1_0-00
  6
CONTINUOUS
 62
    7
 10
414.81910988506257
 20
75.997270794460703
 40
0.0066666666666667
  0
CIRCLE
  8
_0-1_0-00
  6
CONTINUOUS
 62
    7
 10
414.81910988506257
 20
220.99727079445608
 40
0.0066666666666667
  0
CIRCLE
  8
_0-1_0-00
  6
CONTINUOUS
 62
    7
 10
450.20669655173054
 20
220.99727079445608
 40
0.0066666666666667
  0
LINE
  8
_0-3_0-10
  6
CONTINUOUS
 62
    6
 10
359.15244321839594
 20
235.29727079445586
 11
358.65244321839594
 21
235.29727079445586
  0
LINE
  8
_0-3_0-10
  6
CONTINUOUS
 62
    5
 10
357.65244321839594
 20
231.2514347944558
 11
329.87466855172925
 21
223.80840279445567
  0
LINE
  8
_0-3_0-10
  6
CONTINUOUS
 62
    7
 10
362.39828588506264
 20
246.4972707944558
 11
363.26431121839584
 21
245.9972707944558
  0
LINE
  8
_0-3_0-10
  6
CONTINUOUS
 62
    6
 10
359.15244321839594
 20
64.197270794460763
 11
358.65244321839594
 21
64.197270794460763
  0
LINE
  8
_0-3_0-10
  6
CONTINUOUS
 62
    6
 10
418.15244321839594
 20
127.234862794456
 11
418.15244321839594
 21
78.997270794460703
  0
LINE
  8
_0-3_0-10
  6
CONTINUOUS
 62
    6
 10
418.15244321839594
 20
217.99727079445619
 11
418.15244321839594
 21
127.2348626523854
  0
LINE
  8
_0-3_0-10
  6
CONTINUOUS
 62
    3
 10
364.35244321839599
 20
246.9972707944558
 11
364.35244321839599
 21
220.99727079445619
  0
INSERT
  2
-031-_D31
  8
_0-0_0
 10
-50.986434158191627
 20
-35.502728514036903
 41
1
 42
1
 50
0
  0
INSERT
  2
-032-_D32
  8
_0-0_0
 10
-50.986434158191627
 20
-35.502728514036903
 41
1
 42
1
 50
0
  0
INSERT
  2
-033-_D33
  8
_0-0_0
 10
-50.986434158191627
 20
-35.502728514036903
 41
1
 42
1
 50
0
  0
INSERT
  2
-034-_D34
  8
_0-0_0
 10
-50.986434158191627
 20
-35.502728514036903
 41
1
 42
1
 50
0
  0
INSERT
  2
-035-_D35
  8
_0-0_0
 10
-50.986434158191627
 20
-35.502728514036903
 41
1
 42
1
 50
0
  0
INSERT
  2
-036-_D36
  8
_0-0_0
 10
-50.986434158191627
 20
-35.502728514036903
 41
1
 42
1
 50
0
  0
LINE
  8
_0-3_0-10
  6
CONTINUOUS
 62
    7
 10
2.1083528966766778
 20
148.49727079445608
 11
229.47083423001009
 21
148.49727079445608
  0
LINE
  8
_0-3_0-10
  6
CONTINUOUS
 62
    7
 10
115.78959423000998
 20
255.48806812778917
 11
115.78959423000998
 21
24.086372948584426
  0
LINE
  8
_0-3_0-10
  6
CONTINUOUS
 62
    3
 10
26.789594230010038
 20
246.99727079445591
 11
26.789594230010038
 21
40.997270794455943
  0
LINE
  8
_0-3_0-10
  6
CONTINUOUS
 62
    3
 10
204.78959423001006
 20
246.99727079445591
 11
204.78959423001006
 21
40.997270794455943
  0
LINE
  8
_0-3_0-10
  6
CONTINUOUS
 62
    3
 10
213.78959423001009
 20
246.99727079445591
 11
204.28959423001006
 21
246.99727079445591
  0
LINE
  8
_0-3_0-10
  6
CONTINUOUS
 62
    3
 10
213.78959423001009
 20
246.99727079445591
 11
213.78959423001009
 21
40.997270794455943
  0
LINE
  8
_0-3_0-10
  6
CONTINUOUS
 62
    3
 10
17.789594230010038
 20
246.99727079445591
 11
17.789594230010038
 21
40.997270794455943
  0
LINE
  8
_0-3_0-10
  6
CONTINUOUS
 62
    7
 10
22.289594230010038
 20
183.27024146112259
 11
22.289594230010038
 21
173.72430012778929
  0
ARC
  8
_0-3_0-10
  6
CONTINUOUS
 62
    3
 10
22.289594230010038
 20
178.49727079445608
 40
2.149999999999999
 50
8.0209330000002072
 51
171.97906699999998
  0
ARC
  8
_0-3_0-10
  6
CONTINUOUS
 62
    3
 10
22.289594230010038
 20
178.49727079445608
 40
2.149999999999999
 50
188.02093299999987
 51
351.97906699999981
  0
LINE
  8
_0-3_0-10
  6
CONTINUOUS
 62
    7
 10
17.516623563343387
 20
178.49727079445608
 11
27.06256489667669
 21
178.49727079445608
  0
LINE
  8
_0-3_0-10
  6
CONTINUOUS
 62
    3
 10
213.78959423001009
 20
40.997270794455943
 11
204.28959423001006
 21
40.997270794455943
  0
LINE
  8
_0-3_0-10
  6
CONTINUOUS
 62
    4
 10
219.78959423000998
 20
46.15752546112273
 11
219.78959423000998
 21
33.520236127789274
  0
LINE
  8
_0-3_0-10
  6
CONTINUOUS
 62
    4
 10
219.28959423001009
 20
46.15752546112273
 11
219.28959423001009
 21
33.520236127789274
  0
LINE
  8
_0-3_0-10
  6
CONTINUOUS
 62
    4
 10
219.28959423001009
 20
33.520236127789274
 11
219.78959423000998
 21
33.520236127789274
  0
LINE
  8
_0-3_0-10
  6
CONTINUOUS
 62
    4
 10
11.789594230010038
 20
46.15752546112273
 11
11.789594230010038
 21
33.520236127789274
  0
LINE
  8
_0-3_0-10
  6
CONTINUOUS
 62
    4
 10
12.289594230010038
 20
46.15752546112273
 11
12.289594230010038
 21
33.520236127789274
  0
LINE
  8
_0-3_0-10
  6
CONTINUOUS
 62
    4
 10
12.289594230010038
 20
33.520236127789274
 11
11.789594230010038
 21
33.520236127789274
  0
ARC
  8
_0-3_0-10
  6
CONTINUOUS
 62
    4
 10
115.78961423000976
 20
748.62439133447026
 40
722.6271205400144
 50
261.72529459576071
 51
278.27470540423928
  0
ARC
  8
_0-3_0-10
  6
CONTINUOUS
 62
    4
 10
115.78960962816836
 20
747.27494830786451
 40
720.9241241800754
 50
261.74576606327559
 51
278.25423169034672
  0
LINE
  8
_0-3_0-10
  6
CONTINUOUS
 62
    4
 10
11.789594230010038
 20
46.15752546112273
 11
17.789594230010038
 21
46.15752546112273
  0
LINE
  8
_0-3_0-10
  6
CONTINUOUS
 62
    4
 10
12.289594230010038
 20
43.748296127789416
 11
17.789594230010038
 21
43.748296127789416
  0
LINE
  8
_0-3_0-10
  6
CONTINUOUS
 62
    4
 10
98.635997965343364
 20
46.15752546112273
 11
204.28959423001006
 21
46.15752546112273
  0
LINE
  8
_0-3_0-10
  6
CONTINUOUS
 62
    4
 10
98.293751077277079
 20
43.748296127789416
 11
204.28959423001006
 21
43.748296127789416
  0
LINE
  8
_0-3_0-10
  6
CONTINUOUS
 62
    7
 10
209.28959423000998
 20
183.27024146112259
 11
209.28959423000998
 21
173.72430012778929
  0
LINE
  8
_0-3_0-10
  6
CONTINUOUS
 62
    7
 10
214.06256489667669
 20
178.49727079445608
 11
204.51662356334335
 21
178.49727079445608
  0
LINE
  8
_0-3_0-10
  6
CONTINUOUS
 62
    4
 10
204.03959423001006
 20
246.49727079445591
 11
204.28959423001006
 21
246.49727079445591
  0
LINE
  8
_0-3_0-10
  6
CONTINUOUS
 62
    4
 10
98.843968018947379
 20
47.497270794455943
 11
204.28959423001006
 21
47.497270794455943
  0
LINE
  8
_0-3_0-10
  6
CONTINUOUS
 62
    3
 10
204.28959423001006
 20
246.99727079445591
 11
204.28959423001006
 21
40.997270794455943
  0
LINE
  8
_0-3_0-10
  6
CONTINUOUS
 62
    4
 10
213.78959423001009
 20
46.15752546112273
 11
219.78959423000998
 21
46.15752546112273
  0
LINE
  8
_0-3_0-10
  6
CONTINUOUS
 62
    4
 10
213.78959423001009
 20
43.748296127789416
 11
219.28959423001009
 21
43.748296127789416
  0
LINE
  8
_0-3_0-10
  6
CONTINUOUS
 62
    7
 10
131.67593023001006
 20
246.99727079445591
 11
131.79938889667667
 21
244.61880546112257
  0
LINE
  8
_0-3_0-10
  6
CONTINUOUS
 62
    7
 10
131.79938889667667
 20
244.61880546112257
 11
131.89342889667668
 21
242.74125212778909
  0
LINE
  8
_0-3_0-10
  6
CONTINUOUS
 62
    7
 10
131.89342889667668
 20
242.74125212778909
 11
131.98053689667668
 21
240.86552146112251
  0
LINE
  8
_0-3_0-10
  6
CONTINUOUS
 62
    7
 10
131.98053689667668
 20
240.86552146112251
 11
132.05724889667666
 21
238.99252412778929
  0
LINE
  8
_0-3_0-10
  6
CONTINUOUS
 62
    7
 10
132.05724889667666
 20
238.99252412778929
 11
132.12009823001008
 21
237.12317346112257
  0
LINE
  8
_0-3_0-10
  6
CONTINUOUS
 62
    7
 10
132.12009823001008
 20
237.12317346112257
 11
132.16561956334336
 21
235.25838146112261
  0
LINE
  8
_0-3_0-10
  6
CONTINUOUS
 62
    7
 10
132.16561956334336
 20
235.25838146112261
 11
132.19034623001007
 21
233.39905612778932
  0
LINE
  8
_0-3_0-10
  6
CONTINUOUS
 62
    7
 10
132.19034623001007
 20
233.39905612778932
 11
132.19081423000997
 21
231.5461134611225
  0
LINE
  8
_0-3_0-10
  6
CONTINUOUS
 62
    7
 10
132.19081423000997
 20
231.5461134611225
 11
132.16355689667668
 21
229.70046146112258
  0
LINE
  8
_0-3_0-10
  6
CONTINUOUS
 62
    7
 10
132.16355689667668
 20
229.70046146112258
 11
132.10510889667668
 21
227.86301212778909
  0
LINE
  8
_0-3_0-10
  6
CONTINUOUS
 62
    7
 10
132.10510889667668
 20
227.86301212778909
 11
132.01200489667667
 21
226.03467879445588
  0
LINE
  8
_0-3_0-10
  6
CONTINUOUS
 62
    7
 10
132.01200489667667
 20
226.03467879445588
 11
131.88077823000998
 21
224.21637079445577
  0
LINE
  8
_0-3_0-10
  6
CONTINUOUS
 62
    7
 10
131.88077823000998
 20
224.21637079445577
 11
131.70796356334338
 21
222.4090014611225
  0
LINE
  8
_0-3_0-10
  6
CONTINUOUS
 62
    7
 10
131.70796356334338
 20
222.4090014611225
 11
131.49009689667667
 21
220.61348146112248
  0
LINE
  8
_0-3_0-10
  6
CONTINUOUS
 62
    7
 10
131.49009689667667
 20
220.61348146112248
 11
131.22371156334338
 21
218.83072146112249
  0
LINE
  8
_0-3_0-10
  6
CONTINUOUS
 62
    7
 10
131.22371156334338
 20
218.83072146112249
 11
130.90534089667667
 21
190.56163346112271
  0
LINE
  8
_0-3_0-10
  6
CONTINUOUS
 62
    7
 10
130.90534089667667
 20
190.56163346112271
 11
130.53152089667668
 21
188.80712946112268
  0
LINE
  8
_0-3_0-10
  6
CONTINUOUS
 62
    7
 10
130.53152089667668
 20
188.80712946112268
 11
130.09878356334337
 21
187.0681214611227
  0
LINE
  8
_0-3_0-10
  6
CONTINUOUS
 62
    7
 10
130.09878356334337
 20
187.0681214611227
 11
129.60366623001007
 21
185.34552012778928
  0
LINE
  8
_0-3_0-10
  6
CONTINUOUS
 62
    7
 10
129.60366623001007
 20
185.34552012778928
 11
129.04270223000997
 21
183.64023612778939
  0
LINE
  8
_0-3_0-10
  6
CONTINUOUS
 62
    7
 10
129.04270223000997
 20
183.64023612778939
 11
128.41242489667666
 21
181.95318279445598
  0
LINE
  8
_0-3_0-10
  6
CONTINUOUS
 62
    7
 10
128.41242489667666
 20
181.95318279445598
 11
127.85057289667668
 21
180.60182412778928
  0
LINE
  8
_0-3_0-10
  6
CONTINUOUS
 62
    7
 10
127.85057289667668
 20
180.60182412778928
 11
127.24654889667667
 21
179.26163212778939
  0
LINE
  8
_0-3_0-10
  6
CONTINUOUS
 62
    7
 10
127.24654889667667
 20
179.26163212778939
 11
126.60582356334336
 21
177.93123746112269
  0
LINE
  8
_0-3_0-10
  6
CONTINUOUS
 62
    7
 10
126.60582356334336
 20
177.93123746112269
 11
125.93387023000997
 21
176.60927612778939
  0
LINE
  8
_0-3_0-10
  6
CONTINUOUS
 62
    7
 10
125.93387023000997
 20
176.60927612778939
 11
125.23616089667666
 21
175.29438146112258
  0
LINE
  8
_0-3_0-10
  6
CONTINUOUS
 62
    7
 10
125.23616089667666
 20
175.29438146112258
 11
124.51816623000995
 21
173.98518812778948
  0
LINE
  8
_0-3_0-10
  6
CONTINUOUS
 62
    7
 10
124.51816623000995
 20
173.98518812778948
 11
123.78536089667666
 21
172.6803281277894
  0
LINE
  8
_0-3_0-10
  6
CONTINUOUS
 62
    7
 10
123.78536089667666
 20
172.6803281277894
 11
123.04321556334338
 21
171.37843746112258
  0
LINE
  8
_0-3_0-10
  6
CONTINUOUS
 62
    7
 10
123.04321556334338
 20
171.37843746112258
 11
122.29720223000994
 21
170.0781494611227
  0
LINE
  8
_0-3_0-10
  6
CONTINUOUS
 62
    7
 10
122.29720223000994
 20
170.0781494611227
 11
121.55279423000996
 21
168.77809746112268
  0
LINE
  8
_0-3_0-10
  6
CONTINUOUS
 62
    7
 10
121.55279423000996
 20
168.77809746112268
 11
120.81546356334337
 21
167.4769161277893
  0
LINE
  8
_0-3_0-10
  6
CONTINUOUS
 62
    7
 10
120.81546356334337
 20
167.4769161277893
 11
120.09068223000997
 21
166.17323879445598
  0
LINE
  8
_0-3_0-10
  6
CONTINUOUS
 62
    7
 10
120.09068223000997
 20
166.17323879445598
 11
119.38392356334334
 21
164.86569879445599
  0
LINE
  8
_0-3_0-10
  6
CONTINUOUS
 62
    7
 10
119.38392356334334
 20
164.86569879445599
 11
118.70065689667666
 21
163.5529321277894
  0
LINE
  8
_0-3_0-10
  6
CONTINUOUS
 62
    7
 10
118.70065689667666
 20
163.5529321277894
 11
118.04635689667668
 21
162.23357079445599
  0
LINE
  8
_0-3_0-10
  6
CONTINUOUS
 62
    7
 10
118.04635689667668
 20
162.23357079445599
 11
117.42649556334328
 21
160.90624946112268
  0
LINE
  8
_0-3_0-10
  6
CONTINUOUS
 62
    7
 10
117.42649556334328
 20
160.90624946112268
 11
116.84654489667667
 21
159.56960279445598
  0
LINE
  8
_0-3_0-10
  6
CONTINUOUS
 62
    7
 10
116.84654489667667
 20
159.56960279445598
 11
116.31197689667665
 21
158.22226279445598
  0
LINE
  8
_0-3_0-10
  6
CONTINUOUS
 62
    7
 10
116.31197689667665
 20
158.22226279445598
 11
115.82826356334335
 21
156.8628654611227
  0
LINE
  8
_0-3_0-10
  6
CONTINUOUS
 62
    7
 10
115.82826356334335
 20
156.8628654611227
 11
115.40087823001006
 21
155.490042794456
  0
LINE
  8
_0-3_0-10
  6
CONTINUOUS
 62
    7
 10
115.40087823001006
 20
155.490042794456
 11
115.03529156334336
 21
154.10243079445598
  0
LINE
  8
_0-3_0-10
  6
CONTINUOUS
 62
    7
 10
115.03529156334336
 20
154.10243079445598
 11
114.71969956334335
 21
152.61731879445599
  0
LINE
  8
_0-3_0-10
  6
CONTINUOUS
 62
    7
 10
114.71969956334335
 20
152.61731879445599
 11
114.47286889667664
 21
151.11562279445598
  0
LINE
  8
_0-3_0-10
  6
CONTINUOUS
 62
    7
 10
114.47286889667664
 20
151.11562279445598
 11
114.28826356334336
 21
149.598842794456
  0
LINE
  8
_0-3_0-10
  6
CONTINUOUS
 62
    7
 10
114.28826356334336
 20
149.598842794456
 11
114.15935156334336
 21
148.06847879445598
  0
LINE
  8
_0-3_0-10
  6
CONTINUOUS
 62
    7
 10
114.15935156334336
 20
148.06847879445598
 11
114.07960089667668
 21
146.52603079445609
  0
LINE
  8
_0-3_0-10
  6
CONTINUOUS
 62
    7
 10
114.07960089667668
 20
146.52603079445609
 11
114.04247556334337
 21
144.972998794456
  0
LINE
  8
_0-3_0-10
  6
CONTINUOUS
 62
    7
 10
114.04247556334337
 20
144.972998794456
 11
114.04144489667666
 21
143.41088146112269
  0
LINE
  8
_0-3_0-10
  6
CONTINUOUS
 62
    7
 10
114.04144489667666
 20
143.41088146112269
 11
114.06997289667664
 21
141.84117879445599
  0
LINE
  8
_0-3_0-10
  6
CONTINUOUS
 62
    7
 10
114.06997289667664
 20
141.84117879445599
 11
114.12152756334336
 21
140.26539079445601
  0
LINE
  8
_0-3_0-10
  6
CONTINUOUS
 62
    7
 10
114.12152756334336
 20
140.26539079445601
 11
114.18957556334335
 21
138.68501612778931
  0
LINE
  8
_0-3_0-10
  6
CONTINUOUS
 62
    7
 10
114.18957556334335
 20
138.68501612778931
 11
114.26758356334336
 21
137.1015561277893
  0
LINE
  8
_0-3_0-10
  6
CONTINUOUS
 62
    7
 10
114.26758356334336
 20
137.1015561277893
 11
114.34901689667664
 21
135.51650946112269
  0
LINE
  8
_0-3_0-10
  6
CONTINUOUS
 62
    7
 10
114.34901689667664
 20
135.51650946112269
 11
114.42734356334338
 21
133.93137479445599
  0
LINE
  8
_0-3_0-10
  6
CONTINUOUS
 62
    7
 10
114.42734356334338
 20
133.93137479445599
 11
114.49603023000996
 21
132.34765479445599
  0
LINE
  8
_0-3_0-10
  6
CONTINUOUS
 62
    7
 10
114.49603023000996
 20
132.34765479445599
 11
114.54854356334337
 21
130.76684546112278
  0
LINE
  8
_0-3_0-10
  6
CONTINUOUS
 62
    7
 10
114.54854356334337
 20
130.76684546112278
 11
114.57834889667664
 21
129.19044946112259
  0
LINE
  8
_0-3_0-10
  6
CONTINUOUS
 62
    7
 10
114.57834889667664
 20
129.19044946112259
 11
114.57891423000998
 21
127.6199654611226
  0
LINE
  8
_0-3_0-10
  6
CONTINUOUS
 62
    7
 10
114.57891423000998
 20
127.6199654611226
 11
114.54370623000997
 21
126.05689212778941
  0
LINE
  8
_0-3_0-10
  6
CONTINUOUS
 62
    7
 10
114.54370623000997
 20
126.05689212778941
 11
114.46619023001008
 21
124.50273079445598
  0
LINE
  8
_0-3_0-10
  6
CONTINUOUS
 62
    7
 10
114.46619023001008
 20
124.50273079445598
 11
114.33983289667668
 21
122.95898012778927
  0
LINE
  8
_0-3_0-10
  6
CONTINUOUS
 62
    7
 10
114.33983289667668
 20
122.95898012778927
 11
114.15810223000997
 21
121.42713879445598
  0
LINE
  8
_0-3_0-10
  6
CONTINUOUS
 62
    7
 10
114.15810223000997
 20
121.42713879445598
 11
113.85621156334336
 21
119.58140146112269
  0
LINE
  8
_0-3_0-10
  6
CONTINUOUS
 62
    7
 10
113.85621156334336
 20
119.58140146112269
 11
113.47036623000997
 21
117.7537574611226
  0
LINE
  8
_0-3_0-10
  6
CONTINUOUS
 62
    7
 10
113.47036623000997
 20
117.7537574611226
 11
113.00820089667665
 21
115.94246546112269
  0
LINE
  8
_0-3_0-10
  6
CONTINUOUS
 62
    7
 10
113.00820089667665
 20
115.94246546112269
 11
112.47735156334337
 21
114.14578012778929
  0
LINE
  8
_0-3_0-10
  6
CONTINUOUS
 62
    7
 10
112.47735156334337
 20
114.14578012778929
 11
111.88545289667665
 21
112.36195746112268
  0
LINE
  8
_0-3_0-10
  6
CONTINUOUS
 62
    7
 10
111.88545289667665
 20
112.36195746112268
 11
111.24013956334337
 21
110.589250794456
  0
LINE
  8
_0-3_0-10
  6
CONTINUOUS
 62
    7
 10
111.24013956334337
 20
110.589250794456
 11
110.54904623001006
 21
108.82591879445598
  0
LINE
  8
_0-3_0-10
  6
CONTINUOUS
 62
    7
 10
110.54904623001006
 20
108.82591879445598
 11
109.81980756334337
 21
107.07021612778929
  0
LINE
  8
_0-3_0-10
  6
CONTINUOUS
 62
    7
 10
109.81980756334337
 20
107.07021612778929
 11
109.06005823000998
 21
105.32039746112261
  0
LINE
  8
_0-3_0-10
  6
CONTINUOUS
 62
    7
 10
109.06005823000998
 20
105.32039746112261
 11
108.27743423000994
 21
103.57471879445589
  0
LINE
  8
_0-3_0-10
  6
CONTINUOUS
 62
    7
 10
108.27743423000994
 20
103.57471879445589
 11
107.47957023000998
 21
101.8314361277894
  0
LINE
  8
_0-3_0-10
  6
CONTINUOUS
 62
    7
 10
107.47957023000998
 20
101.8314361277894
 11
106.67410089667666
 21
100.0888054611226
  0
LINE
  8
_0-3_0-10
  6
CONTINUOUS
 62
    7
 10
106.67410089667666
 20
100.0888054611226
 11
105.86865956334338
 21
98.345081461122703
  0
LINE
  8
_0-3_0-10
  6
CONTINUOUS
 62
    7
 10
105.86865956334338
 20
98.345081461122703
 11
105.07088356334334
 21
96.598518794455998
  0
LINE
  8
_0-3_0-10
  6
CONTINUOUS
 62
    7
 10
105.07088356334334
 20
96.598518794455998
 11
104.28840623000995
 21
94.847374794455987
  0
LINE
  8
_0-3_0-10
  6
CONTINUOUS
 62
    7
 10
104.28840623000995
 20
94.847374794455987
 11
103.52886356334336
 21
93.089905461122697
  0
LINE
  8
_0-3_0-10
  6
CONTINUOUS
 62
    7
 10
103.52886356334336
 20
93.089905461122697
 11
102.79988889667666
 21
91.324364127789394
  0
LINE
  8
_0-3_0-10
  6
CONTINUOUS
 62
    7
 10
102.79988889667666
 20
91.324364127789394
 11
102.10911689667668
 21
89.549008127787999
  0
LINE
  8
_0-3_0-10
  6
CONTINUOUS
 62
    7
 10
102.10911689667668
 20
89.549008127787999
 11
101.46418489667667
 21
87.762093461122702
  0
LINE
  8
_0-3_0-10
  6
CONTINUOUS
 62
    7
 10
101.46418489667667
 20
87.762093461122702
 11
100.87272623000994
 21
85.961873461122593
  0
LINE
  8
_0-3_0-10
  6
CONTINUOUS
 62
    7
 10
100.87272623000994
 20
85.961873461122593
 11
100.34237556334325
 21
84.146605461122703
  0
LINE
  8
_0-3_0-10
  6
CONTINUOUS
 62
    7
 10
100.34237556334325
 20
84.146605461122703
 11
100.17313023000997
 21
83.509920127789399
  0
LINE
  8
_0-3_0-10
  6
CONTINUOUS
 62
    7
 10
100.17313023000997
 20
83.509920127789399
 11
100.01184223000996
 21
82.871290794456001
  0
LINE
  8
_0-3_0-10
  6
CONTINUOUS
 62
    7
 10
100.01184223000996
 20
82.871290794456001
 11
99.858114230010073
 21
82.230814794455994
  0
LINE
  8
_0-3_0-10
  6
CONTINUOUS
 62
    7
 10
99.858114230010073
 20
82.230814794455994
 11
99.711547563343373
 21
52.088589461122609
  0
LINE
  8
_0-3_0-10
  6
CONTINUOUS
 62
    7
 10
99.711547563343373
 20
52.088589461122609
 11
99.571744896676676
 21
51.444712127789301
  0
LINE
  8
_0-3_0-10
  6
CONTINUOUS
 62
    7
 10
99.571744896676676
 20
51.444712127789301
 11
99.438307563343386
 21
50.799280127789387
  0
LINE
  8
_0-3_0-10
  6
CONTINUOUS
 62
    7
 10
99.438307563343386
 20
50.799280127789387
 11
99.310838230010062
 21
50.152389461122623
  0
LINE
  8
_0-3_0-10
  6
CONTINUOUS
 62
    7
 10
99.310838230010062
 20
50.152389461122623
 11
99.188939563343268
 21
49.504137461122653
  0
LINE
  8
_0-3_0-10
  6
CONTINUOUS
 62
    7
 10
99.188939563343268
 20
49.504137461122653
 11
99.07221289667666
 21
48.854622794456048
  0
LINE
  8
_0-3_0-10
  6
CONTINUOUS
 62
    7
 10
99.07221289667666
 20
48.854622794456048
 11
98.960260896676658
 21
48.203941461122639
  0
LINE
  8
_0-3_0-10
  6
CONTINUOUS
 62
    7
 10
98.960260896676658
 20
48.203941461122639
 11
98.852684896676663
 21
47.552192127789311
  0
LINE
  8
_0-3_0-10
  6
CONTINUOUS
 62
    7
 10
98.852684896676663
 20
47.552192127789311
 11
98.74908756334338
 21
46.899469461122606
  0
LINE
  8
_0-3_0-10
  6
CONTINUOUS
 62
    7
 10
98.74908756334338
 20
46.899469461122606
 11
98.649071563343284
 21
46.245873461122727
  0
LINE
  8
_0-3_0-10
  6
CONTINUOUS
 62
    7
 10
98.649071563343284
 20
46.245873461122727
 11
98.552238230010061
 21
45.591498794455972
  0
LINE
  8
_0-3_0-10
  6
CONTINUOUS
 62
    7
 10
98.552238230010061
 20
45.591498794455972
 11
98.458190230009961
 21
44.936444127789371
  0
LINE
  8
_0-3_0-10
  6
CONTINUOUS
 62
    7
 10
98.458190230009961
 20
44.936444127789371
 11
98.366528896676669
 21
44.280805461122639
  0
LINE
  8
_0-3_0-10
  6
CONTINUOUS
 62
    7
 10
98.366528896676669
 20
44.280805461122639
 11
98.276856896676662
 21
43.624682794455992
  0
LINE
  8
_0-3_0-10
  6
CONTINUOUS
 62
    7
 10
98.276856896676662
 20
43.624682794455992
 11
98.188776896676671
 21
42.968169461122641
  0
LINE
  8
_0-3_0-10
  6
CONTINUOUS
 62
    7
 10
98.188776896676671
 20
42.968169461122641
 11
98.101890230009985
 21
42.311365461122662
  0
LINE
  8
_0-3_0-10
  6
CONTINUOUS
 62
    7
 10
98.101890230009985
 20
42.311365461122662
 11
98.015799563343364
 21
41.654366794455967
  0
LINE
  8
_0-3_0-10
  6
CONTINUOUS
 62
    7
 10
98.015799563343364
 20
41.654366794455967
 11
97.930106230010068
 21
40.997270794455943
  0
LINE
  8
_0-3_0-10
  6
CONTINUOUS
 62
    3
 10
204.28959423001006
 20
40.997270794455943
 11
17.789594230010038
 21
40.997270794455943
  0
LINE
  8
_0-3_0-10
  6
CONTINUOUS
 62
    3
 10
157.67593023001006
 20
246.99727079445591
 11
17.789594230010038
 21
246.99727079445591
  0
LINE
  8
_0-3_0-10
  6
CONTINUOUS
 62
    5
 10
132.11334533118017
 20
228.12194367527678
 11
191.60915956334338
 21
222.9167321277892
  0
LINE
  8
_0-3_0-10
  6
CONTINUOUS
 62
    5
 10
158.17622356334337
 20
230.55813212778917
 11
189.03007289667678
 21
227.85877079445589
  0
LINE
  8
_0-3_0-10
  6
CONTINUOUS
 62
    5
 10
132.19045686983557
 20
232.96100216748368
 11
189.04130889667666
 21
227.98719612778921
  0
LINE
  8
_0-3_0-10
  6
CONTINUOUS
 62
    5
 10
132.08288021013348
 20
238.23016261404109
 11
203.53959423001006
 21
231.97850946112248
  0
LINE
  8
_0-3_0-10
  6
CONTINUOUS
 62
    5
 10
191.76842489667666
 20
224.73714546112262
 11
191.60915956334338
 21
222.9167321277892
  0
LINE
  8
_0-3_0-10
  6
CONTINUOUS
 62
    5
 10
204.03959423001006
 20
246.99727079445591
 11
157.67593023001006
 21
246.99727079445591
  0
LINE
  8
_0-3_0-10
  6
CONTINUOUS
 62
    5
 10
192.30479023001007
 20
224.22964546112251
 11
203.53959423001006
 21
223.24672812778919
  0
LINE
  8
_0-3_0-10
  6
CONTINUOUS
 62
    5
 10
192.26145289667667
 20
223.75133479445577
 11
203.49601556334337
 21
222.76843746112251
  0
ARC
  8
_0-3_0-10
  6
CONTINUOUS
 62
    5
 10
192.25249689667677
 20
223.63192946112258
 40
0.5999999999999997
 50
85.000000000000227
 51
159.63548999999829
  0
ARC
  8
_0-3_0-10
  6
CONTINUOUS
 62
    5
 10
192.20915956334337
 20
223.1536174611225
 40
0.5999999999999997
 50
85.000000000000227
 51
159.1091209999991
  0
ARC
  8
_0-3_0-10
  6
CONTINUOUS
 62
    5
 10
188.76860489667666
 20
224.87018679445577
 40
3
 50
355.00000000000011
 51
85.000000000000227
  0
ARC
  8
_0-3_0-10
  6
CONTINUOUS
 62
    5
 10
188.77984089667677
 20
224.99861212778921
 40
3
 50
355.00000000000011
 51
85.000000000000227
  0
LINE
  8
_0-3_0-10
  6
CONTINUOUS
 62
    5
 10
204.03959423001006
 20
246.99727079445591
 11
204.03959423001006
 21
223.26653479445599
  0
LINE
  8
_0-3_0-10
  6
CONTINUOUS
 62
    5
 10
203.53959423001006
 20
246.99727079445591
 11
203.53959423001006
 21
223.24672812778919
  0
ARC
  8
_0-3_0-10
  6
CONTINUOUS
 62
    5
 10
203.53959423001006
 20
223.26653479445599
 40
0.5
 50
265.00000000000022
 51
0
  0
LINE
  8
_0-3_0-10
  6
CONTINUOUS
 62
    5
 10
203.53959423001006
 20
227.74275346112261
 11
204.03959423001006
 21
227.74275346112261
  0
LINE
  8
_0-3_0-10
  6
CONTINUOUS
 62
    5
 10
203.53959423001006
 20
235.40960946112249
 11
204.03959423001006
 21
235.40960946112249
  0
LINE
  8
_0-3_0-10
  6
CONTINUOUS
 62
    7
 10
209.28959423000998
 20
178.49727079445608
 11
218.37122037140608
 21
166.033235506208
  0
TEXT
  8
_0-3_0-10
 62
    7
 10
221.30959553386207
 20
167.5816109263267
 40
3.1199999999999992
 41
1
 50
0
  1
2-φ4.3
  0
LINE
  8
_0-3_0-10
  6
CONTINUOUS
 62
    7
 10
240.08941831784466
 20
166.033235506208
 11
218.37122037140608
 21
166.033235506208
  0
INSERT
  2
-037-_D37
  8
_0-0_0
 10
-50.986434158191627
 20
-35.502728514036903
 41
1
 42
1
 50
0
  0
INSERT
  2
-038-_D38
  8
_0-0_0
 10
-50.986434158191627
 20
-35.502728514036903
 41
1
 42
1
 50
0
  0
INSERT
  2
-039-_D39
  8
_0-0_0
 10
-50.986434158191627
 20
-35.502728514036903
 41
1
 42
1
 50
0
  0
CIRCLE
  8
_0-3_0-10
  6
CONTINUOUS
 62
    3
 10
209.28959423000998
 20
178.49727079445599
 40
2.149999999999999
  0
TEXT
  8
_0-1_0-00
 62
    7
 10
228.13856608628054
 20
-25.640228341160138
 40
4.875
 41
1
 50
0
  1
マックス株式会社
  0
TEXT
  8
_0-1_0-00
 62
    7
 10
308.55481608628065
 20
-25.640228341160138
 40
4.875
 41
1
 50
0
  1
2024/1/9
  0
TEXT
  8
_0-1_0-00
 62
    7
 10
371.88856608628066
 20
-21.985228341160166
 40
2.9249999999999989
 41
1
 50
0
  1
名称
  0
TEXT
  8
_0-1_0-00
 62
    7
 10
296.88856608628054
 20
-21.985228341160166
 40
2.9249999999999989
 41
1
 50
0
  1
日付
  0
ARC
  8
_0-3_0-10
  6
CONTINUOUS
 62
    4
 10
112.15299629186566
 20
148.49727079445608
 40
82.963917525773183
 50
261.42407869909288
 51
306.86989800000071
  0
LINE
  8
_0-3_0-10
  6
CONTINUOUS
 62
    4
 10
131.32407958069737
 20
219.5024254336314
 11
148.02928495165957
 21
219.5024254336314
  0
LINE
  8
_0-3_0-10
  6
CONTINUOUS
 62
    4
 10
131.22736017293667
 20
218.85513945425
 11
148.02928495165957
 21
218.85513945425
  0
LINE
  8
_0-3_0-10
  6
CONTINUOUS
 62
    4
 10
131.02925434818516
 20
201.5642811037344
 11
166.02199313035376
 21
201.5642811037344
  0
LINE
  8
_0-3_0-10
  6
CONTINUOUS
 62
    4
 10
131.02196451737137
 20
200.916995124353
 11
166.02199313035376
 21
200.916995124353
  0
LINE
  8
_0-3_0-10
  6
CONTINUOUS
 62
    4
 10
131.10080382246886
 20
207.91737388723959
 11
156.30637725406506
 21
207.91737388723959
  0
LINE
  8
_0-3_0-10
  6
CONTINUOUS
 62
    4
 10
130.78125213580128
 20
189.9792295573427
 11
171.52980666987266
 21
189.9792295573427
  0
LINE
  8
_0-3_0-10
  6
CONTINUOUS
 62
    4
 10
129.03743475977958
 20
183.62613677383748
 11
175.29859086231246
 21
183.62613677383748
  0
LINE
  8
_0-3_0-10
  6
CONTINUOUS
 62
    4
 10
128.79561094014806
 20
182.97885079445589
 11
175.29859086231246
 21
182.978850794456
  0
LINE
  8
_0-3_0-10
  6
CONTINUOUS
 62
    4
 10
123.42095922493638
 20
172.0410852274457
 11
179.77416185887608
 21
172.04108522744579
  0
LINE
  8
_0-3_0-10
  6
CONTINUOUS
 62
    4
 10
119.82839422069858
 20
165.6879924439406
 11
179.64859484856677
 21
165.6879924439406
  0
LINE
  8
_0-3_0-10
  6
CONTINUOUS
 62
    4
 10
119.47851966562585
 20
165.040706464559
 11
179.64859484856677
 21
165.04070646455909
  0
LINE
  8
_0-3_0-10
  6
CONTINUOUS
 62
    4
 10
115.03542595746026
 20
154.10294089754879
 11
182.72542508911666
 21
154.10294089754879
  0
LINE
  8
_0-3_0-10
  6
CONTINUOUS
 62
    4
 10
114.14287709601387
 20
147.74984811404368
 11
180.11864797571456
 21
147.74984811404368
  0
LINE
  8
_0-3_0-10
  6
CONTINUOUS
 62
    4
 10
114.10940984889788
 20
147.10256213466209
 11
180.11864797571456
 21
147.10256213466209
  0
LINE
  8
_0-3_0-10
  6
CONTINUOUS
 62
    4
 10
114.31571050819488
 20
136.1647965676519
 11
181.84504886918526
 21
136.1647965676519
  0
LINE
  8
_0-3_0-10
  6
CONTINUOUS
 62
    4
 10
114.56660267797116
 20
129.8117037841468
 11
175.90849972829187
 21
129.8117037841468
  0
LINE
  8
_0-3_0-10
  6
CONTINUOUS
 62
    4
 10
114.57835826739486
 20
129.1644178047652
 11
175.90849972829187
 21
129.1644178047652
  0
LINE
  8
_0-3_0-10
  6
CONTINUOUS
 62
    4
 10
113.57020199820186
 20
118.22665223775499
 11
176.59949099976947
 21
118.22665223775499
  0
LINE
  8
_0-3_0-10
  6
CONTINUOUS
 62
    4
 10
111.70766276831814
 20
111.87355945424968
 11
165.76346859427127
 21
111.87355945424968
  0
LINE
  8
_0-3_0-10
  6
CONTINUOUS
 62
    4
 10
111.47203310615876
 20
111.22627347486829
 11
165.76346859427127
 21
111.22627347486829
  0
LINE
  8
_0-3_0-10
  6
CONTINUOUS
 62
    4
 10
106.76640628284586
 20
100.28850790785799
 11
166.06573031248427
 21
100.28850790785799
  0
LINE
  8
_0-3_0-10
  6
CONTINUOUS
 62
    4
 10
103.89427572281707
 20
93.9354151243528
 11
143.38891622313715
 21
93.9354151243528
  0
LINE
  8
_0-3_0-10
  6
CONTINUOUS
 62
    4
 10
103.61453182655077
 20
93.288129144971406
 11
143.38891622313715
 21
93.288129144971406
  0
LINE
  8
_0-3_0-10
  6
CONTINUOUS
 62
    4
 10
99.886808506439876
 20
82.35036357796109
 11
147.37108062176267
 21
82.35036357796109
  0
ARC
  8
_0-3_0-10
  6
CONTINUOUS
 62
    4
 10
112.15299629186566
 20
148.49727079445608
 40
82.963917525773183
 50
261.42407869909288
 51
72.705860587864719
  0
ARC
  8
_0-3_0-10
  6
CONTINUOUS
 62
    4
 10
112.15299629186566
 20
148.49727079445608
 40
82.963917525773183
 50
35.781761000000841
 51
46.365534999998693
  0
LINE
  8
_0-3_0-10
  6
CONTINUOUS
 62
    7
 10
156.32055436746716
 20
82.72407491816719
 11
149.59375024375566
 21
82.72407491816719
  0
LINE
  8
_0-3_0-10
  6
CONTINUOUS
 62
    4
 10
161.48289319908218
 20
83.471497598579603
 11
157.97311388636748
 21
83.471497598579603
  0
LINE
  8
_0-3_0-10
  6
CONTINUOUS
 62
    4
 10
168.16483402382456
 20
87.956033681053796
 11
163.08175189324038
 21
87.956033681053796
  0
LINE
  8
_0-3_0-10
  6
CONTINUOUS
 62
    7
 10
174.76021333653926
 20
100.6622192480641
 11
168.03340921282796
 21
100.6622192480641
  0
LINE
  8
_0-3_0-10
  6
CONTINUOUS
 62
    4
 10
178.72985691042256
 20
101.4096419284765
 11
176.32533237433997
 21
101.4096419284765
  0
LINE
  8
_0-3_0-10
  6
CONTINUOUS
 62
    4
 10
182.40436618877308
 20
105.89417801095069
 11
178.97813278671108
 21
105.89417801095069
  0
LINE
  8
_0-3_0-10
  6
CONTINUOUS
 62
    4
 10
190.25777148086928
 20
123.83232234084779
 11
188.20253251179707
 21
123.83232234084779
  0
LINE
  8
_0-3_0-10
  6
CONTINUOUS
 62
    4
 10
188.30212508911657
 20
119.34778625837357
 11
186.33010715097228
 21
119.34778625837357
  0
LINE
  8
_0-3_0-10
  6
CONTINUOUS
 62
    7
 10
185.10071044994137
 20
118.60036357796117
 11
178.37390632622998
 21
118.60036357796117
  0
LINE
  8
_0-3_0-10
  6
CONTINUOUS
 62
    4
 10
193.59394941901356
 20
141.77046667074469
 11
191.80021072485547
 21
141.77046667074469
  0
LINE
  8
_0-3_0-10
  6
CONTINUOUS
 62
    7
 10
190.11549209942586
 20
136.5385079078581
 11
183.38868797571456
 21
136.5385079078581
  0
LINE
  8
_0-3_0-10
  6
CONTINUOUS
 62
    4
 10
192.97424034684857
 20
159.70861100064161
 11
190.53095347399636
 21
159.70861100064161
  0
LINE
  8
_0-3_0-10
  6
CONTINUOUS
 62
    7
 10
190.77644893791386
 20
154.47665223775499
 11
184.04964481420256
 21
154.47665223775499
  0
LINE
  8
_0-3_0-10
  6
CONTINUOUS
 62
    4
 10
190.25777148086928
 20
173.1622192480643
 11
188.27790261488976
 21
173.1622192480643
  0
LINE
  8
_0-3_0-10
  6
CONTINUOUS
 62
    7
 10
187.51081972829186
 20
172.41479656765199
 11
180.78401560458055
 21
172.41479656765199
  0
LINE
  8
_0-3_0-10
  6
CONTINUOUS
 62
    4
 10
178.72985691042256
 20
195.58489966043549
 11
175.71994392073168
 21
195.58489966043549
  0
LINE
  8
_0-3_0-10
  6
CONTINUOUS
 62
    7
 10
179.01556371454617
 20
190.3529408975489
 11
172.28875959083478
 21
190.3529408975489
  0
LINE
  8
_0-3_0-10
  6
CONTINUOUS
 62
    4
 10
161.48289319908218
 20
213.52304399033229
 11
160.04349065612697
 21
213.52304399033229
  0
LINE
  8
_0-3_0-10
  6
CONTINUOUS
 62
    4
 10
168.16483402382456
 20
209.0385079078581
 11
164.11872412691718
 21
209.0385079078581
  0
LINE
  8
_0-3_0-10
  6
CONTINUOUS
 62
    7
 10
163.78060405818877
 20
208.29108522744579
 11
157.05379993447746
 21
208.29108522744579
  0
ARC
  8
_0-3_0-10
  6
CONTINUOUS
 62
    4
 10
112.15299629186566
 20
148.49727079445608
 40
82.963917525773183
 50
313.63446500000128
 51
324.21823899999907
  0
ARC
  8
_0-3_0-10
  6
CONTINUOUS
 62
    4
 10
112.15299629186566
 20
148.49727079445608
 40
82.963917525773183
 50
329.75646699999867
 51
338.36988900000051
  0
ARC
  8
_0-3_0-10
  6
CONTINUOUS
 62
    4
 10
112.15299629186566
 20
148.49727079445608
 40
82.963917525773183
 50
8.7275869999981559
 51
16.523205999999799
  0
LINE
  8
_0-3_0-10
  6
CONTINUOUS
 62
    4
 10
157.05379993447746
 20
210.5333532686829
 11
157.05379993447746
 21
208.29108522744579
  0
LINE
  8
_0-3_0-10
  6
CONTINUOUS
 62
    4
 10
172.77567258052556
 20
193.11436474634598
 11
172.28875959083478
 21
190.3529408975489
  0
LINE
  8
_0-3_0-10
  6
CONTINUOUS
 62
    4
 10
187.09559952210636
 20
158.10667890442169
 11
184.04964481420256
 21
154.47665223775499
  0
ARC
  8
_0-3_0-10
  6
CONTINUOUS
 62
    4
 10
160.04349065612697
 20
210.5333532686829
 40
2.9896907216494841
 50
90
 51
180
  0
LINE
  8
_0-3_0-10
  6
CONTINUOUS
 62
    4
 10
179.00704508911667
 20
190.45031313122589
 11
179.01556371454617
 21
190.3529408975489
  0
ARC
  8
_0-3_0-10
  6
CONTINUOUS
 62
    4
 10
175.71994392073168
 20
192.59520893878598
 40
2.9896907216494841
 50
90
 51
170.0000000000013
  0
LINE
  8
_0-3_0-10
  6
CONTINUOUS
 62
    4
 10
187.54963787262175
 20
172.5829307944559
 11
187.51081972829186
 21
172.41479656765199
  0
LINE
  8
_0-3_0-10
  6
CONTINUOUS
 62
    4
 10
190.86175278671117
 20
154.67761725493699
 11
190.77644893791386
 21
154.47665223775499
  0
LINE
  8
_0-3_0-10
  6
CONTINUOUS
 62
    4
 10
187.95673807880737
 20
140.37155849205049
 11
183.38868797571456
 21
136.5385079078581
  0
LINE
  8
_0-3_0-10
  6
CONTINUOUS
 62
    4
 10
183.91549141214068
 20
122.48062337177559
 11
178.37390632622998
 21
118.60036357796117
  0
LINE
  8
_0-3_0-10
  6
CONTINUOUS
 62
    4
 10
190.27516749461497
 20
136.79404275321888
 11
190.11549209942586
 21
136.5385079078581
  0
ARC
  8
_0-3_0-10
  6
CONTINUOUS
 62
    4
 10
190.53095347399636
 20
155.22407491816738
 40
4.4845360824742259
 50
90
 51
139.99999999999968
  0
ARC
  8
_0-3_0-10
  6
CONTINUOUS
 62
    4
 10
191.80021072485547
 20
135.7910852274457
 40
5.9793814432989691
 50
90
 51
130.00000000000281
  0
LINE
  8
_0-3_0-10
  6
CONTINUOUS
 62
    4
 10
174.22525003757027
 20
104.53131155046969
 11
168.03340921282796
 21
100.6622192480641
  0
LINE
  8
_0-3_0-10
  6
CONTINUOUS
 62
    4
 10
157.83937704787948
 20
86.74573711747999
 11
149.59375024375566
 21
82.72407491816719
  0
ARC
  8
_0-3_0-10
  6
CONTINUOUS
 62
    4
 10
188.20253251179707
 20
116.35809553672409
 40
7.4742268041237114
 50
90
 51
124.99999999999721
  0
LINE
  8
_0-3_0-10
  6
CONTINUOUS
 62
    4
 10
185.46986550148776
 20
118.982635399265
 11
185.10071044994137
 21
118.60036357796117
  0
ARC
  8
_0-3_0-10
  6
CONTINUOUS
 62
    4
 10
178.97813278671108
 20
96.92510584600231
 40
8.9690721649484537
 50
90
 51
121.99999999999768
  0
LINE
  8
_0-3_0-10
  6
CONTINUOUS
 62
    4
 10
175.48942680732966
 20
101.15407917933569
 11
174.76021333653926
 21
100.6622192480641
  0
ARC
  8
_0-3_0-10
  6
CONTINUOUS
 62
    4
 10
163.08175189324038
 20
75.9972707944559
 40
11.95876288659794
 50
90
 51
116.00000000000197
  0
ARC
  8
_0-3_0-10
  6
CONTINUOUS
 62
    4
 10
161.48289319908218
 20
214.27046667074469
 40
0.7474226804123712
 50
270
 51
53.13010199999934
  0
ARC
  8
_0-3_0-10
  6
CONTINUOUS
 62
    4
 10
178.72985691042256
 20
196.48180687693019
 40
0.896907216494845
 50
270
 51
35.781761000000841
  0
ARC
  8
_0-3_0-10
  6
CONTINUOUS
 62
    4
 10
192.97424034684857
 20
160.9044872893013
 40
1.1958762886597928
 50
270
 51
8.727586999998147
  0
ARC
  8
_0-3_0-10
  6
CONTINUOUS
 62
    4
 10
193.59394941901356
 20
143.11582749548699
 40
1.3453608247422679
 50
270
 51
356.21951400000028
  0
ARC
  8
_0-3_0-10
  6
CONTINUOUS
 62
    4
 10
190.25777148086928
 20
125.32716770167249
 40
1.494845360824742
 50
270
 51
343.47679400000021
  0
ARC
  8
_0-3_0-10
  6
CONTINUOUS
 62
    4
 10
182.40436618877308
 20
107.53850790785799
 40
1.6443298969072159
 50
270
 51
329.75646699999867
  0
ARC
  8
_0-3_0-10
  6
CONTINUOUS
 62
    4
 10
168.16483402382456
 20
89.749848114043601
 40
1.7938144329896898
 50
270
 51
313.63446500000128
  0
ARC
  8
_0-3_0-10
  6
CONTINUOUS
 62
    4
 10
161.48289319908218
 20
82.72407491816719
 40
0.7474226804123712
 50
306.86989800000071
 51
90
  0
ARC
  8
_0-3_0-10
  6
CONTINUOUS
 62
    4
 10
178.72985691042256
 20
100.5127347119818
 40
0.896907216494845
 50
324.21823899999907
 51
89.999999999999928
  0
ARC
  8
_0-3_0-10
  6
CONTINUOUS
 62
    4
 10
188.30212508911657
 20
118.30139450579429
 40
1.0463917525773189
 50
338.36988900000051
 51
90.000000000000014
  0
ARC
  8
_0-3_0-10
  6
CONTINUOUS
 62
    4
 10
190.25777148086928
 20
171.66737388723959
 40
1.494845360824742
 50
16.523205999999802
 51
90
  0
ARC
  8
_0-3_0-10
  6
CONTINUOUS
 62
    4
 10
168.16483402382456
 20
207.24469347486859
 40
1.7938144329896898
 50
46.3655349999987
 51
90
  0
ARC
  8
_0-3_0-10
  6
CONTINUOUS
 62
    4
 10
164.11872412691718
 20
208.59005429961058
 40
0.4484536082474224
 50
90
 51
214.99999999999749
  0
ARC
  8
_0-3_0-10
  6
CONTINUOUS
 62
    4
 10
179.60270907537088
 20
190.5024254336312
 40
0.597938144329897
 50
90
 51
185
  0
ARC
  8
_0-3_0-10
  6
CONTINUOUS
 62
    4
 10
188.27790261488976
 20
172.41479656765199
 40
0.7474226804123712
 50
90
 51
166.99999999999968
  0
ARC
  8
_0-3_0-10
  6
CONTINUOUS
 62
    4
 10
191.68736185887607
 20
154.32716770167249
 40
0.896907216494845
 50
90
 51
157.00000000000071
  0
ARC
  8
_0-3_0-10
  6
CONTINUOUS
 62
    4
 10
191.16255752897927
 20
136.23953883569311
 40
1.0463917525773189
 50
90
 51
147.99999999999761
  0
ARC
  8
_0-3_0-10
  6
CONTINUOUS
 62
    4
 10
186.33010715097228
 20
118.15190996971368
 40
1.1958762886597928
 50
90
 51
135.99999999999729
  0
ARC
  8
_0-3_0-10
  6
CONTINUOUS
 62
    4
 10
176.32533237433997
 20
99.914796567651791
 40
1.494845360824742
 50
90
 51
123.999999999999
  0
ARC
  8
_0-3_0-10
  6
CONTINUOUS
 62
    4
 10
157.97311388636748
 20
81.677683165588092
 40
1.7938144329896898
 50
90
 51
124.43955700000381
  0
INSERT
  2
-030-BLKF018_35
  8
_0-3_0-10
 10
-74.659311337000247
 20
-208.18685992719338
 41
1.993127147766323
 42
1.993127147766323
 50
0
  0
INSERT
  2
-004-BLKF019_2
  8
_0-3_0-10
 10
-74.659311337000247
 20
-208.18685992719338
 41
1.993127147766323
 42
1.993127147766323
 50
0
  0
LINE
  8
_0-3_0-10
  6
CONTINUOUS
 62
    4
 10
151.01897567330908
 20
220.99726431888757
 11
151.01897567330908
 21
220.34998481507469
  0
INSERT
  2
-005-BLKF020_3
  8
_0-3_0-10
 10
-74.659311337000247
 20
-208.18685992719338
 41
1.993127147766323
 42
1.993127147766323
 50
0
  0
INSERT
  2
-006-BLKF021_4
  8
_0-3_0-10
 10
-74.659311337000247
 20
-208.18685992719338
 41
1.993127147766323
 42
1.993127147766323
 50
0
  0
LINE
  8
_0-3_0-10
  6
CONTINUOUS
 62
    4
 10
163.78060405818877
 20
208.29108522744579
 11
169.08325704787947
 21
204.50459807967919
  0
LINE
  8
_0-3_0-10
  6
CONTINUOUS
 62
    4
 10
169.75910653241558
 20
203.43283780476528
 11
169.75910653241558
 21
202.785551825384
  0
INSERT
  2
-007-BLKF022_5
  8
_0-3_0-10
 10
-74.659311337000247
 20
-208.18685992719338
 41
1.993127147766323
 42
1.993127147766323
 50
0
  0
INSERT
  2
-008-BLKF023_6
  8
_0-3_0-10
 10
-74.659311337000247
 20
-208.18685992719338
 41
1.993127147766323
 42
1.993127147766323
 50
0
  0
INSERT
  2
-009-BLKF024_7
  8
_0-3_0-10
 10
-74.659311337000247
 20
-208.18685992719338
 41
1.993127147766323
 42
1.993127147766323
 50
0
  0
LINE
  8
_0-3_0-10
  6
CONTINUOUS
 62
    4
 10
179.01556371454617
 20
190.3529408975489
 11
179.76606179014757
 21
186.0638329250402
  0
LINE
  8
_0-3_0-10
  6
CONTINUOUS
 62
    4
 10
179.78312694478665
 20
185.86840481507459
 11
179.78312694478665
 21
185.23917457452481
  0
INSERT
  2
-010-BLKF025_8
  8
_0-3_0-10
 10
-74.659311337000247
 20
-208.18685992719338
 41
1.993127147766323
 42
1.993127147766323
 50
0
  0
LINE
  8
_0-3_0-10
  6
CONTINUOUS
 62
    4
 10
172.26587450492428
 20
190.28804667074459
 11
172.28875959083478
 21
190.3529408975489
  0
INSERT
  2
-011-BLKF026_9
  8
_0-3_0-10
 10
-74.659311337000247
 20
-208.18685992719338
 41
1.993127147766323
 42
1.993127147766323
 50
0
  0
INSERT
  2
-012-BLKF027_10
  8
_0-3_0-10
 10
-74.659311337000247
 20
-208.18685992719338
 41
1.993127147766323
 42
1.993127147766323
 50
0
  0
LINE
  8
_0-3_0-10
  6
CONTINUOUS
 62
    4
 10
185.47472474547396
 20
168.00515024462779
 11
187.51081972829186
 21
172.41479656765199
  0
LINE
  8
_0-3_0-10
  6
CONTINUOUS
 62
    4
 10
185.47472474547396
 20
167.35786227211929
 11
187.51081972829186
 21
171.76751058827039
  0
LINE
  8
_0-3_0-10
  6
CONTINUOUS
 62
    4
 10
187.51081972829186
 20
172.41479656765199
 11
187.51081972829186
 21
171.76751058827039
  0
INSERT
  2
-013-BLKF028_11
  8
_0-3_0-10
 10
-74.659311337000247
 20
-208.18685992719338
 41
1.993127147766323
 42
1.993127147766323
 50
0
  0
LINE
  8
_0-3_0-10
  6
CONTINUOUS
 62
    4
 10
180.73737044994138
 20
172.35985203156928
 11
180.78401560458055
 21
172.41479656765199
  0
INSERT
  2
-014-BLKF029_12
  8
_0-3_0-10
 10
-74.659311337000247
 20
-208.18685992719338
 41
1.993127147766323
 42
1.993127147766323
 50
0
  0
INSERT
  2
-015-BLKF030_13
  8
_0-3_0-10
 10
-74.659311337000247
 20
-208.18685992719338
 41
1.993127147766323
 42
1.993127147766323
 50
0
  0
LINE
  8
_0-3_0-10
  6
CONTINUOUS
 62
    4
 10
186.99870962519918
 20
150.0267547119817
 11
190.77644893791386
 21
154.47665223775499
  0
LINE
  8
_0-3_0-10
  6
CONTINUOUS
 62
    4
 10
186.99870962519918
 20
149.3794687326002
 11
190.77644893791386
 21
153.82936625837348
  0
LINE
  8
_0-3_0-10
  6
CONTINUOUS
 62
    4
 10
190.77644893791386
 20
154.47665223775499
 11
190.77644893791386
 21
153.82936625837348
  0
INSERT
  2
-016-BLKF031_14
  8
_0-3_0-10
 10
-74.659311337000247
 20
-208.18685992719338
 41
1.993127147766323
 42
1.993127147766323
 50
0
  0
LINE
  8
_0-3_0-10
  6
CONTINUOUS
 62
    4
 10
183.87054240870426
 20
154.36993024462779
 11
184.04964481420256
 21
154.47665223775499
  0
INSERT
  2
-017-BLKF032_15
  8
_0-3_0-10
 10
-74.659311337000247
 20
-208.18685992719338
 41
1.993127147766323
 42
1.993127147766323
 50
0
  0
INSERT
  2
-018-BLKF033_16
  8
_0-3_0-10
 10
-74.659311337000247
 20
-208.18685992719338
 41
1.993127147766323
 42
1.993127147766323
 50
0
  0
LINE
  8
_0-3_0-10
  6
CONTINUOUS
 62
    4
 10
184.78240605131597
 20
132.27114694565869
 11
190.11549209942586
 21
136.5385079078581
  0
LINE
  8
_0-3_0-10
  6
CONTINUOUS
 62
    4
 10
184.78240605131597
 20
131.62386096627719
 11
190.11549209942586
 21
135.89122192847648
  0
LINE
  8
_0-3_0-10
  6
CONTINUOUS
 62
    4
 10
190.11549209942586
 20
136.5385079078581
 11
190.11549209942586
 21
135.89122192847648
  0
INSERT
  2
-019-BLKF034_17
  8
_0-3_0-10
 10
-74.659311337000247
 20
-208.18685992719338
 41
1.993127147766323
 42
1.993127147766323
 50
0
  0
LINE
  8
_0-3_0-10
  6
CONTINUOUS
 62
    4
 10
182.99809086231246
 20
136.37463299376869
 11
183.38868797571456
 21
136.5385079078581
  0
INSERT
  2
-020-BLKF035_18
  8
_0-3_0-10
 10
-74.659311337000247
 20
-208.18685992719338
 41
1.993127147766323
 42
1.993127147766323
 50
0
  0
INSERT
  2
-021-BLKF036_19
  8
_0-3_0-10
 10
-74.659311337000247
 20
-208.18685992719338
 41
1.993127147766323
 42
1.993127147766323
 50
0
  0
LINE
  8
_0-3_0-10
  6
CONTINUOUS
 62
    4
 10
176.51648721970087
 20
114.15575182538377
 11
185.10071044994137
 21
118.60036357796117
  0
LINE
  8
_0-3_0-10
  6
CONTINUOUS
 62
    4
 10
176.51648721970087
 20
113.50846584600229
 11
185.10071044994137
 21
117.95307759857959
  0
LINE
  8
_0-3_0-10
  6
CONTINUOUS
 62
    4
 10
185.10071044994137
 20
118.60036357796117
 11
185.10071044994137
 21
117.95307759857959
  0
INSERT
  2
-022-BLKF037_20
  8
_0-3_0-10
 10
-74.659311337000247
 20
-208.18685992719338
 41
1.993127147766323
 42
1.993127147766323
 50
0
  0
LINE
  8
_0-3_0-10
  6
CONTINUOUS
 62
    4
 10
177.88560213379017
 20
118.42940708311579
 11
178.37390632622998
 21
118.60036357796117
  0
INSERT
  2
-023-BLKF038_21
  8
_0-3_0-10
 10
-74.659311337000247
 20
-208.18685992719338
 41
1.993127147766323
 42
1.993127147766323
 50
0
  0
INSERT
  2
-024-BLKF039_22
  8
_0-3_0-10
 10
-74.659311337000247
 20
-208.18685992719338
 41
1.993127147766323
 42
1.993127147766323
 50
0
  0
LINE
  8
_0-3_0-10
  6
CONTINUOUS
 62
    4
 10
164.28658928155647
 20
97.129945502359788
 11
174.76021333653926
 21
100.6622192480641
  0
LINE
  8
_0-3_0-10
  6
CONTINUOUS
 62
    4
 10
164.28658928155647
 20
96.482659522978394
 11
174.76021333653926
 21
100.01493326868271
  0
LINE
  8
_0-3_0-10
  6
CONTINUOUS
 62
    4
 10
174.76021333653926
 20
100.6622192480641
 11
174.76021333653926
 21
100.01493326868271
  0
INSERT
  2
-025-BLKF040_23
  8
_0-3_0-10
 10
-74.659311337000247
 20
-208.18685992719338
 41
1.993127147766323
 42
1.993127147766323
 50
0
  0
LINE
  8
_0-3_0-10
  6
CONTINUOUS
 62
    4
 10
167.49159553585207
 20
100.49293897315017
 11
168.03340921282796
 21
100.6622192480641
  0
ARC
  8
_0-3_0-10
  6
CONTINUOUS
 62
    4
 10
112.15299629186566
 20
148.49727079445608
 40
79.226804123711346
 50
303.88187499999787
 51
304.43955700000384
  0
INSERT
  2
-026-BLKF041_24
  8
_0-3_0-10
 10
-74.659311337000247
 20
-208.18685992719338
 41
1.993127147766323
 42
1.993127147766323
 50
0
  0
INSERT
  2
-027-BLKF042_25
  8
_0-3_0-10
 10
-74.659311337000247
 20
-208.18685992719338
 41
1.993127147766323
 42
1.993127147766323
 50
0
  0
LINE
  8
_0-3_0-10
  6
CONTINUOUS
 62
    4
 10
156.32055237434008
 20
82.076790931912995
 11
156.32055237434008
 21
82.72407491816719
  0
INSERT
  2
-028-BLKF043_26
  8
_0-3_0-10
 10
-74.659311337000247
 20
-208.18685992719338
 41
1.993127147766323
 42
1.993127147766323
 50
0
  0
LINE
  8
_0-3_0-10
  6
CONTINUOUS
 62
    4
 10
148.68167532966637
 20
82.501651894112299
 11
149.59375024375566
 21
82.72407491816719
  0
ARC
  8
_0-3_0-10
  6
CONTINUOUS
 62
    4
 10
112.15299629186566
 20
148.49727079445608
 40
90.886597938144333
 50
262.15180955009088
 51
58.112391695611954
  0
LINE
  8
_0-3_0-10
  6
CONTINUOUS
 62
    4
 10
112.15299629186566
 20
75.9972707944559
 11
105.24792488293107
 21
76.148012993768702
  0
LINE
  8
_0-3_0-10
  6
CONTINUOUS
 62
    4
 10
105.24792488293107
 20
76.148012993768702
 11
99.830270668236465
 21
76.504636174517202
  0
INSERT
  2
-029-BLKF044_27
  8
_0-3_0-10
 10
-74.659311337000247
 20
-208.18685992719338
 41
1.993127147766323
 42
1.993127147766323
 50
0
  0
ARC
  8
_0-3_0-10
  6
CONTINUOUS
 62
    7
 10
112.15299629186566
 20
148.49727079445608
 40
88.195876288659803
 50
261.9194565566338
 51
61.795693811064637
  0
LINE
  8
_0-3_0-10
  6
CONTINUOUS
 62
    4
 10
149.43619752897916
 20
222.31625258139757
 11
143.20161409255297
 21
223.80796873260027
  0
LINE
  8
_0-3_0-10
  6
CONTINUOUS
 62
    4
 10
143.20161409255297
 20
223.80796873260027
 11
132.00297434536608
 21
225.90954932108377
  0
ARC
  8
_0-3_0-10
  6
CONTINUOUS
 62
    4
 10
182.40436618877308
 20
189.456033681054
 40
1.6443298969072159
 50
30.243533000007438
 51
90.000000000006508
  0
LINE
  8
_0-3_0-10
  6
CONTINUOUS
 62
    4
 10
182.40436618877308
 20
191.10036357796118
 11
179.60270907537088
 21
191.10036357796118
  0
LINE
  8
_0-3_0-10
  6
CONTINUOUS
 62
    4
 10
180.78401560458055
 20
172.41479656765199
 11
182.23165916986135
 21
175.82522983839328
  0
ARC
  8
_0-3_0-10
  6
CONTINUOUS
 62
    4
 10
184.98368398946027
 20
174.6570646088891
 40
2.9896907216494841
 50
89.999999999993505
 51
156.99999999999536
  0
LINE
  8
_0-3_0-10
  6
CONTINUOUS
 62
    4
 10
184.98368398946027
 20
177.64675533053861
 11
188.30212508911657
 21
177.64675533053861
  0
ARC
  8
_0-3_0-10
  6
CONTINUOUS
 62
    4
 10
188.30214961809997
 20
178.6931316150798
 40
1.046376284830377
 50
269.99865688161617
 51
21.631330194684814
  0
ARC
  8
_0-3_0-10
  6
CONTINUOUS
 62
    4
 10
112.15299629186566
 20
148.49727079445608
 40
82.963917525773183
 50
21.630110999999491
 51
30.243532999998731
  0
ARC
  8
_0-3_0-10
  6
CONTINUOUS
 62
    4
 10
110.44543901397418
 20
148.49726985591638
 40
84.667833923230844
 50
356.29570313359101
 51
3.7042983683276902
  0
ARC
  8
_0-3_0-10
  6
CONTINUOUS
 62
    4
 10
193.59394941901356
 20
153.878714093425
 40
1.3453608247422679
 50
3.7804860000062361
 51
90.000000000006508
  0
LINE
  8
_0-3_0-10
  6
CONTINUOUS
 62
    4
 10
193.59394941901356
 20
155.22407491816738
 11
191.68736185887607
 21
155.22407491816738
  0
ARC
  8
_0-3_0-10
  6
CONTINUOUS
 62
    4
 10
111.20735226628127
 20
148.70908481150368
 40
83.930777361991943
 50
343.52176565353448
 51
351.22744482619719
  0
ARC
  8
_0-3_0-10
  6
CONTINUOUS
 62
    4
 10
192.97424034684857
 20
136.09005429961058
 40
1.1958762886597928
 50
351.27241299999849
 51
89.999999999993477
  0
LINE
  8
_0-3_0-10
  6
CONTINUOUS
 62
    4
 10
192.97424034684857
 20
137.2859305882705
 11
191.16255752897927
 21
137.2859305882705
  0
LINE
  8
_0-3_0-10
  6
CONTINUOUS
 62
    4
 10
112.14544519726895
 20
75.349819971899293
 11
105.24792488293107
 21
75.500725021260194
  0
LINE
  8
_0-3_0-10
  6
CONTINUOUS
 62
    4
 10
105.24792488293107
 20
75.500725021260194
 11
99.827124239813059
 21
75.857556202716395
  0
LINE
  8
_0-3_0-10
  6
CONTINUOUS
 62
    3
 10
-43.736435136080672
 20
148.49727079445608
 11
-41.236435136080672
 21
148.49727079445608
  0
LINE
  8
_0-3_0-10
  6
CONTINUOUS
 62
    3
 10
463.76356486391955
 20
148.49727079445608
 11
461.26356486391944
 21
148.49727079445608
  0
LINE
  8
_0-1_0-00
  6
CONTINUOUS
 62
    6
 10
384.99284799921787
 20
226.84470319171629
 11
383.92888157455905
 21
226.23042212322309
  0
ARC
  8
_0-1_0-00
  6
CONTINUOUS
 62
    6
 10
389.20482319099738
 20
219.5493491369217
 40
8.4239494101639831
 50
65.055983999996939
 51
120.00000000000046
  0
LINE
  8
_0-1_0-00
  6
CONTINUOUS
 62
    6
 10
406.06643417730015
 20
220.99727079445597
 11
392.75747609510699
 21
227.18751447938751
  0
LINE
  8
_0-1_0-00
  6
CONTINUOUS
 62
    6
 10
383.92888157455905
 20
226.23042212322309
 11
384.29752542387416
 21
225.59191231500392
  0
LINE
  8
_0-1_0-00
  6
CONTINUOUS
 62
    6
 10
405.95622091702466
 20
220.49898312322181
 11
392.54733290332615
 21
226.73570708212719
  0
ARC
  8
_0-1_0-00
  6
CONTINUOUS
 62
    6
 10
389.20482319099738
 20
219.5493491369217
 40
7.925661738931109
 50
65.055983999996939
 51
120.00000000000046
  0
LINE
  8
_0-1_0-00
  6
CONTINUOUS
 62
    6
 10
385.24199183483437
 20
226.41317410952439
 11
384.17802541017675
 21
225.79889171226278
  0
LINE
  8
_0-1_0-00
  6
CONTINUOUS
 62
    6
 10
392.05303286223028
 20
225.36527779445589
 11
399.61864220469595
 21
220.99727079445597
  0
ARC
  8
_0-1_0-00
  6
CONTINUOUS
 62
    6
 10
388.63981945127267
 20
218.07444553418071
 40
8.0502336567393282
 50
64.913292000001646
 51
106.172117000001
  0
LINE
  8
_0-1_0-00
  6
CONTINUOUS
 62
    6
 10
384.86784024579338
 20
225.3624860547286
 11
386.39763787593028
 21
225.8061255204833
  0
ARC
  8
_0-1_0-00
  6
CONTINUOUS
 62
    6
 10
384.72905450606589
 20
225.84105615062037
 40
0.4982876712328767
 50
210.00000000000051
 51
286.17211700000058
  0
ARC
  8
_0-3_0-10
  6
CONTINUOUS
 62
    6
 10
363.15244321839594
 20
224.99727079445619
 40
4.5
 50
180
 51
270
  0
LINE
  8
_0-3_0-10
  6
CONTINUOUS
 62
    6
 10
363.15244321839594
 20
220.49727079445619
 11
415.15244321839594
 21
220.49727079445619
  0
ARC
  8
_0-3_0-10
  6
CONTINUOUS
 62
    6
 10
415.15244321839594
 20
217.99727079445619
 40
2.5
 50
0
 51
90
  0
LINE
  8
_0-3_0-10
  6
CONTINUOUS
 62
    6
 10
417.65244321839594
 20
217.99727079445619
 11
417.65244321839594
 21
127.2348626523854
  0
ARC
  8
_0-3_0-10
  6
CONTINUOUS
 62
    6
 10
363.15244321839594
 20
71.997270794460703
 40
4.5
 50
90
 51
180
  0
LINE
  8
_0-3_0-10
  6
CONTINUOUS
 62
    6
 10
415.15244321839594
 20
76.497270794460703
 11
363.15244321839594
 21
76.497270794460703
  0
ARC
  8
_0-3_0-10
  6
CONTINUOUS
 62
    6
 10
415.15244321839594
 20
78.997270794460703
 40
2.5
 50
270
 51
0
  0
LINE
  8
_0-3_0-10
  6
CONTINUOUS
 62
    6
 10
417.65244321839594
 20
127.234862794456
 11
417.65244321839594
 21
78.997270794460703
  0
LINE
  8
_0-1_0-00
  6
CONTINUOUS
 62
    6
 10
383.60086787593007
 20
101.74111065747308
 11
383.60086787593007
 21
98.717986068431883
  0
LINE
  8
_0-1_0-00
  6
CONTINUOUS
 62
    6
 10
406.73499582113589
 20
104.60828847939208
 11
385.51184627318906
 21
103.73256716432358
  0
ARC
  8
_0-1_0-00
  6
CONTINUOUS
 62
    6
 10
385.59401856086168
 20
101.74111065747308
 40
1.9931506849315059
 50
92.36282999999986
 51
180
  0
ARC
  8
_0-1_0-00
  6
CONTINUOUS
 62
    6
 10
385.59401856086168
 20
98.907367273911404
 40
1.9931506849315059
 50
180
 51
270
  0
LINE
  8
_0-1_0-00
  6
CONTINUOUS
 62
    6
 10
385.59401856086168
 20
96.91421658898119
 11
406.74183365675219
 21
96.154780999940101
  0
LINE
  8
_0-1_0-00
  6
CONTINUOUS
 62
    6
 10
406.73499582113589
 20
104.60828847939208
 11
406.73499582113589
 21
96.155026821857887
  0
LINE
  8
_0-1_0-00
  6
CONTINUOUS
 62
    6
 10
393.87656686223016
 20
101.34340667117298
 11
405.33300432798375
 21
104.55043927391149
  0
LINE
  8
_0-1_0-00
  6
CONTINUOUS
 62
    6
 10
389.94148547866848
 20
101.17087024651408
 11
392.62019628688778
 21
101.17087024651408
  0
LINE
  8
_0-1_0-00
  6
CONTINUOUS
 62
    6
 10
386.52731801291514
 20
101.07951352048668
 11
389.79650502661377
 21
101.16888905473328
  0
ARC
  8
_0-1_0-00
  6
CONTINUOUS
 62
    6
 10
392.62019628688778
 20
105.8315235889799
 40
4.660654006849314
 50
270
 51
285.63867299999901
  0
ARC
  8
_0-1_0-00
  6
CONTINUOUS
 62
    6
 10
389.94148547866848
 20
95.865770164322384
 40
5.3050994178082175
 50
90
 51
91.566001999999585
  0
ARC
  8
_0-1_0-00
  6
CONTINUOUS
 62
    6
 10
386.59059390332737
 20
99.087106945144284
 40
1.9931506849315059
 50
91.566001999999585
 51
180
  0
LINE
  8
_0-1_0-00
  6
CONTINUOUS
 62
    6
 10
384.59744321839468
 20
99.087106945144284
 11
384.59744321839468
 21
97.18124828761131
  0
LINE
  8
_0-3_0-10
  6
CONTINUOUS
 62
    3
 10
210.01356486391949
 20
323.49727079445608
 11
210.01356486391949
 21
325.99727079445608
  0
LINE
  8
_0-3_0-10
  6
CONTINUOUS
 62
    4
 10
363.85244321839599
 20
43.748296127789416
 11
346.35244321839604
 21
26.248296127789444
  0
LINE
  8
_0-3_0-10
  6
CONTINUOUS
 62
    4
 10
358.85244321839604
 20
245.9972707944558
 11
358.85244321839604
 21
236.29727079445586
  0
LINE
  8
_0-3_0-10
  6
CONTINUOUS
 62
    4
 10
359.35244321839599
 20
246.4972707944558
 11
364.35244321839599
 21
246.4972707944558
  0
LINE
  8
_0-3_0-10
  6
CONTINUOUS
 62
    4
 10
359.35244321839599
 20
245.9972707944558
 11
364.35244321839599
 21
245.9972707944558
  0
ARC
  8
_0-3_0-10
  6
CONTINUOUS
 62
    4
 10
359.35244321839599
 20
245.9972707944558
 40
0.5
 50
90
 51
180
  0
LINE
  8
_0-3_0-10
  6
CONTINUOUS
 62
    4
 10
363.85244321839599
 20
46.15752546112273
 11
359.22303255172926
 21
47.397972127789415
  0
LINE
  8
_0-3_0-10
  6
CONTINUOUS
 62
    4
 10
363.98185255172938
 20
46.640488127789325
 11
359.35244321839599
 21
47.88093479445601
  0
LINE
  8
_0-3_0-10
  6
CONTINUOUS
 62
    4
 10
364.20599655172929
 20
43.39474146112272
 11
346.70599655172935
 21
25.894741461122734
  0
ARC
  8
_0-3_0-10
  6
CONTINUOUS
 62
    4
 10
359.35244321839599
 20
47.88093479445601
 40
0.5
 50
180
 51
254.9999999999988
  0
LINE
  8
_0-3_0-10
  6
CONTINUOUS
 62
    4
 10
354.73745788506266
 20
40.997270794455943
 11
352.56371921839598
 21
38.82353346112265
  0
ARC
  8
_0-3_0-10
  6
CONTINUOUS
 62
    4
 10
354.68503921839595
 20
36.702212127789351
 40
3
 50
135.00000000000034
 51
224.99999999999968
  0
LINE
  8
_0-3_0-10
  6
CONTINUOUS
 62
    4
 10
352.56371921839598
 20
34.580892127789383
 11
353.62437921839585
 21
33.52023212778927
  0
LINE
  8
_0-3_0-10
  6
CONTINUOUS
 62
    4
 10
358.15244321839594
 20
235.79727079445586
 11
358.15244321839594
 21
63.697270794460763
  0
LINE
  8
_0-3_0-10
  6
CONTINUOUS
 62
    4
 10
357.65244321839594
 20
63.697270794460763
 11
357.65244321839594
 21
79.936108127794099
  0
LINE
  8
_0-3_0-10
  6
CONTINUOUS
 62
    4
 10
364.35244321839599
 20
43.748296127789416
 11
364.35244321839599
 21
46.15752546112273
  0
LINE
  8
_0-3_0-10
  6
CONTINUOUS
 62
    4
 10
363.85244321839599
 20
43.748296127789416
 11
363.85244321839599
 21
46.15752546112273
  0
ARC
  8
_0-3_0-10
  6
CONTINUOUS
 62
    4
 10
363.85244321839599
 20
46.15752546112273
 40
0.5
 50
0
 51
74.999999999998834
  0
ARC
  8
_0-3_0-10
  6
CONTINUOUS
 62
    4
 10
363.85244321839599
 20
43.748296127789416
 40
0.5
 50
315.00000000000022
 51
359.99999999999994
  0
LINE
  8
_0-3_0-10
  6
CONTINUOUS
 62
    4
 10
346.70599655172935
 20
25.894741461122734
 11
346.35244321839604
 21
26.248296127789444
  0
LINE
  8
_0-3_0-10
  6
CONTINUOUS
 62
    4
 10
364.35244321839599
 20
246.4972707944558
 11
364.35244321839599
 21
245.9972707944558
  0
ARC
  8
_0-3_0-10
  6
CONTINUOUS
 62
    4
 10
357.65244321839594
 20
80.497270794460703
 40
0.5
 50
297.00000000000181
 51
0.0000000000000127
  0
LINE
  8
_0-3_0-10
  6
CONTINUOUS
 62
    4
 10
357.65244321839594
 20
233.59727079445571
 11
358.15244321839594
 21
233.59727079445571
  0
LINE
  8
_0-3_0-10
  6
CONTINUOUS
 62
    4
 10
358.85244321839604
 20
242.89727079445577
 11
359.35244321839599
 21
242.89727079445577
  0
LINE
  8
_0-3_0-10
  6
CONTINUOUS
 62
    4
 10
359.35244321839599
 20
245.9972707944558
 11
359.35244321839599
 21
223.47740279445622
  0
LINE
  8
_0-3_0-10
  6
CONTINUOUS
 62
    4
 10
358.85244321839604
 20
63.197270794460763
 11
358.85244321839604
 21
47.88093479445601
  0
LINE
  8
_0-3_0-10
  6
CONTINUOUS
 62
    4
 10
357.65244321839594
 20
188.49727079445608
 11
357.65244321839594
 21
199.93610850092198
  0
LINE
  8
_0-3_0-10
  6
CONTINUOUS
 62
    4
 10
357.65244321839594
 20
80.497270794460703
 11
357.65244321839594
 21
97.794864559680604
  0
LINE
  8
_0-3_0-10
  6
CONTINUOUS
 62
    4
 10
357.65244321839594
 20
98.356026853214586
 11
357.65244321839594
 21
115.7330088895776
  0
LINE
  8
_0-3_0-10
  6
CONTINUOUS
 62
    4
 10
357.65244321839594
 20
116.2941711831115
 11
357.65244321839594
 21
133.67115321947449
  0
LINE
  8
_0-3_0-10
  6
CONTINUOUS
 62
    4
 10
357.65244321839594
 20
134.2323155130085
 11
357.65244321839594
 21
151.6092975493714
  0
LINE
  8
_0-3_0-10
  6
CONTINUOUS
 62
    4
 10
357.65244321839594
 20
152.1704598429053
 11
357.65244321839594
 21
169.54744187926829
  0
LINE
  8
_0-3_0-10
  6
CONTINUOUS
 62
    4
 10
357.65244321839594
 20
170.1086041728023
 11
357.65244321839594
 21
187.4855862091652
  0
LINE
  8
_0-3_0-10
  6
CONTINUOUS
 62
    4
 10
357.65244321839588
 20
188.0467485026991
 11
357.65244321839594
 21
205.42373053906229
  0
LINE
  8
_0-3_0-10
  6
CONTINUOUS
 62
    4
 10
357.65244321839594
 20
205.9848928325963
 11
357.65244321839594
 21
223.36187486895931
  0
LINE
  8
_0-3_0-10
  6
CONTINUOUS
 62
    4
 10
357.65244321839594
 20
223.92303716249318
 11
357.65244321839594
 21
235.79727079445586
  0
LINE
  8
_0-3_0-10
  6
CONTINUOUS
 62
    4
 10
357.65244321839594
 20
68.997270794460703
 11
358.15244321839594
 21
68.997270794460703
  0
LINE
  8
_0-3_0-10
  6
CONTINUOUS
 62
    4
 10
358.15244321839594
 20
235.79727079445586
 11
358.85244321839604
 21
235.79727079445586
  0
LINE
  8
_0-3_0-10
  6
CONTINUOUS
 62
    4
 10
358.15244321839594
 20
236.29727079445586
 11
358.85244321839604
 21
236.29727079445586
  0
ARC
  8
_0-3_0-10
  6
CONTINUOUS
 62
    4
 10
358.15244321839594
 20
235.79727079445586
 40
0.5
 50
90
 51
180
  0
ARC
  8
_0-3_0-10
  6
CONTINUOUS
 62
    4
 10
358.85244321839604
 20
236.29727079445586
 40
0.5
 50
270
 51
0
  0
LINE
  8
_0-3_0-10
  6
CONTINUOUS
 62
    4
 10
358.15244321839594
 20
63.697270794460763
 11
358.85244321839604
 21
63.697270794460763
  0
LINE
  8
_0-3_0-10
  6
CONTINUOUS
 62
    4
 10
358.15244321839594
 20
63.197270794460763
 11
358.85244321839604
 21
63.197270794460763
  0
ARC
  8
_0-3_0-10
  6
CONTINUOUS
 62
    4
 10
358.15244321839594
 20
63.697270794460763
 40
0.5
 50
180
 51
270
  0
ARC
  8
_0-3_0-10
  6
CONTINUOUS
 62
    4
 10
358.85244321839604
 20
63.197270794460763
 40
0.5
 50
0
 51
90
  0
LINE
  8
_0-3_0-10
  6
CONTINUOUS
 62
    4
 10
359.35244321839599
 20
73.517140127792799
 11
359.35244321839599
 21
47.88093479445601
  0
LINE
  8
_0-3_0-10
  6
CONTINUOUS
 62
    4
 10
349.89506321839598
 20
75.958113461122692
 11
350.16738321839596
 21
75.538778794455993
  0
LINE
  8
_0-3_0-10
  6
CONTINUOUS
 62
    4
 10
357.65244321839594
 20
80.497270794455999
 11
354.08841655172926
 21
78.681309461122793
  0
LINE
  8
_0-3_0-10
  6
CONTINUOUS
 62
    4
 10
357.8794378850626
 20
80.051768127789401
 11
354.31541255172925
 21
78.235805461122694
  0
LINE
  8
_0-3_0-10
  6
CONTINUOUS
 62
    4
 10
354.08841655172926
 20
78.681309461122793
 11
349.89506321839598
 21
75.958113461122692
  0
LINE
  8
_0-3_0-10
  6
CONTINUOUS
 62
    4
 10
354.36073655172936
 20
78.261973461122693
 11
350.16738321839596
 21
75.538778794455993
  0
LINE
  8
_0-3_0-10
  6
CONTINUOUS
 62
    4
 10
357.16178988506266
 20
80.247270794455999
 11
357.38878588506258
 21
79.801768127789401
  0
ARC
  8
_0-3_0-10
  6
CONTINUOUS
 62
    4
 10
357.65244321839594
 20
80.497270794455999
 40
0.5
 50
297.00000000000181
 51
0.0000000000000127
  0
ARC
  8
_0-3_0-10
  6
CONTINUOUS
 62
    4
 10
357.65244321839594
 20
98.356026853219304
 40
0.5
 50
297.00000000000181
 51
0.0000000000000127
  0
LINE
  8
_0-3_0-10
  6
CONTINUOUS
 62
    4
 10
349.89506321839598
 20
93.816869519881294
 11
350.16738321839596
 21
93.397534853214608
  0
LINE
  8
_0-3_0-10
  6
CONTINUOUS
 62
    4
 10
357.65244321839594
 20
98.356026853214586
 11
354.08841655172926
 21
96.540065519881295
  0
LINE
  8
_0-3_0-10
  6
CONTINUOUS
 62
    4
 10
357.8794378850626
 20
97.910524186548002
 11
354.31541255172925
 21
96.094561519881295
  0
LINE
  8
_0-3_0-10
  6
CONTINUOUS
 62
    4
 10
354.08841655172926
 20
96.540065519881295
 11
349.89506321839598
 21
93.816869519881294
  0
LINE
  8
_0-3_0-10
  6
CONTINUOUS
 62
    4
 10
354.36073655172936
 20
96.120729519881308
 11
350.16738321839596
 21
93.397534853214608
  0
LINE
  8
_0-3_0-10
  6
CONTINUOUS
 62
    4
 10
357.16178988506266
 20
98.106026853214586
 11
357.38878588506258
 21
97.660524186548002
  0
ARC
  8
_0-3_0-10
  6
CONTINUOUS
 62
    4
 10
357.65244321839594
 20
98.356026853214586
 40
0.5
 50
297.00000000000181
 51
0.0000000000000127
  0
ARC
  8
_0-3_0-10
  6
CONTINUOUS
 62
    4
 10
357.65244321839594
 20
116.29417118311619
 40
0.5
 50
297.00000000000181
 51
0.0000000000000127
  0
LINE
  8
_0-3_0-10
  6
CONTINUOUS
 62
    4
 10
349.89506321839598
 20
111.75501384977819
 11
350.16738321839596
 21
111.33567918311149
  0
LINE
  8
_0-3_0-10
  6
CONTINUOUS
 62
    4
 10
357.65244321839594
 20
116.2941711831115
 11
354.08841655172926
 21
114.47820984977829
  0
LINE
  8
_0-3_0-10
  6
CONTINUOUS
 62
    4
 10
357.8794378850626
 20
115.84866851644487
 11
354.31541255172925
 21
114.03270584977829
  0
LINE
  8
_0-3_0-10
  6
CONTINUOUS
 62
    4
 10
354.08841655172926
 20
114.47820984977829
 11
349.89506321839598
 21
111.75501384977819
  0
LINE
  8
_0-3_0-10
  6
CONTINUOUS
 62
    4
 10
354.36073655172936
 20
114.05887384977819
 11
350.16738321839596
 21
111.33567918311149
  0
LINE
  8
_0-3_0-10
  6
CONTINUOUS
 62
    4
 10
357.16178988506266
 20
116.0441711831115
 11
357.38878588506258
 21
115.59866851644487
  0
ARC
  8
_0-3_0-10
  6
CONTINUOUS
 62
    4
 10
357.65244321839594
 20
116.2941711831115
 40
0.5
 50
297.00000000000181
 51
0.0000000000000127
  0
ARC
  8
_0-3_0-10
  6
CONTINUOUS
 62
    4
 10
357.65244321839594
 20
134.2323155130131
 40
0.5
 50
297.00000000000181
 51
0.0000000000000127
  0
LINE
  8
_0-3_0-10
  6
CONTINUOUS
 62
    4
 10
349.89506321839598
 20
129.69315817967509
 11
350.16738321839596
 21
129.2738235130084
  0
LINE
  8
_0-3_0-10
  6
CONTINUOUS
 62
    4
 10
357.65244321839594
 20
134.23231551300838
 11
354.08841655172926
 21
132.4163541796752
  0
LINE
  8
_0-3_0-10
  6
CONTINUOUS
 62
    4
 10
357.8794378850626
 20
133.7868128463418
 11
354.31541255172925
 21
131.97085017967509
  0
LINE
  8
_0-3_0-10
  6
CONTINUOUS
 62
    4
 10
354.08841655172926
 20
132.4163541796752
 11
349.89506321839598
 21
129.69315817967509
  0
LINE
  8
_0-3_0-10
  6
CONTINUOUS
 62
    4
 10
354.36073655172936
 20
131.9970181796751
 11
350.16738321839596
 21
129.2738235130084
  0
LINE
  8
_0-3_0-10
  6
CONTINUOUS
 62
    4
 10
357.16178988506266
 20
133.98231551300838
 11
357.38878588506258
 21
133.5368128463418
  0
ARC
  8
_0-3_0-10
  6
CONTINUOUS
 62
    4
 10
357.65244321839594
 20
134.23231551300838
 40
0.5
 50
297.00000000000181
 51
0.0000000000000127
  0
ARC
  8
_0-3_0-10
  6
CONTINUOUS
 62
    4
 10
357.65244321839594
 20
152.17045984290999
 40
0.5
 50
297.00000000000181
 51
0.0000000000000127
  0
LINE
  8
_0-3_0-10
  6
CONTINUOUS
 62
    4
 10
349.89506321839598
 20
147.631302509572
 11
350.16738321839596
 21
147.21196784290529
  0
LINE
  8
_0-3_0-10
  6
CONTINUOUS
 62
    4
 10
357.65244321839594
 20
152.1704598429053
 11
354.08841655172926
 21
150.35449850957209
  0
LINE
  8
_0-3_0-10
  6
CONTINUOUS
 62
    4
 10
357.8794378850626
 20
151.72495717623868
 11
354.31541255172925
 21
149.90899450957209
  0
LINE
  8
_0-3_0-10
  6
CONTINUOUS
 62
    4
 10
354.08841655172926
 20
150.35449850957209
 11
349.89506321839598
 21
147.631302509572
  0
LINE
  8
_0-3_0-10
  6
CONTINUOUS
 62
    4
 10
354.36073655172936
 20
149.93516250957199
 11
350.16738321839596
 21
147.21196784290529
  0
LINE
  8
_0-3_0-10
  6
CONTINUOUS
 62
    4
 10
357.16178988506266
 20
151.9204598429053
 11
357.38878588506258
 21
151.47495717623868
  0
ARC
  8
_0-3_0-10
  6
CONTINUOUS
 62
    4
 10
357.65244321839594
 20
152.1704598429053
 40
0.5
 50
297.00000000000181
 51
0.0000000000000127
  0
ARC
  8
_0-3_0-10
  6
CONTINUOUS
 62
    4
 10
357.65244321839594
 20
170.1086041728069
 40
0.5
 50
297.00000000000181
 51
0.0000000000000127
  0
LINE
  8
_0-3_0-10
  6
CONTINUOUS
 62
    4
 10
349.89506321839598
 20
165.56944683946889
 11
350.16738321839596
 21
165.1501121728022
  0
LINE
  8
_0-3_0-10
  6
CONTINUOUS
 62
    4
 10
357.65244321839594
 20
170.10860417280218
 11
354.08841655172926
 21
168.29264283946901
  0
LINE
  8
_0-3_0-10
  6
CONTINUOUS
 62
    4
 10
357.8794378850626
 20
169.6631015061356
 11
354.31541255172925
 21
167.84713883946901
  0
LINE
  8
_0-3_0-10
  6
CONTINUOUS
 62
    4
 10
354.08841655172926
 20
168.29264283946901
 11
349.89506321839598
 21
165.56944683946889
  0
LINE
  8
_0-3_0-10
  6
CONTINUOUS
 62
    4
 10
354.36073655172936
 20
167.87330683946899
 11
350.16738321839596
 21
165.1501121728022
  0
LINE
  8
_0-3_0-10
  6
CONTINUOUS
 62
    4
 10
357.16178988506266
 20
169.85860417280218
 11
357.38878588506258
 21
169.4131015061356
  0
ARC
  8
_0-3_0-10
  6
CONTINUOUS
 62
    4
 10
357.65244321839594
 20
170.10860417280218
 40
0.5
 50
297.00000000000181
 51
0.0000000000000127
  0
ARC
  8
_0-3_0-10
  6
CONTINUOUS
 62
    4
 10
357.65244321839594
 20
188.04674850270379
 40
0.5
 50
297.00000000000181
 51
0.0000000000000127
  0
LINE
  8
_0-3_0-10
  6
CONTINUOUS
 62
    4
 10
349.89506321839598
 20
183.5075911693658
 11
350.16738321839596
 21
183.08825650269909
  0
LINE
  8
_0-3_0-10
  6
CONTINUOUS
 62
    4
 10
357.65244321839594
 20
188.0467485026991
 11
354.08841655172926
 21
186.23078716936589
  0
LINE
  8
_0-3_0-10
  6
CONTINUOUS
 62
    4
 10
357.8794378850626
 20
187.60124583603248
 11
354.31541255172925
 21
185.78528316936578
  0
LINE
  8
_0-3_0-10
  6
CONTINUOUS
 62
    4
 10
354.08841655172926
 20
186.23078716936589
 11
349.89506321839598
 21
183.5075911693658
  0
LINE
  8
_0-3_0-10
  6
CONTINUOUS
 62
    4
 10
354.36073655172936
 20
185.81145116936579
 11
350.16738321839596
 21
183.08825650269909
  0
LINE
  8
_0-3_0-10
  6
CONTINUOUS
 62
    4
 10
357.16178988506266
 20
187.7967485026991
 11
357.38878588506258
 21
187.35124583603248
  0
ARC
  8
_0-3_0-10
  6
CONTINUOUS
 62
    4
 10
357.65244321839594
 20
188.0467485026991
 40
0.5
 50
297.00000000000181
 51
0.0000000000000127
  0
ARC
  8
_0-3_0-10
  6
CONTINUOUS
 62
    4
 10
357.65244321839594
 20
205.9848928326009
 40
0.5
 50
297.00000000000181
 51
0.0000000000000127
  0
LINE
  8
_0-3_0-10
  6
CONTINUOUS
 62
    4
 10
349.89506321839598
 20
201.44573549926289
 11
350.16738321839596
 21
201.0264008325962
  0
LINE
  8
_0-3_0-10
  6
CONTINUOUS
 62
    4
 10
357.65244321839594
 20
205.98489283259618
 11
354.08841655172926
 21
204.16893149926301
  0
LINE
  8
_0-3_0-10
  6
CONTINUOUS
 62
    4
 10
357.8794378850626
 20
205.5393901659296
 11
354.31541255172925
 21
203.72342749926301
  0
LINE
  8
_0-3_0-10
  6
CONTINUOUS
 62
    4
 10
354.08841655172926
 20
204.16893149926301
 11
349.89506321839598
 21
201.44573549926289
  0
LINE
  8
_0-3_0-10
  6
CONTINUOUS
 62
    4
 10
354.36073655172936
 20
203.7495954992629
 11
350.16738321839596
 21
201.0264008325962
  0
LINE
  8
_0-3_0-10
  6
CONTINUOUS
 62
    4
 10
357.16178988506266
 20
205.73489283259618
 11
357.38878588506258
 21
205.2893901659296
  0
ARC
  8
_0-3_0-10
  6
CONTINUOUS
 62
    4
 10
357.65244321839594
 20
205.98489283259618
 40
0.5
 50
297.00000000000181
 51
0.0000000000000127
  0
ARC
  8
_0-3_0-10
  6
CONTINUOUS
 62
    4
 10
357.65244321839594
 20
223.9230371624979
 40
0.5
 50
297.00000000000181
 51
0.0000000000000127
  0
LINE
  8
_0-3_0-10
  6
CONTINUOUS
 62
    4
 10
349.89506321839598
 20
219.38387982915989
 11
350.16738321839596
 21
218.9645451624932
  0
LINE
  8
_0-3_0-10
  6
CONTINUOUS
 62
    4
 10
357.65244321839594
 20
223.92303716249318
 11
354.08841655172926
 21
222.10707582916001
  0
LINE
  8
_0-3_0-10
  6
CONTINUOUS
 62
    4
 10
357.8794378850626
 20
223.4775344958266
 11
354.31541255172925
 21
221.66157182915992
  0
LINE
  8
_0-3_0-10
  6
CONTINUOUS
 62
    4
 10
354.08841655172926
 20
222.10707582916001
 11
349.89506321839598
 21
219.38387982915989
  0
LINE
  8
_0-3_0-10
  6
CONTINUOUS
 62
    4
 10
354.36073655172936
 20
221.6877398291599
 11
350.16738321839596
 21
218.9645451624932
  0
LINE
  8
_0-3_0-10
  6
CONTINUOUS
 62
    4
 10
357.16178988506266
 20
223.67303716249318
 11
357.38878588506258
 21
223.2275344958266
  0
ARC
  8
_0-3_0-10
  6
CONTINUOUS
 62
    4
 10
357.65244321839594
 20
223.92303716249318
 40
0.5
 50
297.00000000000181
 51
0.0000000000000127
  0
LINE
  8
_0-3_0-10
  6
CONTINUOUS
 62
    7
 10
132.02666675543036
 20
226.3226016021548
 11
133.68822467898047
 21
227.98415952570491
  0
LINE
  8
_0-3_0-10
  6
CONTINUOUS
 62
    7
 10
133.90779820001438
 20
225.55208261728927
 11
136.12654925665327
 21
227.77083367392822
  0
LINE
  8
_0-3_0-10
  6
CONTINUOUS
 62
    7
 10
136.14045879851886
 20
225.13309278634432
 11
138.25536866256206
 21
227.24800265038737
  0
LINE
  8
_0-3_0-10
  6
CONTINUOUS
 62
    7
 10
131.20929097996847
 20
217.55027453834418
 11
132.51415589587426
 21
218.85513945425
  0
LINE
  8
_0-3_0-10
  6
CONTINUOUS
 62
    7
 10
138.37311939702337
 20
224.71410295539919
 11
140.22617911224887
 21
226.56716267062461
  0
LINE
  8
_0-3_0-10
  6
CONTINUOUS
 62
    7
 10
131.17908754350835
 20
214.8684206724346
 11
135.16580632532378
 21
218.85513945425009
  0
LINE
  8
_0-3_0-10
  6
CONTINUOUS
 62
    7
 10
140.60577999552776
 20
224.29511312445401
 11
142.15650596751348
 21
225.84583909643959
  0
LINE
  8
_0-3_0-10
  6
CONTINUOUS
 62
    7
 10
131.14888410704827
 20
212.186566806525
 11
137.81745675477336
 21
218.85513945425009
  0
LINE
  8
_0-3_0-10
  6
CONTINUOUS
 62
    7
 10
142.83844059403227
 20
223.87612329350889
 11
144.04770277194896
 21
225.08538547142558
  0
LINE
  8
_0-3_0-10
  6
CONTINUOUS
 62
    7
 10
131.11868067058827
 20
209.5047129406154
 11
140.46910718422287
 21
218.85513945425
  0
LINE
  8
_0-3_0-10
  6
CONTINUOUS
 62
    7
 10
144.99325896920518
 20
223.3792912392322
 11
145.90098134166066
 21
224.28701361168771
  0
LINE
  8
_0-3_0-10
  6
CONTINUOUS
 62
    7
 10
132.18299204666206
 20
207.91737388723959
 11
143.12075761367248
 21
218.85513945425
  0
LINE
  8
_0-3_0-10
  6
CONTINUOUS
 62
    7
 10
147.13295542533387
 20
222.86733726591137
 11
147.71742747920347
 21
223.45180931978097
  0
LINE
  8
_0-3_0-10
  6
CONTINUOUS
 62
    7
 10
134.83464247611158
 20
207.91737388723959
 11
145.77240804312197
 21
218.85513945425
  0
LINE
  8
_0-3_0-10
  6
CONTINUOUS
 62
    7
 10
149.27265188146267
 20
222.35538329259071
 11
149.49801423478447
 21
222.58074564591248
  0
LINE
  8
_0-3_0-10
  6
CONTINUOUS
 62
    7
 10
137.48629290556118
 20
207.91737388723959
 11
148.43960418547237
 21
218.87068516715081
  0
LINE
  8
_0-3_0-10
  6
CONTINUOUS
 62
    7
 10
150.92815628575866
 20
221.35923726743698
 11
151.24361314375957
 21
221.674694125438
  0
LINE
  8
_0-3_0-10
  6
CONTINUOUS
 62
    7
 10
140.13794333501076
 20
207.91737388723959
 11
152.95500378078997
 21
220.73443433301878
  0
LINE
  8
_0-3_0-10
  6
CONTINUOUS
 62
    7
 10
142.78959376446027
 20
207.91737388723959
 11
154.63288190255877
 21
219.760662025338
  0
LINE
  8
_0-3_0-10
  6
CONTINUOUS
 62
    7
 10
145.44124419390988
 20
207.91737388723959
 11
156.27786639756158
 21
218.7539960908914
  0
LINE
  8
_0-3_0-10
  6
CONTINUOUS
 62
    7
 10
148.09289462335937
 20
207.91737388723959
 11
157.89050521948257
 21
217.71498448336279
  0
LINE
  8
_0-3_0-10
  6
CONTINUOUS
 62
    7
 10
150.74454505280897
 20
207.91737388723959
 11
159.47128044729217
 21
216.64410928172279
  0
LINE
  8
_0-3_0-10
  6
CONTINUOUS
 62
    7
 10
153.39619548225846
 20
207.91737388723959
 11
157.39045645740986
 21
211.91163486239099
  0
LINE
  8
_0-3_0-10
  6
CONTINUOUS
 62
    7
 10
158.66520906241888
 20
213.18638746740001
 11
161.02061258846006
 21
215.54179099344119
  0
LINE
  8
_0-3_0-10
  6
CONTINUOUS
 62
    7
 10
156.04784591170806
 20
207.91737388723959
 11
157.05379993447746
 21
208.92332791000899
  0
LINE
  8
_0-3_0-10
  6
CONTINUOUS
 62
    7
 10
161.67996471436606
 20
213.54949268989759
 11
162.20386717992926
 21
214.0733951554609
  0
LINE
  8
_0-3_0-10
  6
CONTINUOUS
 62
    7
 10
133.24646626282688
 20
207.9173738872395
 11
131.12469947508856
 21
210.03914067497788
  0
LINE
  8
_0-3_0-10
  6
CONTINUOUS
 62
    7
 10
135.89811669227646
 20
207.91737388723959
 11
131.15423017681456
 21
212.6612604027014
  0
LINE
  8
_0-3_0-10
  6
CONTINUOUS
 62
    7
 10
138.54976712172606
 20
207.91737388723959
 11
131.18376087854068
 21
215.283380130425
  0
LINE
  8
_0-3_0-10
  6
CONTINUOUS
 62
    7
 10
141.20141755117558
 20
207.9173738872395
 11
131.21329158026668
 21
217.90549985814848
  0
LINE
  8
_0-3_0-10
  6
CONTINUOUS
 62
    7
 10
143.85306798062518
 20
207.9173738872395
 11
132.91530241361476
 21
218.85513945424989
  0
LINE
  8
_0-3_0-10
  6
CONTINUOUS
 62
    7
 10
146.50471841007467
 20
207.91737388723959
 11
135.56695284306437
 21
218.85513945424989
  0
LINE
  8
_0-3_0-10
  6
CONTINUOUS
 62
    7
 10
149.15636883952427
 20
207.9173738872395
 11
138.21860327251386
 21
218.85513945424989
  0
LINE
  8
_0-3_0-10
  6
CONTINUOUS
 62
    7
 10
151.80801926897376
 20
207.9173738872395
 11
140.87025370196346
 21
218.85513945424989
  0
LINE
  8
_0-3_0-10
  6
CONTINUOUS
 62
    7
 10
134.23464855681766
 20
225.49074459939566
 11
132.09334742256888
 21
227.63204573364458
  0
LINE
  8
_0-3_0-10
  6
CONTINUOUS
 62
    7
 10
154.45966969842336
 20
207.91737388723959
 11
143.52190413141298
 21
218.85513945424989
  0
LINE
  8
_0-3_0-10
  6
CONTINUOUS
 62
    7
 10
137.49887685047107
 20
224.87816673519176
 11
134.46044457624506
 21
227.91659900941778
  0
LINE
  8
_0-3_0-10
  6
CONTINUOUS
 62
    7
 10
156.93730384035487
 20
208.0913901747576
 11
146.17355456086247
 21
218.85513945424989
  0
LINE
  8
_0-3_0-10
  6
CONTINUOUS
 62
    7
 10
140.76310514412458
 20
224.26558887098781
 11
137.55057293468126
 21
227.4781210804312
  0
LINE
  8
_0-3_0-10
  6
CONTINUOUS
 62
    7
 10
157.05520909951687
 20
210.62513534504509
 11
148.77714460467117
 21
218.9031998398909
  0
LINE
  8
_0-3_0-10
  6
CONTINUOUS
 62
    7
 10
144.08334217615026
 20
223.59700226841181
 11
141.63375859777397
 21
226.0465858467881
  0
LINE
  8
_0-3_0-10
  6
CONTINUOUS
 62
    7
 10
157.81058335630407
 20
212.52141151770749
 11
150.67505114518937
 21
219.65694372882219
  0
LINE
  8
_0-3_0-10
  6
CONTINUOUS
 62
    7
 10
147.56898384656847
 20
222.76301102744309
 11
146.16154267208696
 21
224.1704522019246
  0
LINE
  8
_0-3_0-10
  6
CONTINUOUS
 62
    7
 10
159.50880271523575
 20
213.4748425882253
 11
151.38425389743167
 21
221.59939140602949
  0
LINE
  8
_0-3_0-10
  6
CONTINUOUS
 62
    7
 10
161.94906161281247
 20
213.68623412009819
 11
157.97860861002476
 21
217.65668712288589
  0
LINE
  8
_0-3_0-10
  6
CONTINUOUS
 62
    7
 10
130.99786692474796
 20
198.77729747697688
 11
133.13756457212417
 21
200.916995124353
  0
LINE
  8
_0-3_0-10
  6
CONTINUOUS
 62
    7
 10
130.96766348828788
 20
196.09544361106719
 11
135.78921500157377
 21
200.916995124353
  0
LINE
  8
_0-3_0-10
  6
CONTINUOUS
 62
    7
 10
130.93746005182777
 20
193.41358974515759
 11
138.44086543102326
 21
200.91699512435309
  0
LINE
  8
_0-3_0-10
  6
CONTINUOUS
 62
    7
 10
130.90725661536768
 20
190.7317358792479
 11
141.09251586047287
 21
200.91699512435309
  0
LINE
  8
_0-3_0-10
  6
CONTINUOUS
 62
    7
 10
132.80640072291197
 20
189.9792295573427
 11
143.74416628992236
 21
200.91699512435309
  0
LINE
  8
_0-3_0-10
  6
CONTINUOUS
 62
    7
 10
135.45805115236157
 20
189.9792295573427
 11
146.39581671937196
 21
200.91699512435309
  0
LINE
  8
_0-3_0-10
  6
CONTINUOUS
 62
    7
 10
138.10970158181106
 20
189.9792295573427
 11
149.04746714882148
 21
200.91699512435309
  0
LINE
  8
_0-3_0-10
  6
CONTINUOUS
 62
    7
 10
140.76135201126066
 20
189.9792295573427
 11
151.69911757827108
 21
200.91699512435309
  0
LINE
  8
_0-3_0-10
  6
CONTINUOUS
 62
    7
 10
143.41300244071027
 20
189.9792295573427
 11
154.35076800772057
 21
200.916995124353
  0
LINE
  8
_0-3_0-10
  6
CONTINUOUS
 62
    7
 10
146.06465287015976
 20
189.9792295573427
 11
157.00241843717017
 21
200.916995124353
  0
LINE
  8
_0-3_0-10
  6
CONTINUOUS
 62
    7
 10
164.12825792155246
 20
208.04283460873529
 11
165.12393122067527
 21
209.0385079078581
  0
LINE
  8
_0-3_0-10
  6
CONTINUOUS
 62
    7
 10
148.71630329960936
 20
189.9792295573427
 11
159.65406886661978
 21
200.91699512435309
  0
LINE
  8
_0-3_0-10
  6
CONTINUOUS
 62
    7
 10
165.67524497034807
 20
206.93817122808138
 11
167.77558165012487
 21
209.03850790785818
  0
LINE
  8
_0-3_0-10
  6
CONTINUOUS
 62
    7
 10
151.36795372905888
 20
189.9792295573427
 11
162.30571929606927
 21
200.91699512435309
  0
LINE
  8
_0-3_0-10
  6
CONTINUOUS
 62
    7
 10
167.22223201914377
 20
205.83350784742748
 11
169.67289264793836
 21
208.2841684762221
  0
LINE
  8
_0-3_0-10
  6
CONTINUOUS
 62
    7
 10
154.01960415850848
 20
189.9792295573427
 11
164.95736972551887
 21
200.91699512435309
  0
LINE
  8
_0-3_0-10
  6
CONTINUOUS
 62
    7
 10
168.76921906793947
 20
204.7288444667736
 11
171.00935426183048
 21
206.9689796606647
  0
LINE
  8
_0-3_0-10
  6
CONTINUOUS
 62
    7
 10
156.67125458795806
 20
189.9792295573427
 11
167.84838371287727
 21
201.15635868226189
  0
LINE
  8
_0-3_0-10
  6
CONTINUOUS
 62
    7
 10
169.75910653241558
 20
203.06708150180028
 11
172.31584766822876
 21
205.62382263761338
  0
LINE
  8
_0-3_0-10
  6
CONTINUOUS
 62
    7
 10
159.32290501740766
 20
189.9792295573427
 11
173.59234320577206
 21
204.2486677457071
  0
LINE
  8
_0-3_0-10
  6
CONTINUOUS
 62
    7
 10
161.97455544685718
 20
189.9792295573427
 11
174.83876500879836
 21
202.84343911928399
  0
LINE
  8
_0-3_0-10
  6
CONTINUOUS
 62
    7
 10
164.62620587630678
 20
189.9792295573427
 11
176.05499042178226
 21
201.40801410281829
  0
LINE
  8
_0-3_0-10
  6
CONTINUOUS
 62
    7
 10
167.27785630575627
 20
189.9792295573427
 11
177.24084904565665
 21
199.94222229724309
  0
LINE
  8
_0-3_0-10
  6
CONTINUOUS
 62
    7
 10
169.92950673520576
 20
189.9792295573427
 11
172.71381289536998
 21
192.76353571750678
  0
LINE
  8
_0-3_0-10
  6
CONTINUOUS
 62
    7
 10
175.52907805102947
 20
195.57880087316638
 11
178.39612139858397
 21
198.4458442207208
  0
LINE
  8
_0-3_0-10
  6
CONTINUOUS
 62
    7
 10
178.18682726774807
 20
195.58489966043538
 11
179.51582326816767
 21
196.91389566085499
  0
LINE
  8
_0-3_0-10
  6
CONTINUOUS
 62
    7
 10
132.62305758657697
 20
189.9792295573427
 11
130.91798456300628
 21
191.68430258091339
  0
LINE
  8
_0-3_0-10
  6
CONTINUOUS
 62
    7
 10
135.27470801602646
 20
189.9792295573427
 11
130.94751526473226
 21
194.30642230863688
  0
LINE
  8
_0-3_0-10
  6
CONTINUOUS
 62
    7
 10
137.92635844547606
 20
189.9792295573427
 11
130.97704596645837
 21
196.92854203636039
  0
LINE
  8
_0-3_0-10
  6
CONTINUOUS
 62
    7
 10
140.57800887492567
 20
189.97922955734259
 11
131.00657666818437
 21
199.55066176408388
  0
LINE
  8
_0-3_0-10
  6
CONTINUOUS
 62
    7
 10
143.22965930437516
 20
189.9792295573427
 11
132.29189373736477
 21
200.916995124353
  0
LINE
  8
_0-3_0-10
  6
CONTINUOUS
 62
    7
 10
145.88130973382467
 20
189.97922955734259
 11
134.94354416681437
 21
200.916995124353
  0
LINE
  8
_0-3_0-10
  6
CONTINUOUS
 62
    7
 10
148.53296016327428
 20
189.97922955734259
 11
137.59519459626386
 21
200.916995124353
  0
LINE
  8
_0-3_0-10
  6
CONTINUOUS
 62
    7
 10
151.18461059272377
 20
189.9792295573427
 11
140.24684502571346
 21
200.916995124353
  0
LINE
  8
_0-3_0-10
  6
CONTINUOUS
 62
    7
 10
153.83626102217337
 20
189.9792295573427
 11
142.89849545516307
 21
200.916995124353
  0
LINE
  8
_0-3_0-10
  6
CONTINUOUS
 62
    7
 10
156.48791145162297
 20
189.9792295573427
 11
145.55014588461256
 21
200.916995124353
  0
LINE
  8
_0-3_0-10
  6
CONTINUOUS
 62
    7
 10
159.13956188107258
 20
189.9792295573427
 11
148.20179631406216
 21
200.916995124353
  0
LINE
  8
_0-3_0-10
  6
CONTINUOUS
 62
    7
 10
161.79121231052207
 20
189.9792295573427
 11
150.85344674351168
 21
200.916995124353
  0
LINE
  8
_0-3_0-10
  6
CONTINUOUS
 62
    7
 10
164.44286273997167
 20
189.9792295573427
 11
153.50509717296128
 21
200.916995124353
  0
LINE
  8
_0-3_0-10
  6
CONTINUOUS
 62
    7
 10
167.09451316942116
 20
189.9792295573427
 11
156.15674760241077
 21
200.916995124353
  0
LINE
  8
_0-3_0-10
  6
CONTINUOUS
 62
    7
 10
169.74616359887068
 20
189.9792295573427
 11
158.80839803186037
 21
200.916995124353
  0
LINE
  8
_0-3_0-10
  6
CONTINUOUS
 62
    7
 10
172.19436782460027
 20
190.18267576106268
 11
161.46004846130998
 21
200.916995124353
  0
LINE
  8
_0-3_0-10
  6
CONTINUOUS
 62
    7
 10
172.64656120862946
 20
192.38213280648298
 11
164.11169889075947
 21
200.916995124353
  0
LINE
  8
_0-3_0-10
  6
CONTINUOUS
 62
    7
 10
173.31247275867227
 20
194.36787168588969
 11
166.72857275945986
 21
200.9517716851021
  0
LINE
  8
_0-3_0-10
  6
CONTINUOUS
 62
    7
 10
174.87035190926718
 20
195.46164296474449
 11
168.79598520273617
 21
201.5360096712755
  0
LINE
  8
_0-3_0-10
  6
CONTINUOUS
 62
    7
 10
177.39874564302567
 20
195.58489966043538
 11
169.75910653241558
 21
203.2245387710455
  0
LINE
  8
_0-3_0-10
  6
CONTINUOUS
 62
    7
 10
166.97008780111357
 20
206.01355750234759
 11
163.97038253259347
 21
209.01326277086758
  0
LINE
  8
_0-3_0-10
  6
CONTINUOUS
 62
    7
 10
179.53946543019688
 20
196.0958303027138
 11
166.59678782505255
 21
209.0385079078581
  0
LINE
  8
_0-3_0-10
  6
CONTINUOUS
 62
    7
 10
117.80747799910416
 20
161.72205468628709
 11
121.12612977737616
 21
165.040706464559
  0
LINE
  8
_0-3_0-10
  6
CONTINUOUS
 62
    7
 10
115.95438615692117
 20
157.21731241465448
 11
123.77778020682565
 21
165.040706464559
  0
LINE
  8
_0-3_0-10
  6
CONTINUOUS
 62
    7
 10
115.78959423000998
 20
154.4008700582938
 11
126.42943063627527
 21
165.04070646455909
  0
LINE
  8
_0-3_0-10
  6
CONTINUOUS
 62
    7
 10
118.14331549871457
 20
154.10294089754879
 11
129.08108106572487
 21
165.04070646455909
  0
LINE
  8
_0-3_0-10
  6
CONTINUOUS
 62
    7
 10
120.79496592816417
 20
154.10294089754879
 11
131.73273149517436
 21
165.04070646455909
  0
LINE
  8
_0-3_0-10
  6
CONTINUOUS
 62
    7
 10
123.44661635761366
 20
154.10294089754879
 11
134.38438192462396
 21
165.04070646455909
  0
LINE
  8
_0-3_0-10
  6
CONTINUOUS
 62
    7
 10
126.09826678706326
 20
154.10294089754879
 11
137.03603235407348
 21
165.04070646455909
  0
LINE
  8
_0-3_0-10
  6
CONTINUOUS
 62
    7
 10
128.74991721651278
 20
154.10294089754879
 11
139.68768278352305
 21
165.04070646455909
  0
LINE
  8
_0-3_0-10
  6
CONTINUOUS
 62
    7
 10
131.40156764596235
 20
154.10294089754879
 11
142.33933321297257
 21
165.040706464559
  0
LINE
  8
_0-3_0-10
  6
CONTINUOUS
 62
    7
 10
134.05321807541187
 20
154.10294089754879
 11
144.99098364242217
 21
165.040706464559
  0
LINE
  8
_0-3_0-10
  6
CONTINUOUS
 62
    7
 10
136.70486850486148
 20
154.10294089754879
 11
147.64263407187166
 21
165.04070646455909
  0
LINE
  8
_0-3_0-10
  6
CONTINUOUS
 62
    7
 10
139.35651893431108
 20
154.10294089754879
 11
150.29428450132138
 21
165.04070646455909
  0
LINE
  8
_0-3_0-10
  6
CONTINUOUS
 62
    7
 10
142.00816936376057
 20
154.10294089754879
 11
152.94593493077087
 21
165.04070646455909
  0
LINE
  8
_0-3_0-10
  6
CONTINUOUS
 62
    7
 10
144.65981979321017
 20
154.10294089754879
 11
155.59758536022036
 21
165.04070646455909
  0
LINE
  8
_0-3_0-10
  6
CONTINUOUS
 62
    7
 10
147.31147022265966
 20
154.10294089754879
 11
158.24923578966996
 21
165.04070646455909
  0
LINE
  8
_0-3_0-10
  6
CONTINUOUS
 62
    7
 10
149.96312065210926
 20
154.1029408975489
 11
160.90088621911957
 21
165.04070646455909
  0
LINE
  8
_0-3_0-10
  6
CONTINUOUS
 62
    7
 10
152.61477108155887
 20
154.1029408975489
 11
163.55253664856905
 21
165.04070646455909
  0
LINE
  8
_0-3_0-10
  6
CONTINUOUS
 62
    7
 10
155.26642151100836
 20
154.1029408975489
 11
166.20418707801857
 21
165.04070646455909
  0
LINE
  8
_0-3_0-10
  6
CONTINUOUS
 62
    7
 10
157.91807194045796
 20
154.1029408975489
 11
168.85583750746818
 21
165.04070646455909
  0
LINE
  8
_0-3_0-10
  6
CONTINUOUS
 62
    7
 10
160.56972236990756
 20
154.1029408975489
 11
171.50748793691778
 21
165.04070646455909
  0
LINE
  8
_0-3_0-10
  6
CONTINUOUS
 62
    7
 10
163.22137279935708
 20
154.1029408975489
 11
174.15913836636727
 21
165.04070646455909
  0
LINE
  8
_0-3_0-10
  6
CONTINUOUS
 62
    7
 10
165.87302322880665
 20
154.1029408975489
 11
176.81078879581687
 21
165.04070646455909
  0
LINE
  8
_0-3_0-10
  6
CONTINUOUS
 62
    7
 10
168.52467365825617
 20
154.1029408975489
 11
179.46243922526636
 21
165.04070646455909
  0
LINE
  8
_0-3_0-10
  6
CONTINUOUS
 62
    7
 10
171.17632408770577
 20
154.1029408975489
 11
182.47112227423326
 21
165.39773908407639
  0
LINE
  8
_0-3_0-10
  6
CONTINUOUS
 62
    7
 10
186.36984806263578
 20
169.29646487247899
 11
190.23560243822126
 21
173.16221924806438
  0
LINE
  8
_0-3_0-10
  6
CONTINUOUS
 62
    7
 10
173.82797451715526
 20
154.1029408975489
 11
191.71981418570396
 21
171.9947805660976
  0
LINE
  8
_0-3_0-10
  6
CONTINUOUS
 62
    7
 10
176.47962494660487
 20
154.1029408975489
 11
192.30193889663198
 21
169.92525484757598
  0
LINE
  8
_0-3_0-10
  6
CONTINUOUS
 62
    7
 10
179.13127537605447
 20
154.1029408975489
 11
192.83786556763666
 21
167.80953108913109
  0
LINE
  8
_0-3_0-10
  6
CONTINUOUS
 62
    7
 10
181.78292580550396
 20
154.1029408975489
 11
193.32536734211086
 21
165.6453824341558
  0
LINE
  8
_0-3_0-10
  6
CONTINUOUS
 62
    7
 10
190.00986960072717
 20
159.6782342633225
 11
193.76192129606246
 21
163.4302859586578
  0
LINE
  8
_0-3_0-10
  6
CONTINUOUS
 62
    7
 10
192.69189676749576
 20
159.70861100064161
 11
194.14465565139536
 21
161.16136988454118
  0
LINE
  8
_0-3_0-10
  6
CONTINUOUS
 62
    7
 10
118.11798808682937
 20
154.1029408975487
 11
115.78959423000998
 21
156.43133475436809
  0
LINE
  8
_0-3_0-10
  6
CONTINUOUS
 62
    7
 10
120.76963851627886
 20
154.1029408975487
 11
116.40808445819486
 21
158.4644949556328
  0
LINE
  8
_0-3_0-10
  6
CONTINUOUS
 62
    7
 10
123.42128894572836
 20
154.10294089754879
 11
117.18184379941486
 21
160.34238604386229
  0
LINE
  8
_0-3_0-10
  6
CONTINUOUS
 62
    7
 10
126.07293937517798
 20
154.10294089754879
 11
118.01323469781614
 21
162.16264557491049
  0
LINE
  8
_0-3_0-10
  6
CONTINUOUS
 62
    7
 10
128.72458980462758
 20
154.10294089754879
 11
118.89712416525458
 21
163.9304065369217
  0
LINE
  8
_0-3_0-10
  6
CONTINUOUS
 62
    7
 10
131.37624023407707
 20
154.10294089754879
 11
120.43847466706688
 21
165.040706464559
  0
LINE
  8
_0-3_0-10
  6
CONTINUOUS
 62
    7
 10
134.02789066352656
 20
154.10294089754879
 11
123.09012509651637
 21
165.040706464559
  0
LINE
  8
_0-3_0-10
  6
CONTINUOUS
 62
    7
 10
136.67954109297616
 20
154.10294089754879
 11
125.74177552596597
 21
165.040706464559
  0
LINE
  8
_0-3_0-10
  6
CONTINUOUS
 62
    7
 10
139.33119152242568
 20
154.10294089754879
 11
128.39342595541546
 21
165.040706464559
  0
LINE
  8
_0-3_0-10
  6
CONTINUOUS
 62
    7
 10
141.98284195187525
 20
154.10294089754879
 11
131.04507638486506
 21
165.040706464559
  0
LINE
  8
_0-3_0-10
  6
CONTINUOUS
 62
    7
 10
144.63449238132477
 20
154.10294089754879
 11
133.69672681431455
 21
165.040706464559
  0
LINE
  8
_0-3_0-10
  6
CONTINUOUS
 62
    7
 10
147.28614281077437
 20
154.10294089754879
 11
136.34837724376416
 21
165.040706464559
  0
LINE
  8
_0-3_0-10
  6
CONTINUOUS
 62
    7
 10
149.93779324022398
 20
154.10294089754879
 11
139.00002767321376
 21
165.040706464559
  0
LINE
  8
_0-3_0-10
  6
CONTINUOUS
 62
    7
 10
152.58944366967347
 20
154.10294089754879
 11
141.65167810266328
 21
165.040706464559
  0
LINE
  8
_0-3_0-10
  6
CONTINUOUS
 62
    7
 10
155.24109409912307
 20
154.10294089754879
 11
144.30332853211288
 21
165.040706464559
  0
LINE
  8
_0-3_0-10
  6
CONTINUOUS
 62
    7
 10
157.89274452857256
 20
154.10294089754879
 11
146.95497896156237
 21
165.040706464559
  0
LINE
  8
_0-3_0-10
  6
CONTINUOUS
 62
    7
 10
160.54439495802216
 20
154.10294089754879
 11
149.60662939101197
 21
165.040706464559
  0
LINE
  8
_0-3_0-10
  6
CONTINUOUS
 62
    7
 10
163.19604538747168
 20
154.10294089754879
 11
152.25827982046146
 21
165.040706464559
  0
LINE
  8
_0-3_0-10
  6
CONTINUOUS
 62
    7
 10
165.84769581692125
 20
154.10294089754879
 11
154.90993024991107
 21
165.040706464559
  0
LINE
  8
_0-3_0-10
  6
CONTINUOUS
 62
    7
 10
168.49934624637077
 20
154.10294089754879
 11
157.56158067936055
 21
165.04070646455909
  0
LINE
  8
_0-3_0-10
  6
CONTINUOUS
 62
    7
 10
171.15099667582038
 20
154.10294089754879
 11
160.21323110881016
 21
165.04070646455909
  0
LINE
  8
_0-3_0-10
  6
CONTINUOUS
 62
    7
 10
173.80264710526986
 20
154.10294089754879
 11
162.86488153825968
 21
165.040706464559
  0
LINE
  8
_0-3_0-10
  6
CONTINUOUS
 62
    7
 10
176.45429753471947
 20
154.10294089754879
 11
165.51653196770917
 21
165.040706464559
  0
LINE
  8
_0-3_0-10
  6
CONTINUOUS
 62
    7
 10
179.10594796416896
 20
154.10294089754879
 11
168.16818239715877
 21
165.040706464559
  0
LINE
  8
_0-3_0-10
  6
CONTINUOUS
 62
    7
 10
181.75759839361847
 20
154.10294089754879
 11
170.81983282660826
 21
165.040706464559
  0
LINE
  8
_0-3_0-10
  6
CONTINUOUS
 62
    7
 10
184.04080492163066
 20
154.4713847989862
 11
173.47148325605786
 21
165.040706464559
  0
LINE
  8
_0-3_0-10
  6
CONTINUOUS
 62
    7
 10
185.25303894702406
 20
155.91080120304241
 11
176.12313368550738
 21
165.040706464559
  0
LINE
  8
_0-3_0-10
  6
CONTINUOUS
 62
    7
 10
186.46286963050417
 20
157.3526209490119
 11
178.77478411495695
 21
165.04070646455909
  0
LINE
  8
_0-3_0-10
  6
CONTINUOUS
 62
    7
 10
187.73601694794737
 20
158.73112406101819
 11
181.30707936677018
 21
165.1600616421955
  0
LINE
  8
_0-3_0-10
  6
CONTINUOUS
 62
    7
 10
189.52456297225646
 20
159.59422846615871
 11
183.41008463501415
 21
165.70870680340098
  0
LINE
  8
_0-3_0-10
  6
CONTINUOUS
 62
    7
 10
192.06183086722316
 20
159.70861100064149
 11
185.03500271860406
 21
166.73543914926059
  0
LINE
  8
_0-3_0-10
  6
CONTINUOUS
 62
    7
 10
194.04670300420437
 20
160.37538929310989
 11
185.97682102438108
 21
168.44527127293318
  0
LINE
  8
_0-3_0-10
  6
CONTINUOUS
 62
    7
 10
193.78829060102168
 20
163.28545212574209
 11
186.81442995250148
 21
170.25931277426229
  0
LINE
  8
_0-3_0-10
  6
CONTINUOUS
 62
    7
 10
193.11563880030837
 20
166.60975435590501
 11
187.52399822424197
 21
172.2013949319714
  0
LINE
  8
_0-3_0-10
  6
CONTINUOUS
 62
    7
 10
192.24687350595047
 20
170.13017007971248
 11
189.21482433759857
 21
173.1622192480643
  0
LINE
  8
_0-3_0-10
  6
CONTINUOUS
 62
    7
 10
114.55710824040048
 20
126.65187977418868
 11
115.78959423000998
 21
127.88436576379828
  0
LINE
  8
_0-3_0-10
  6
CONTINUOUS
 62
    7
 10
114.41328825935457
 20
123.85640936369317
 11
115.78959423000998
 21
125.23271533434868
  0
LINE
  8
_0-3_0-10
  6
CONTINUOUS
 62
    7
 10
114.06471686481255
 20
120.85618753970169
 11
115.78959423000998
 21
122.58106490489919
  0
LINE
  8
_0-3_0-10
  6
CONTINUOUS
 62
    7
 10
114.08683199231545
 20
118.22665223775499
 11
115.78959423000998
 21
119.92941447544959
  0
LINE
  8
_0-3_0-10
  6
CONTINUOUS
 62
    7
 10
114.21952030487976
 20
118.22665223775499
 11
113.68338819463247
 21
118.76278434800228
  0
LINE
  8
_0-3_0-10
  6
CONTINUOUS
 62
    7
 10
115.78959423000998
 20
119.3082287420743
 11
114.08958619241926
 21
121.00823677966498
  0
LINE
  8
_0-3_0-10
  6
CONTINUOUS
 62
    7
 10
115.78959423000998
 20
121.95987917152389
 11
114.37392904104895
 21
123.37554436048489
  0
LINE
  8
_0-3_0-10
  6
CONTINUOUS
 62
    7
 10
115.78959423000998
 20
124.61152960097338
 11
114.53422980528756
 21
125.86689402569588
  0
LINE
  8
_0-3_0-10
  6
CONTINUOUS
 62
    7
 10
115.78959423000998
 20
127.263180030423
 11
114.57860673951796
 21
128.47416752091498
  0
LINE
  8
_0-3_0-10
  6
CONTINUOUS
 62
    7
 10
115.78959423000998
 20
127.88436576379828
 11
117.06964627097696
 21
129.1644178047652
  0
LINE
  8
_0-3_0-10
  6
CONTINUOUS
 62
    7
 10
115.78959423000998
 20
125.23271533434868
 11
119.72129670042656
 21
129.1644178047652
  0
LINE
  8
_0-3_0-10
  6
CONTINUOUS
 62
    7
 10
115.78959423000998
 20
122.58106490489919
 11
122.37294712987608
 21
129.1644178047652
  0
LINE
  8
_0-3_0-10
  6
CONTINUOUS
 62
    7
 10
115.78959423000998
 20
119.92941447544959
 11
125.02459755932568
 21
129.1644178047652
  0
LINE
  8
_0-3_0-10
  6
CONTINUOUS
 62
    7
 10
116.73848242176498
 20
118.22665223775499
 11
127.67624798877517
 21
129.1644178047652
  0
LINE
  8
_0-3_0-10
  6
CONTINUOUS
 62
    7
 10
119.39013285121454
 20
118.22665223775499
 11
130.32789841822477
 21
129.1644178047652
  0
LINE
  8
_0-3_0-10
  6
CONTINUOUS
 62
    7
 10
122.04178328066416
 20
118.22665223775499
 11
132.97954884767437
 21
129.1644178047652
  0
LINE
  8
_0-3_0-10
  6
CONTINUOUS
 62
    7
 10
124.69343371011368
 20
118.22665223775499
 11
135.63119927712386
 21
129.1644178047652
  0
LINE
  8
_0-3_0-10
  6
CONTINUOUS
 62
    7
 10
127.34508413956328
 20
118.22665223775499
 11
138.28284970657335
 21
129.1644178047652
  0
LINE
  8
_0-3_0-10
  6
CONTINUOUS
 62
    7
 10
129.99673456901277
 20
118.22665223775499
 11
140.93450013602296
 21
129.1644178047652
  0
LINE
  8
_0-3_0-10
  6
CONTINUOUS
 62
    7
 10
132.64838499846226
 20
118.22665223775499
 11
143.58615056547256
 21
129.1644178047652
  0
LINE
  8
_0-3_0-10
  6
CONTINUOUS
 62
    7
 10
135.30003542791186
 20
118.22665223775499
 11
146.23780099492208
 21
129.1644178047652
  0
LINE
  8
_0-3_0-10
  6
CONTINUOUS
 62
    7
 10
137.95168585736146
 20
118.22665223775499
 11
148.88945142437168
 21
129.1644178047652
  0
LINE
  8
_0-3_0-10
  6
CONTINUOUS
 62
    7
 10
140.60333628681098
 20
118.22665223775499
 11
151.54110185382117
 21
129.1644178047652
  0
LINE
  8
_0-3_0-10
  6
CONTINUOUS
 62
    7
 10
143.25498671626056
 20
118.22665223775499
 11
154.19275228327077
 21
129.1644178047652
  0
LINE
  8
_0-3_0-10
  6
CONTINUOUS
 62
    7
 10
145.90663714571007
 20
118.22665223775499
 11
156.84440271272038
 21
129.1644178047652
  0
LINE
  8
_0-3_0-10
  6
CONTINUOUS
 62
    7
 10
148.55828757515968
 20
118.22665223775499
 11
159.49605314216987
 21
129.1644178047652
  0
LINE
  8
_0-3_0-10
  6
CONTINUOUS
 62
    7
 10
151.20993800460917
 20
118.22665223775499
 11
162.14770357161947
 21
129.1644178047652
  0
LINE
  8
_0-3_0-10
  6
CONTINUOUS
 62
    7
 10
153.86158843405877
 20
118.22665223775499
 11
164.79935400106896
 21
129.1644178047652
  0
LINE
  8
_0-3_0-10
  6
CONTINUOUS
 62
    7
 10
156.51323886350837
 20
118.22665223775499
 11
167.45100443051856
 21
129.1644178047652
  0
LINE
  8
_0-3_0-10
  6
CONTINUOUS
 62
    7
 10
159.16488929295786
 20
118.22665223775499
 11
170.10265485996808
 21
129.1644178047652
  0
LINE
  8
_0-3_0-10
  6
CONTINUOUS
 62
    7
 10
161.81653972240738
 20
118.22665223775499
 11
172.75430528941765
 21
129.1644178047652
  0
LINE
  8
_0-3_0-10
  6
CONTINUOUS
 62
    7
 10
164.46819015185695
 20
118.22665223775499
 11
175.40595571886717
 21
129.1644178047652
  0
LINE
  8
_0-3_0-10
  6
CONTINUOUS
 62
    7
 10
167.11984058130656
 20
118.22665223775499
 11
178.18839640126037
 21
129.29520805770889
  0
LINE
  8
_0-3_0-10
  6
CONTINUOUS
 62
    7
 10
169.77149101075607
 20
118.22665223775499
 11
181.53629336141926
 21
129.9914545884182
  0
LINE
  8
_0-3_0-10
  6
CONTINUOUS
 62
    7
 10
172.42314144020568
 20
118.22665223775499
 11
189.97647097900548
 21
135.7799817765549
  0
LINE
  8
_0-3_0-10
  6
CONTINUOUS
 62
    7
 10
190.11549209942586
 20
135.91900289697528
 11
191.48241979072108
 21
137.2859305882705
  0
LINE
  8
_0-3_0-10
  6
CONTINUOUS
 62
    7
 10
175.07479186965517
 20
118.22665223775499
 11
193.80163727903607
 21
136.9534976471358
  0
LINE
  8
_0-3_0-10
  6
CONTINUOUS
 62
    7
 10
177.95268195394837
 20
118.45289189259868
 11
193.91138603428618
 21
134.41159597293651
  0
LINE
  8
_0-3_0-10
  6
CONTINUOUS
 62
    7
 10
185.46399251134937
 20
123.3125520205501
 11
193.27520070527327
 21
131.123760214474
  0
LINE
  8
_0-3_0-10
  6
CONTINUOUS
 62
    7
 10
188.63541326109657
 20
123.83232234084779
 11
192.45325944602038
 21
127.6501685257715
  0
LINE
  8
_0-3_0-10
  6
CONTINUOUS
 62
    7
 10
116.87117073432938
 20
118.22665223775499
 11
115.78959423000998
 21
119.3082287420743
  0
LINE
  8
_0-3_0-10
  6
CONTINUOUS
 62
    7
 10
119.52282116377887
 20
118.22665223775499
 11
115.78959423000998
 21
121.95987917152389
  0
LINE
  8
_0-3_0-10
  6
CONTINUOUS
 62
    7
 10
122.17447159322847
 20
118.22665223775499
 11
115.78959423000998
 21
124.61152960097338
  0
LINE
  8
_0-3_0-10
  6
CONTINUOUS
 62
    7
 10
124.82612202267796
 20
118.22665223775499
 11
115.78959423000998
 21
127.263180030423
  0
LINE
  8
_0-3_0-10
  6
CONTINUOUS
 62
    7
 10
127.47777245212755
 20
118.22665223775499
 11
116.54000688511736
 21
129.1644178047652
  0
LINE
  8
_0-3_0-10
  6
CONTINUOUS
 62
    7
 10
130.12942288157708
 20
118.22665223775499
 11
119.19165731456685
 21
129.1644178047652
  0
LINE
  8
_0-3_0-10
  6
CONTINUOUS
 62
    7
 10
132.78107331102665
 20
118.22665223775499
 11
121.84330774401647
 21
129.1644178047652
  0
LINE
  8
_0-3_0-10
  6
CONTINUOUS
 62
    7
 10
135.43272374047617
 20
118.22665223775499
 11
124.49495817346596
 21
129.1644178047652
  0
LINE
  8
_0-3_0-10
  6
CONTINUOUS
 62
    7
 10
138.08437416992578
 20
118.22665223775499
 11
127.14660860291556
 21
129.1644178047652
  0
LINE
  8
_0-3_0-10
  6
CONTINUOUS
 62
    7
 10
140.73602459937538
 20
118.22665223775499
 11
129.79825903236508
 21
129.1644178047652
  0
LINE
  8
_0-3_0-10
  6
CONTINUOUS
 62
    7
 10
143.38767502882487
 20
118.22665223775499
 11
132.44990946181468
 21
129.1644178047652
  0
LINE
  8
_0-3_0-10
  6
CONTINUOUS
 62
    7
 10
146.03932545827447
 20
118.22665223775499
 11
135.10155989126425
 21
129.1644178047652
  0
LINE
  8
_0-3_0-10
  6
CONTINUOUS
 62
    7
 10
148.69097588772396
 20
118.22665223775499
 11
137.75321032071377
 21
129.1644178047652
  0
LINE
  8
_0-3_0-10
  6
CONTINUOUS
 62
    7
 10
151.34262631717356
 20
118.22665223775499
 11
140.40486075016337
 21
129.1644178047652
  0
LINE
  8
_0-3_0-10
  6
CONTINUOUS
 62
    7
 10
153.99427674662317
 20
118.22665223775499
 11
143.05651117961286
 21
129.1644178047652
  0
LINE
  8
_0-3_0-10
  6
CONTINUOUS
 62
    7
 10
156.64592717607266
 20
118.22665223775499
 11
145.70816160906247
 21
129.1644178047652
  0
LINE
  8
_0-3_0-10
  6
CONTINUOUS
 62
    7
 10
159.29757760552226
 20
118.22665223775499
 11
148.35981203851196
 21
129.1644178047652
  0
LINE
  8
_0-3_0-10
  6
CONTINUOUS
 62
    7
 10
161.94922803497178
 20
118.22665223775499
 11
151.01146246796156
 21
129.1644178047652
  0
LINE
  8
_0-3_0-10
  6
CONTINUOUS
 62
    7
 10
164.60087846442127
 20
118.22665223775499
 11
153.66311289741108
 21
129.1644178047652
  0
LINE
  8
_0-3_0-10
  6
CONTINUOUS
 62
    7
 10
167.25252889387087
 20
118.22665223775499
 11
156.31476332686068
 21
129.1644178047652
  0
LINE
  8
_0-3_0-10
  6
CONTINUOUS
 62
    7
 10
169.90417932332047
 20
118.22665223775499
 11
158.96641375631017
 21
129.1644178047652
  0
LINE
  8
_0-3_0-10
  6
CONTINUOUS
 62
    7
 10
172.55582975276996
 20
118.22665223775499
 11
161.61806418575977
 21
129.1644178047652
  0
LINE
  8
_0-3_0-10
  6
CONTINUOUS
 62
    7
 10
175.20748018221956
 20
118.22665223775499
 11
164.26971461520926
 21
129.1644178047652
  0
LINE
  8
_0-3_0-10
  6
CONTINUOUS
 62
    7
 10
177.71134263763386
 20
118.3744402117901
 11
166.92136504465887
 21
129.1644178047652
  0
LINE
  8
_0-3_0-10
  6
CONTINUOUS
 62
    7
 10
179.41093465443546
 20
119.32649862443817
 11
169.57301547410835
 21
129.1644178047652
  0
LINE
  8
_0-3_0-10
  6
CONTINUOUS
 62
    7
 10
180.97053863176557
 20
120.4185450765577
 11
172.22466590355796
 21
129.1644178047652
  0
LINE
  8
_0-3_0-10
  6
CONTINUOUS
 62
    7
 10
182.53014260909557
 20
121.51059152867719
 11
174.87631633300748
 21
129.1644178047652
  0
LINE
  8
_0-3_0-10
  6
CONTINUOUS
 62
    7
 10
184.09193159162956
 20
122.60045297559277
 11
177.46559372982227
 21
129.2267908374001
  0
LINE
  8
_0-3_0-10
  6
CONTINUOUS
 62
    7
 10
185.88129766123498
 20
123.46273733543688
 11
179.79945630691318
 21
129.5445786897587
  0
LINE
  8
_0-3_0-10
  6
CONTINUOUS
 62
    7
 10
188.16346518722437
 20
123.83222023889699
 11
181.89118492562377
 21
130.10450050049769
  0
LINE
  8
_0-3_0-10
  6
CONTINUOUS
 62
    7
 10
190.73633801708376
 20
123.91099783848719
 11
183.72355173168057
 21
130.9237841238903
  0
LINE
  8
_0-3_0-10
  6
CONTINUOUS
 62
    7
 10
191.85051284061168
 20
125.44847344440879
 11
185.27831511314226
 21
132.0206711718782
  0
LINE
  8
_0-3_0-10
  6
CONTINUOUS
 62
    7
 10
192.42173143411457
 20
127.5289052803555
 11
186.75131734882748
 21
133.19931936564259
  0
LINE
  8
_0-3_0-10
  6
CONTINUOUS
 62
    7
 10
192.94679250293827
 20
129.65549464098128
 11
188.22431958451258
 21
134.37796755940709
  0
LINE
  8
_0-3_0-10
  6
CONTINUOUS
 62
    7
 10
193.42345816037916
 20
131.83047941299
 11
189.69732182019757
 21
135.55661575317148
  0
LINE
  8
_0-3_0-10
  6
CONTINUOUS
 62
    7
 10
193.84919418249907
 20
134.05639382031958
 11
190.71853622285166
 21
137.18705177996699
  0
LINE
  8
_0-3_0-10
  6
CONTINUOUS
 62
    7
 10
194.11800276568197
 20
136.43923566658619
 11
193.32342171382427
 21
137.23381671844398
  0
LINE
  8
_0-3_0-10
  6
CONTINUOUS
 62
    7
 10
110.90975714241635
 20
109.74627652895678
 11
112.38975408832786
 21
111.2262734748684
  0
LINE
  8
_0-3_0-10
  6
CONTINUOUS
 62
    7
 10
108.99872749793388
 20
105.18359645502478
 11
115.04140451777746
 21
111.2262734748684
  0
LINE
  8
_0-3_0-10
  6
CONTINUOUS
 62
    7
 10
106.77596101353195
 20
100.30917954117329
 11
115.78959423000998
 21
109.3228127576514
  0
LINE
  8
_0-3_0-10
  6
CONTINUOUS
 62
    7
 10
109.40693980966617
 20
100.28850790785799
 11
115.78959423001005
 21
106.6711623282018
  0
LINE
  8
_0-3_0-10
  6
CONTINUOUS
 62
    7
 10
112.05859023911564
 20
100.28850790785799
 11
115.78959423000998
 21
104.01951189875228
  0
LINE
  8
_0-3_0-10
  6
CONTINUOUS
 62
    7
 10
114.71024066856526
 20
100.28850790785799
 11
115.78959423000998
 21
101.36786146930271
  0
LINE
  8
_0-3_0-10
  6
CONTINUOUS
 62
    7
 10
108.29281076973086
 20
100.2885079078579
 11
107.24891168076908
 21
101.33240699681968
  0
LINE
  8
_0-3_0-10
  6
CONTINUOUS
 62
    7
 10
110.94446119918038
 20
100.2885079078579
 11
108.08302413807206
 21
103.14994496896629
  0
LINE
  8
_0-3_0-10
  6
CONTINUOUS
 62
    7
 10
113.59611162862998
 20
100.28850790785799
 11
108.90657451945236
 21
104.97804501703548
  0
LINE
  8
_0-3_0-10
  6
CONTINUOUS
 62
    7
 10
115.78959423000998
 20
100.74667573592739
 11
109.71271177758208
 21
106.82355818835529
  0
LINE
  8
_0-3_0-10
  6
CONTINUOUS
 62
    7
 10
115.78959423000998
 20
103.398326165377
 11
110.49415552732537
 21
108.6937648680616
  0
LINE
  8
_0-3_0-10
  6
CONTINUOUS
 62
    7
 10
115.78959423000998
 20
106.0499765948266
 11
111.24285649335996
 21
110.59671433147659
  0
LINE
  8
_0-3_0-10
  6
CONTINUOUS
 62
    7
 10
115.78959423000998
 20
108.70162702427609
 11
113.26494777941778
 21
111.22627347486829
  0
LINE
  8
_0-3_0-10
  6
CONTINUOUS
 62
    7
 10
115.78959423000998
 20
109.3228127576514
 11
117.69305494722698
 21
111.2262734748684
  0
LINE
  8
_0-3_0-10
  6
CONTINUOUS
 62
    7
 10
115.78959423001005
 20
106.6711623282018
 11
120.34470537667658
 21
111.2262734748684
  0
LINE
  8
_0-3_0-10
  6
CONTINUOUS
 62
    7
 10
115.78959423000998
 20
104.01951189875228
 11
122.99635580612607
 21
111.2262734748684
  0
LINE
  8
_0-3_0-10
  6
CONTINUOUS
 62
    7
 10
115.78959423000998
 20
101.36786146930271
 11
125.64800623557566
 21
111.2262734748684
  0
LINE
  8
_0-3_0-10
  6
CONTINUOUS
 62
    7
 10
117.36189109801478
 20
100.28850790785799
 11
128.29965666502528
 21
111.2262734748684
  0
LINE
  8
_0-3_0-10
  6
CONTINUOUS
 62
    7
 10
120.01354152746438
 20
100.28850790785799
 11
130.95130709447477
 21
111.2262734748684
  0
LINE
  8
_0-3_0-10
  6
CONTINUOUS
 62
    7
 10
122.66519195691387
 20
100.28850790785799
 11
133.60295752392426
 21
111.2262734748684
  0
LINE
  8
_0-3_0-10
  6
CONTINUOUS
 62
    7
 10
125.31684238636347
 20
100.28850790785799
 11
136.25460795337386
 21
111.2262734748684
  0
LINE
  8
_0-3_0-10
  6
CONTINUOUS
 62
    7
 10
127.96849281581306
 20
100.28850790785799
 11
138.90625838282346
 21
111.2262734748684
  0
LINE
  8
_0-3_0-10
  6
CONTINUOUS
 62
    7
 10
130.62014324526256
 20
100.28850790785799
 11
141.55790881227298
 21
111.2262734748684
  0
LINE
  8
_0-3_0-10
  6
CONTINUOUS
 62
    7
 10
133.27179367471217
 20
100.28850790785799
 11
144.20955924172247
 21
111.2262734748684
  0
LINE
  8
_0-3_0-10
  6
CONTINUOUS
 62
    7
 10
135.92344410416166
 20
100.28850790785799
 11
146.86120967117207
 21
111.2262734748684
  0
LINE
  8
_0-3_0-10
  6
CONTINUOUS
 62
    7
 10
138.57509453361126
 20
100.28850790785799
 11
149.51286010062167
 21
111.2262734748684
  0
LINE
  8
_0-3_0-10
  6
CONTINUOUS
 62
    7
 10
141.22674496306078
 20
100.28850790785799
 11
152.16451053007116
 21
111.2262734748684
  0
LINE
  8
_0-3_0-10
  6
CONTINUOUS
 62
    7
 10
143.87839539251038
 20
100.28850790785799
 11
154.81616095952077
 21
111.2262734748684
  0
LINE
  8
_0-3_0-10
  6
CONTINUOUS
 62
    7
 10
146.53004582195995
 20
100.28850790785799
 11
157.46781138897026
 21
111.2262734748684
  0
LINE
  8
_0-3_0-10
  6
CONTINUOUS
 62
    7
 10
149.18169625140947
 20
100.28850790785799
 11
160.11946181841986
 21
111.2262734748684
  0
LINE
  8
_0-3_0-10
  6
CONTINUOUS
 62
    7
 10
151.83334668085907
 20
100.28850790785799
 11
162.77111224786946
 21
111.2262734748684
  0
LINE
  8
_0-3_0-10
  6
CONTINUOUS
 62
    7
 10
154.48499711030856
 20
100.28850790785799
 11
165.42276267731898
 21
111.2262734748684
  0
LINE
  8
_0-3_0-10
  6
CONTINUOUS
 62
    7
 10
157.13664753975817
 20
100.28850790785799
 11
168.17589452611696
 21
111.32775489421679
  0
LINE
  8
_0-3_0-10
  6
CONTINUOUS
 62
    7
 10
159.78829796920766
 20
100.28850790785799
 11
171.25535073127576
 21
111.75556066992598
  0
LINE
  8
_0-3_0-10
  6
CONTINUOUS
 62
    7
 10
162.43994839865717
 20
100.28850790785799
 11
174.97334292254237
 21
112.82190243174308
  0
LINE
  8
_0-3_0-10
  6
CONTINUOUS
 62
    7
 10
165.09159882810678
 20
100.28850790785799
 11
180.23888430564548
 21
115.43579338539659
  0
LINE
  8
_0-3_0-10
  6
CONTINUOUS
 62
    7
 10
168.25613535409087
 20
100.8013940043925
 11
186.80252760807147
 21
119.3477862583731
  0
LINE
  8
_0-3_0-10
  6
CONTINUOUS
 62
    7
 10
175.13591933974626
 20
105.02952756059829
 11
189.09297789391428
 21
118.98658611476631
  0
LINE
  8
_0-3_0-10
  6
CONTINUOUS
 62
    7
 10
178.64607115900366
 20
105.88802895040619
 11
188.28370098688148
 21
115.52565877828388
  0
LINE
  8
_0-3_0-10
  6
CONTINUOUS
 62
    7
 10
181.30387064899787
 20
105.89417801095081
 11
185.89806497919806
 21
110.488372341151
  0
LINE
  8
_0-3_0-10
  6
CONTINUOUS
 62
    7
 10
116.24776205807954
 20
100.2885079078579
 11
115.78959423000998
 21
100.74667573592739
  0
LINE
  8
_0-3_0-10
  6
CONTINUOUS
 62
    7
 10
118.89941248752907
 20
100.2885079078579
 11
115.78959423000998
 21
103.398326165377
  0
LINE
  8
_0-3_0-10
  6
CONTINUOUS
 62
    7
 10
121.55106291697866
 20
100.2885079078579
 11
115.78959423000998
 21
106.0499765948266
  0
LINE
  8
_0-3_0-10
  6
CONTINUOUS
 62
    7
 10
124.20271334642815
 20
100.28850790785799
 11
115.78959423000998
 21
108.70162702427609
  0
LINE
  8
_0-3_0-10
  6
CONTINUOUS
 62
    7
 10
126.85436377587777
 20
100.2885079078579
 11
115.91659820886738
 21
111.22627347486829
  0
LINE
  8
_0-3_0-10
  6
CONTINUOUS
 62
    7
 10
129.50601420532726
 20
100.28850790785799
 11
118.56824863831694
 21
111.22627347486829
  0
LINE
  8
_0-3_0-10
  6
CONTINUOUS
 62
    7
 10
132.15766463477686
 20
100.2885079078579
 11
121.21989906776647
 21
111.22627347486829
  0
LINE
  8
_0-3_0-10
  6
CONTINUOUS
 62
    7
 10
134.80931506422638
 20
100.2885079078579
 11
123.87154949721606
 21
111.22627347486829
  0
LINE
  8
_0-3_0-10
  6
CONTINUOUS
 62
    7
 10
137.46096549367598
 20
100.28850790785799
 11
126.52319992666555
 21
111.22627347486829
  0
LINE
  8
_0-3_0-10
  6
CONTINUOUS
 62
    7
 10
140.11261592312547
 20
100.28850790785799
 11
129.17485035611505
 21
111.22627347486829
  0
LINE
  8
_0-3_0-10
  6
CONTINUOUS
 62
    7
 10
142.76426635257507
 20
100.2885079078579
 11
131.82650078556466
 21
111.22627347486829
  0
LINE
  8
_0-3_0-10
  6
CONTINUOUS
 62
    7
 10
145.41591678202456
 20
100.2885079078579
 11
134.47815121501417
 21
111.22627347486829
  0
LINE
  8
_0-3_0-10
  6
CONTINUOUS
 62
    7
 10
148.06756721147417
 20
100.28850790785799
 11
137.12980164446378
 21
111.22627347486829
  0
LINE
  8
_0-3_0-10
  6
CONTINUOUS
 62
    7
 10
150.71921764092365
 20
100.28850790785799
 11
139.78145207391327
 21
111.22627347486829
  0
LINE
  8
_0-3_0-10
  6
CONTINUOUS
 62
    7
 10
153.37086807037326
 20
100.28850790785799
 11
142.43310250336287
 21
111.22627347486829
  0
LINE
  8
_0-3_0-10
  6
CONTINUOUS
 62
    7
 10
156.02251849982286
 20
100.2885079078579
 11
145.08475293281247
 21
111.22627347486829
  0
LINE
  8
_0-3_0-10
  6
CONTINUOUS
 62
    7
 10
158.67416892927238
 20
100.28850790785799
 11
147.73640336226196
 21
111.22627347486829
  0
LINE
  8
_0-3_0-10
  6
CONTINUOUS
 62
    7
 10
161.32581935872195
 20
100.28850790785799
 11
150.38805379171157
 21
111.22627347486829
  0
LINE
  8
_0-3_0-10
  6
CONTINUOUS
 62
    7
 10
163.97746978817147
 20
100.28850790785799
 11
153.03970422116105
 21
111.22627347486829
  0
LINE
  8
_0-3_0-10
  6
CONTINUOUS
 62
    7
 10
166.60112590358366
 20
100.31650222189529
 11
155.69135465061066
 21
111.22627347486829
  0
LINE
  8
_0-3_0-10
  6
CONTINUOUS
 62
    7
 10
168.57108324335356
 20
100.99819531157497
 11
158.34300508006018
 21
111.22627347486829
  0
LINE
  8
_0-3_0-10
  6
CONTINUOUS
 62
    7
 10
170.20299925146608
 20
102.01792973291199
 11
160.99465550950978
 21
111.22627347486829
  0
LINE
  8
_0-3_0-10
  6
CONTINUOUS
 62
    7
 10
171.83491525957856
 20
103.03766415424908
 11
163.64630593895935
 21
111.22627347486829
  0
LINE
  8
_0-3_0-10
  6
CONTINUOUS
 62
    7
 10
173.46683126769107
 20
104.0573985755862
 11
166.28653743351216
 21
111.237692409765
  0
LINE
  8
_0-3_0-10
  6
CONTINUOUS
 62
    7
 10
175.14299975492986
 20
105.03288051779688
 11
168.78847688479618
 21
111.38740338793057
  0
LINE
  8
_0-3_0-10
  6
CONTINUOUS
 62
    7
 10
177.12655389591057
 20
105.70097680626568
 11
171.10343336307175
 21
111.7240973391045
  0
LINE
  8
_0-3_0-10
  6
CONTINUOUS
 62
    7
 10
179.58500312067508
 20
105.89417801095069
 11
173.24820343845368
 21
112.2309776931722
  0
LINE
  8
_0-3_0-10
  6
CONTINUOUS
 62
    7
 10
182.23665355012468
 20
105.89417801095081
 11
175.21587754205347
 21
112.9149540190219
  0
LINE
  8
_0-3_0-10
  6
CONTINUOUS
 62
    7
 10
183.91582507670688
 20
106.8666569138181
 11
177.01559534430347
 21
113.76688664622139
  0
LINE
  8
_0-3_0-10
  6
CONTINUOUS
 62
    7
 10
184.87263373955687
 20
108.56149868041758
 11
178.76267090746605
 21
114.67146151250838
  0
LINE
  8
_0-3_0-10
  6
CONTINUOUS
 62
    7
 10
185.79558601710957
 20
110.2901968323145
 11
180.50974647062867
 21
115.57603637879539
  0
LINE
  8
_0-3_0-10
  6
CONTINUOUS
 62
    7
 10
186.68394445871027
 20
112.05348882016339
 11
182.25682203379116
 21
116.4806112450824
  0
LINE
  8
_0-3_0-10
  6
CONTINUOUS
 62
    7
 10
187.53688381574986
 20
113.85219989257331
 11
184.00389759695377
 21
117.38518611136939
  0
LINE
  8
_0-3_0-10
  6
CONTINUOUS
 62
    7
 10
188.35348221139597
 20
115.6872519263768
 11
185.26757602761387
 21
118.7731581101589
  0
LINE
  8
_0-3_0-10
  6
CONTINUOUS
 62
    7
 10
189.13271076810357
 20
117.55967379911868
 11
187.34459830884978
 21
119.34778625837249
  0
LINE
  8
_0-3_0-10
  6
CONTINUOUS
 62
    7
 10
102.61228506288088
 20
90.842202731623103
 11
105.05821147622916
 21
93.288129144971406
  0
LINE
  8
_0-3_0-10
  6
CONTINUOUS
 62
    7
 10
101.11205740308814
 20
86.690324642380801
 11
107.70986190567866
 21
93.288129144971406
  0
LINE
  8
_0-3_0-10
  6
CONTINUOUS
 62
    7
 10
100.03453758699474
 20
82.961154396837898
 11
110.36151233512828
 21
93.288129144971406
  0
LINE
  8
_0-3_0-10
  6
CONTINUOUS
 62
    7
 10
102.07539719756745
 20
82.35036357796109
 11
113.01316276457777
 21
93.288129144971406
  0
LINE
  8
_0-3_0-10
  6
CONTINUOUS
 62
    7
 10
104.72704762701707
 20
82.35036357796109
 11
115.66481319402737
 21
93.288129144971406
  0
LINE
  8
_0-3_0-10
  6
CONTINUOUS
 62
    7
 10
107.37869805646667
 20
82.35036357796109
 11
115.78959423000998
 21
90.761259751504496
  0
LINE
  8
_0-3_0-10
  6
CONTINUOUS
 62
    7
 10
110.03034848591616
 20
82.35036357796109
 11
115.78959423000998
 21
88.109609322054993
  0
LINE
  8
_0-3_0-10
  6
CONTINUOUS
 62
    7
 10
112.68199891536568
 20
82.35036357796109
 11
115.78959423001005
 21
85.45795889260539
  0
LINE
  8
_0-3_0-10
  6
CONTINUOUS
 62
    7
 10
115.33364934481528
 20
82.35036357796109
 11
115.78959423001005
 21
82.806308463155801
  0
LINE
  8
_0-3_0-10
  6
CONTINUOUS
 62
    7
 10
102.36610123458177
 20
82.35036357796109
 11
100.39381025747198
 21
84.322654555070798
  0
LINE
  8
_0-3_0-10
  6
CONTINUOUS
 62
    7
 10
105.01775166403136
 20
82.35036357796109
 11
101.00466385221457
 21
86.363451389777793
  0
LINE
  8
_0-3_0-10
  6
CONTINUOUS
 62
    7
 10
107.66940209348085
 20
82.35036357796099
 11
101.67461977613547
 21
88.345145895306401
  0
LINE
  8
_0-3_0-10
  6
CONTINUOUS
 62
    7
 10
110.32105252293047
 20
82.35036357796099
 11
102.39294364996968
 21
90.278472450921796
  0
LINE
  8
_0-3_0-10
  6
CONTINUOUS
 62
    7
 10
112.97270295237996
 20
82.35036357796109
 11
103.15021925167964
 21
92.172847278661393
  0
LINE
  8
_0-3_0-10
  6
CONTINUOUS
 62
    7
 10
115.62435338182946
 20
82.35036357796109
 11
104.68658781481917
 21
93.288129144971406
  0
LINE
  8
_0-3_0-10
  6
CONTINUOUS
 62
    7
 10
115.78959423000998
 20
84.836773159230091
 11
107.33823824426876
 21
93.288129144971406
  0
LINE
  8
_0-3_0-10
  6
CONTINUOUS
 62
    7
 10
115.78959423000998
 20
87.488423588679694
 11
109.98988867371825
 21
93.288129144971406
  0
LINE
  8
_0-3_0-10
  6
CONTINUOUS
 62
    7
 10
115.78959423000998
 20
90.140074018129197
 11
112.64153910316787
 21
93.288129144971406
  0
LINE
  8
_0-3_0-10
  6
CONTINUOUS
 62
    7
 10
115.78959423000998
 20
92.791724447578786
 11
115.29318953261736
 21
93.288129144971406
  0
LINE
  8
_0-3_0-10
  6
CONTINUOUS
 62
    7
 10
115.78959423000998
 20
90.761259751504496
 11
118.31646362347686
 21
93.288129144971406
  0
LINE
  8
_0-3_0-10
  6
CONTINUOUS
 62
    7
 10
115.78959423000998
 20
88.109609322054993
 11
120.96811405292646
 21
93.288129144971406
  0
LINE
  8
_0-3_0-10
  6
CONTINUOUS
 62
    7
 10
115.78959423001005
 20
85.45795889260539
 11
123.61976448237605
 21
93.288129144971406
  0
LINE
  8
_0-3_0-10
  6
CONTINUOUS
 62
    7
 10
115.78959423001005
 20
82.806308463155801
 11
126.27141491182554
 21
93.288129144971406
  0
LINE
  8
_0-3_0-10
  6
CONTINUOUS
 62
    7
 10
117.98529977426477
 20
82.35036357796109
 11
128.92306534127516
 21
93.288129144971406
  0
LINE
  8
_0-3_0-10
  6
CONTINUOUS
 62
    7
 10
120.63695020371436
 20
82.35036357796109
 11
131.57471577072467
 21
93.288129144971406
  0
LINE
  8
_0-3_0-10
  6
CONTINUOUS
 62
    7
 10
123.28860063316386
 20
82.35036357796109
 11
134.22636620017428
 21
93.288129144971406
  0
LINE
  8
_0-3_0-10
  6
CONTINUOUS
 62
    7
 10
125.94025106261345
 20
82.35036357796109
 11
136.87801662962377
 21
93.288129144971406
  0
LINE
  8
_0-3_0-10
  6
CONTINUOUS
 62
    7
 10
128.59190149206307
 20
82.35036357796109
 11
139.52966705907337
 21
93.288129144971406
  0
LINE
  8
_0-3_0-10
  6
CONTINUOUS
 62
    7
 10
131.24355192151256
 20
82.35036357796109
 11
142.18131748852286
 21
93.288129144971406
  0
LINE
  8
_0-3_0-10
  6
CONTINUOUS
 62
    7
 10
133.89520235096216
 20
82.35036357796109
 11
144.86519514917097
 21
93.320356376169883
  0
LINE
  8
_0-3_0-10
  6
CONTINUOUS
 62
    7
 10
136.54685278041168
 20
82.35036357796109
 11
147.61982283690858
 21
93.42333363445789
  0
LINE
  8
_0-3_0-10
  6
CONTINUOUS
 62
    7
 10
139.19850320986117
 20
82.35036357796109
 11
150.48768771082757
 21
93.63954807892739
  0
LINE
  8
_0-3_0-10
  6
CONTINUOUS
 62
    7
 10
141.85015363931077
 20
82.35036357796109
 11
153.49261350572737
 21
93.992823444377705
  0
LINE
  8
_0-3_0-10
  6
CONTINUOUS
 62
    7
 10
144.50180406876037
 20
82.35036357796109
 11
156.66984304285256
 21
94.518402552053288
  0
LINE
  8
_0-3_0-10
  6
CONTINUOUS
 62
    7
 10
147.15345449820986
 20
82.35036357796109
 11
160.07388878653097
 21
95.270797866282208
  0
LINE
  8
_0-3_0-10
  6
CONTINUOUS
 62
    7
 10
150.73586100361538
 20
83.281119653917002
 11
163.77872708181237
 21
96.323985732113897
  0
LINE
  8
_0-3_0-10
  6
CONTINUOUS
 62
    7
 10
155.91216309955058
 20
85.805771320402598
 11
167.76071470814548
 21
97.654322928997487
  0
LINE
  8
_0-3_0-10
  6
CONTINUOUS
 62
    7
 10
160.41233841529447
 20
87.654296206696898
 11
171.76172149873556
 21
99.003679290138109
  0
LINE
  8
_0-3_0-10
  6
CONTINUOUS
 62
    7
 10
163.36572631910098
 20
87.956033681053796
 11
176.81933456652367
 21
101.40964192847657
  0
LINE
  8
_0-3_0-10
  6
CONTINUOUS
 62
    7
 10
166.01737674855047
 20
87.956033681053796
 11
179.28137539470105
 21
101.22003232720439
  0
LINE
  8
_0-3_0-10
  6
CONTINUOUS
 62
    7
 10
168.77655261164306
 20
88.0635591146969
 11
174.66971008128638
 21
93.956716584340199
  0
LINE
  8
_0-3_0-10
  6
CONTINUOUS
 62
    7
 10
118.27600381127908
 20
82.35036357796099
 11
115.78959423000998
 21
84.836773159230091
  0
LINE
  8
_0-3_0-10
  6
CONTINUOUS
 62
    7
 10
120.92765424072868
 20
82.35036357796109
 11
115.78959423000998
 21
87.488423588679694
  0
LINE
  8
_0-3_0-10
  6
CONTINUOUS
 62
    7
 10
123.57930467017817
 20
82.35036357796109
 11
115.78959423000998
 21
90.140074018129197
  0
LINE
  8
_0-3_0-10
  6
CONTINUOUS
 62
    7
 10
126.23095509962776
 20
82.35036357796109
 11
115.78959423000998
 21
92.791724447578786
  0
LINE
  8
_0-3_0-10
  6
CONTINUOUS
 62
    7
 10
128.88260552907726
 20
82.35036357796099
 11
117.94483996206696
 21
93.288129144971406
  0
LINE
  8
_0-3_0-10
  6
CONTINUOUS
 62
    7
 10
131.53425595852687
 20
82.35036357796099
 11
120.59649039151655
 21
93.288129144971406
  0
LINE
  8
_0-3_0-10
  6
CONTINUOUS
 62
    7
 10
134.18590638797635
 20
82.35036357796099
 11
123.24814082096608
 21
93.288129144971406
  0
LINE
  8
_0-3_0-10
  6
CONTINUOUS
 62
    7
 10
136.83755681742596
 20
82.35036357796109
 11
125.89979125041566
 21
93.288129144971406
  0
LINE
  8
_0-3_0-10
  6
CONTINUOUS
 62
    7
 10
139.48920724687548
 20
82.35036357796099
 11
128.55144167986517
 21
93.288129144971406
  0
LINE
  8
_0-3_0-10
  6
CONTINUOUS
 62
    7
 10
142.14085767632508
 20
82.35036357796099
 11
131.20309210931478
 21
93.288129144971406
  0
LINE
  8
_0-3_0-10
  6
CONTINUOUS
 62
    7
 10
144.79250810577465
 20
82.35036357796109
 11
133.85474253876427
 21
93.288129144971406
  0
LINE
  8
_0-3_0-10
  6
CONTINUOUS
 62
    7
 10
147.44259728447528
 20
82.351924828709897
 11
136.50639296821387
 21
93.288129144971406
  0
LINE
  8
_0-3_0-10
  6
CONTINUOUS
 62
    7
 10
149.68002070275107
 20
82.76615183988369
 11
139.15804339766336
 21
93.288129144971406
  0
LINE
  8
_0-3_0-10
  6
CONTINUOUS
 62
    7
 10
151.46236404606867
 20
83.635458926015601
 11
141.80969382711296
 21
93.288129144971406
  0
LINE
  8
_0-3_0-10
  6
CONTINUOUS
 62
    7
 10
153.24470738938626
 20
84.504766012147598
 11
144.43843325549607
 21
93.311040146037782
  0
LINE
  8
_0-3_0-10
  6
CONTINUOUS
 62
    7
 10
155.02705073270377
 20
85.374073098279595
 11
147.01744274263018
 21
93.383681088353199
  0
LINE
  8
_0-3_0-10
  6
CONTINUOUS
 62
    7
 10
156.80939407602136
 20
86.243380184411591
 11
149.50532472123518
 21
93.547449539197799
  0
LINE
  8
_0-3_0-10
  6
CONTINUOUS
 62
    7
 10
158.61422044495947
 20
87.0902042449231
 11
151.90749476834176
 21
93.796929921540794
  0
LINE
  8
_0-3_0-10
  6
CONTINUOUS
 62
    7
 10
160.64991182193386
 20
87.706163297398191
 11
154.24468779509078
 21
94.111387324241405
  0
LINE
  8
_0-3_0-10
  6
CONTINUOUS
 62
    7
 10
163.05172955316118
 20
87.955995995620398
 11
156.52029535038516
 21
94.487430198396396
  0
LINE
  8
_0-3_0-10
  6
CONTINUOUS
 62
    7
 10
165.70334229717738
 20
87.956033681053796
 11
158.71699434015528
 21
94.942381638075886
  0
LINE
  8
_0-3_0-10
  6
CONTINUOUS
 62
    7
 10
168.34583736741328
 20
87.965189040267503
 11
160.84065222253136
 21
95.470374185149296
  0
LINE
  8
_0-3_0-10
  6
CONTINUOUS
 62
    7
 10
169.96748116749117
 20
88.995195669639201
 11
162.91008504729248
 21
96.05259178983789
  0
LINE
  8
_0-3_0-10
  6
CONTINUOUS
 62
    7
 10
171.29739458392586
 20
90.316932682653998
 11
164.91853978086598
 21
96.695787485713907
  0
LINE
  8
_0-3_0-10
  6
CONTINUOUS
 62
    7
 10
172.59733723950998
 20
91.668640456519497
 11
166.90144656188837
 21
97.364531134141088
  0
LINE
  8
_0-3_0-10
  6
CONTINUOUS
 62
    7
 10
173.86726940847267
 20
93.050358717006304
 11
168.88435334291068
 21
98.033274782568298
  0
LINE
  8
_0-3_0-10
  6
CONTINUOUS
 62
    7
 10
175.10710506358196
 20
94.46217349134659
 11
170.86726012393296
 21
98.702018430995508
  0
LINE
  8
_0-3_0-10
  6
CONTINUOUS
 62
    7
 10
176.31671121127845
 20
95.904217773099588
 11
172.85016690495535
 21
99.370762079422689
  0
LINE
  8
_0-3_0-10
  6
CONTINUOUS
 62
    7
 10
177.49590685548628
 20
97.376672558341397
 11
174.76021333653926
 21
100.11236607728838
  0
LINE
  8
_0-3_0-10
  6
CONTINUOUS
 62
    7
 10
178.64446157109856
 20
98.879768272178608
 11
176.12770875415577
 21
101.3965210891215
  0
LINE
  8
_0-3_0-10
  6
CONTINUOUS
 62
    7
 10
179.62599436858488
 20
100.549885904142
 11
178.76700810258267
 21
101.40887217014409
  0
LINE
  8
_0-3_0-10
  6
CONTINUOUS
 62
    7
 10
99.821950828893164
 20
74.793616350387594
 11
100.82050041551356
 21
75.792165937007993
  0
LINE
  8
_0-3_0-10
  6
CONTINUOUS
 62
    7
 10
99.808994168433486
 20
72.129009260478298
 11
103.30838278492078
 21
75.628397876965692
  0
LINE
  8
_0-3_0-10
  6
CONTINUOUS
 62
    7
 10
99.796037507973665
 20
69.464402170569002
 11
105.81984773921246
 21
75.488212401807899
  0
LINE
  8
_0-3_0-10
  6
CONTINUOUS
 62
    7
 10
99.783080847513986
 20
66.799795080659791
 11
108.41472698668937
 21
75.431441219835093
  0
LINE
  8
_0-3_0-10
  6
CONTINUOUS
 62
    7
 10
101.81491971783748
 20
66.179983521533699
 11
111.00960623416617
 21
75.374670037862401
  0
LINE
  8
_0-3_0-10
  6
CONTINUOUS
 62
    7
 10
104.20183379424287
 20
65.915247168489599
 11
113.66968123114256
 21
75.383094605389302
  0
LINE
  8
_0-3_0-10
  6
CONTINUOUS
 62
    7
 10
106.65403053256048
 20
65.715793477357593
 11
115.78959423000998
 21
74.851357174807191
  0
LINE
  8
_0-3_0-10
  6
CONTINUOUS
 62
    7
 10
109.17664656016016
 20
65.5867590755077
 11
115.78959423001005
 21
72.199706745357602
  0
LINE
  8
_0-3_0-10
  6
CONTINUOUS
 62
    7
 10
111.77574888301998
 20
65.534210968918003
 11
115.78959423000998
 21
69.548056315908098
  0
LINE
  8
_0-3_0-10
  6
CONTINUOUS
 62
    7
 10
114.45858423170287
 20
65.5653958881514
 11
115.78959423000998
 21
66.896405886458495
  0
LINE
  8
_0-3_0-10
  6
CONTINUOUS
 62
    7
 10
102.73716084254937
 20
66.069401393296089
 11
99.793841206983785
 21
69.01272102886169
  0
LINE
  8
_0-3_0-10
  6
CONTINUOUS
 62
    7
 10
105.67127299275546
 20
65.786939672539602
 11
99.80667247356618
 21
71.651540191728898
  0
LINE
  8
_0-3_0-10
  6
CONTINUOUS
 62
    7
 10
108.49586568489145
 20
65.613997409853197
 11
99.819503740148576
 21
74.290359354596091
  0
LINE
  8
_0-3_0-10
  6
CONTINUOUS
 62
    7
 10
111.22294703253264
 20
65.538566491661498
 11
100.97983606120368
 21
75.781677462990401
  0
LINE
  8
_0-3_0-10
  6
CONTINUOUS
 62
    7
 10
113.86220245333817
 20
65.550961500305589
 11
103.81833429112144
 21
75.5948296625223
  0
LINE
  8
_0-3_0-10
  6
CONTINUOUS
 62
    7
 10
115.78959423001005
 20
66.275220153083196
 11
106.59352869664836
 21
75.4712856864449
  0
LINE
  8
_0-3_0-10
  6
CONTINUOUS
 62
    7
 10
115.78959423001005
 20
68.926870582532799
 11
109.30448996912484
 21
75.411974843417993
  0
LINE
  8
_0-3_0-10
  6
CONTINUOUS
 62
    7
 10
115.78959423000998
 20
71.578521011982303
 11
112.01545124160128
 21
75.352664000391101
  0
LINE
  8
_0-3_0-10
  6
CONTINUOUS
 62
    7
 10
115.78959423000998
 20
74.230171441431892
 11
114.61601231037424
 21
75.4037533610676
  0
LINE
  8
_0-3_0-10
  6
CONTINUOUS
 62
    7
 10
115.78959423000998
 20
74.851357174807191
 11
116.38051005123044
 21
75.442272996027597
  0
LINE
  8
_0-3_0-10
  6
CONTINUOUS
 62
    7
 10
115.78959423001005
 20
72.199706745357602
 11
119.09290590999124
 21
75.503018425338893
  0
LINE
  8
_0-3_0-10
  6
CONTINUOUS
 62
    7
 10
115.78959423000998
 20
69.548056315908098
 11
121.93140439329278
 21
75.689866479190797
  0
LINE
  8
_0-3_0-10
  6
CONTINUOUS
 62
    7
 10
115.78959423000998
 20
66.896405886458495
 11
124.76990287659427
 21
75.876714533042701
  0
LINE
  8
_0-3_0-10
  6
CONTINUOUS
 62
    7
 10
117.23392279145626
 20
65.68908401845519
 11
127.69436759533758
 21
76.149528822336492
  0
LINE
  8
_0-3_0-10
  6
CONTINUOUS
 62
    7
 10
120.11254416096214
 20
65.916054958511594
 11
130.67658905439208
 21
76.480099851941503
  0
LINE
  8
_0-3_0-10
  6
CONTINUOUS
 62
    7
 10
123.10794506821936
 20
66.259805436319197
 11
133.71439463194008
 21
76.866255000039899
  0
LINE
  8
_0-3_0-10
  6
CONTINUOUS
 62
    7
 10
126.23740709156446
 20
66.737617030214693
 11
136.86231255210827
 21
77.362522490758593
  0
LINE
  8
_0-3_0-10
  6
CONTINUOUS
 62
    7
 10
129.52367797894888
 20
67.372237488149593
 11
140.05764069192446
 21
77.906200201125201
  0
LINE
  8
_0-3_0-10
  6
CONTINUOUS
 62
    7
 10
132.99776340556616
 20
68.194672485317397
 11
143.40191283746767
 21
78.598821917218799
  0
LINE
  8
_0-3_0-10
  6
CONTINUOUS
 62
    7
 10
136.70388665448908
 20
69.249145304790701
 11
146.82601590028465
 21
79.371274550586292
  0
LINE
  8
_0-3_0-10
  6
CONTINUOUS
 62
    7
 10
140.70912357492207
 20
70.60273179577409
 11
150.41070019657217
 21
80.304308417424195
  0
LINE
  8
_0-3_0-10
  6
CONTINUOUS
 62
    7
 10
145.12460581819615
 20
72.3665636095986
 11
154.16195665644116
 21
81.40391444784359
  0
LINE
  8
_0-3_0-10
  6
CONTINUOUS
 62
    7
 10
150.16189343151188
 20
74.752200793464695
 11
158.88119023662537
 21
83.471497598578295
  0
LINE
  8
_0-3_0-10
  6
CONTINUOUS
 62
    7
 10
156.34256287085588
 20
78.281219803359192
 11
161.53127322389318
 21
83.4699301563965
  0
LINE
  8
_0-3_0-10
  6
CONTINUOUS
 62
    7
 10
116.42157687047117
 20
65.643237512622093
 11
115.78959423001005
 21
66.275220153083196
  0
LINE
  8
_0-3_0-10
  6
CONTINUOUS
 62
    7
 10
118.90768081194174
 20
65.808784000600994
 11
115.78959423001005
 21
68.926870582532799
  0
LINE
  8
_0-3_0-10
  6
CONTINUOUS
 62
    7
 10
121.32608150878337
 20
66.042033733208995
 11
115.78959423000998
 21
71.578521011982303
  0
LINE
  8
_0-3_0-10
  6
CONTINUOUS
 62
    7
 10
123.68151649457246
 20
66.338249176869396
 11
115.78959423000998
 21
74.230171441431892
  0
LINE
  8
_0-3_0-10
  6
CONTINUOUS
 62
    7
 10
125.97805354535215
 20
66.693362555539295
 11
117.21101292160588
 21
75.460403179285592
  0
LINE
  8
_0-3_0-10
  6
CONTINUOUS
 62
    7
 10
128.21921257921158
 20
67.103853951129494
 11
119.77513916569786
 21
75.547927364643101
  0
LINE
  8
_0-3_0-10
  6
CONTINUOUS
 62
    7
 10
130.40806002308548
 20
67.566656936705101
 11
122.26302134045207
 21
75.711695619338499
  0
LINE
  8
_0-3_0-10
  6
CONTINUOUS
 62
    7
 10
132.54728288188786
 20
68.079084507352192
 11
124.75090351520626
 21
75.875463874033798
  0
LINE
  8
_0-3_0-10
  6
CONTINUOUS
 62
    7
 10
134.63924759570596
 20
68.638770222983794
 11
127.18495588093418
 21
76.093061937755493
  0
LINE
  8
_0-3_0-10
  6
CONTINUOUS
 62
    7
 10
136.68604732646286
 20
69.243620921676395
 11
129.57200814565817
 21
76.357660102480991
  0
LINE
  8
_0-3_0-10
  6
CONTINUOUS
 62
    7
 10
138.68954032486857
 20
69.891778352720194
 11
131.95906041038216
 21
76.62225826720649
  0
LINE
  8
_0-3_0-10
  6
CONTINUOUS
 62
    7
 10
140.65138133644097
 20
70.581587770597295
 11
134.27788082533626
 21
76.955088281702003
  0
LINE
  8
_0-3_0-10
  6
CONTINUOUS
 62
    7
 10
142.57304751376307
 20
71.311572022724803
 11
136.56842781011627
 21
77.316191726371599
  0
LINE
  8
_0-3_0-10
  6
CONTINUOUS
 62
    7
 10
144.45585994753398
 20
72.080410018403398
 11
138.85897479489628
 21
77.677295171041194
  0
LINE
  8
_0-3_0-10
  6
CONTINUOUS
 62
    7
 10
146.30100166958837
 20
72.886918725798594
 11
141.07170128502048
 21
78.1162191103665
  0
LINE
  8
_0-3_0-10
  6
CONTINUOUS
 62
    7
 10
148.10953278887348
 20
73.73003803596309
 11
143.26840027559796
 21
78.571170549238601
  0
LINE
  8
_0-3_0-10
  6
CONTINUOUS
 62
    7
 10
149.88240327726097
 20
74.608817977025196
 11
145.46509926617537
 21
79.026121988110702
  0
LINE
  8
_0-3_0-10
  6
CONTINUOUS
 62
    7
 10
151.62046381280316
 20
75.522407870932497
 11
147.57630843158537
 21
79.566563252150302
  0
LINE
  8
_0-3_0-10
  6
CONTINUOUS
 62
    7
 10
153.32447500431598
 20
76.470047108869195
 11
149.68031964044658
 21
80.114202472738597
  0
LINE
  8
_0-3_0-10
  6
CONTINUOUS
 62
    7
 10
154.99511525638348
 20
77.451057286251298
 11
151.78362767812276
 21
80.662544864512
  0
LINE
  8
_0-3_0-10
  6
CONTINUOUS
 62
    7
 10
156.63298748325698
 20
78.46483548882739
 11
153.80513614508018
 21
81.292686827004089
  0
LINE
  8
_0-3_0-10
  6
CONTINUOUS
 62
    7
 10
158.23862484020716
 20
79.510848561326696
 11
155.82664461203756
 21
81.922828789496293
  0
LINE
  8
_0-3_0-10
  6
CONTINUOUS
 62
    7
 10
159.81249560911916
 20
80.588628221864297
 11
157.13661001909457
 21
83.264513811888789
  0
LINE
  8
_0-3_0-10
  6
CONTINUOUS
 62
    7
 10
161.35500734959887
 20
81.69776691083409
 11
159.58127666185436
 21
83.471497598578594
  0
LINE
  8
_0-3_0-10
  6
CONTINUOUS
 62
    7
 10
127.11132331081518
 20
178.9808512863467
 11
131.10932281892436
 21
182.978850794456
  0
LINE
  8
_0-3_0-10
  6
CONTINUOUS
 62
    7
 10
124.19901087592896
 20
173.41688842201099
 11
133.76097324837385
 21
182.978850794456
  0
LINE
  8
_0-3_0-10
  6
CONTINUOUS
 62
    7
 10
125.47485811081338
 20
172.04108522744579
 11
136.41262367782346
 21
182.978850794456
  0
LINE
  8
_0-3_0-10
  6
CONTINUOUS
 62
    7
 10
128.12650854026287
 20
172.04108522744579
 11
139.06427410727306
 21
182.978850794456
  0
LINE
  8
_0-3_0-10
  6
CONTINUOUS
 62
    7
 10
130.77815896971236
 20
172.04108522744579
 11
141.71592453672258
 21
182.978850794456
  0
LINE
  8
_0-3_0-10
  6
CONTINUOUS
 62
    7
 10
133.42980939916196
 20
172.04108522744579
 11
144.36757496617218
 21
182.978850794456
  0
LINE
  8
_0-3_0-10
  6
CONTINUOUS
 62
    7
 10
136.08145982861157
 20
172.04108522744579
 11
147.01922539562167
 21
182.978850794456
  0
LINE
  8
_0-3_0-10
  6
CONTINUOUS
 62
    7
 10
138.73311025806106
 20
172.04108522744579
 11
149.67087582507127
 21
182.978850794456
  0
LINE
  8
_0-3_0-10
  6
CONTINUOUS
 62
    7
 10
141.38476068751066
 20
172.04108522744579
 11
152.32252625452088
 21
182.978850794456
  0
LINE
  8
_0-3_0-10
  6
CONTINUOUS
 62
    7
 10
144.03641111696026
 20
172.04108522744579
 11
154.97417668397048
 21
182.978850794456
  0
LINE
  8
_0-3_0-10
  6
CONTINUOUS
 62
    7
 10
146.68806154640978
 20
172.04108522744579
 11
157.62582711341997
 21
182.978850794456
  0
LINE
  8
_0-3_0-10
  6
CONTINUOUS
 62
    7
 10
149.33971197585927
 20
172.04108522744579
 11
160.27747754286957
 21
182.978850794456
  0
LINE
  8
_0-3_0-10
  6
CONTINUOUS
 62
    7
 10
151.99136240530887
 20
172.04108522744579
 11
162.92912797231906
 21
182.978850794456
  0
LINE
  8
_0-3_0-10
  6
CONTINUOUS
 62
    7
 10
154.64301283475836
 20
172.04108522744579
 11
165.58077840176858
 21
182.978850794456
  0
LINE
  8
_0-3_0-10
  6
CONTINUOUS
 62
    7
 10
157.29466326420796
 20
172.04108522744579
 11
168.23242883121818
 21
182.978850794456
  0
LINE
  8
_0-3_0-10
  6
CONTINUOUS
 62
    7
 10
159.94631369365757
 20
172.04108522744579
 11
170.88407926066776
 21
182.978850794456
  0
LINE
  8
_0-3_0-10
  6
CONTINUOUS
 62
    7
 10
162.59796412310706
 20
172.04108522744579
 11
173.53572969011736
 21
182.978850794456
  0
LINE
  8
_0-3_0-10
  6
CONTINUOUS
 62
    7
 10
179.29765630832477
 20
188.7407774126635
 11
181.65724247362257
 21
191.10036357796118
  0
LINE
  8
_0-3_0-10
  6
CONTINUOUS
 62
    7
 10
165.24961455255666
 20
172.04108522744579
 11
176.23941172171907
 21
183.03088239660809
  0
LINE
  8
_0-3_0-10
  6
CONTINUOUS
 62
    7
 10
179.69254006024337
 20
186.4840107351325
 11
183.68988002448486
 21
190.48135069937399
  0
LINE
  8
_0-3_0-10
  6
CONTINUOUS
 62
    7
 10
167.90126498200618
 20
172.04108522744579
 11
184.66642835258247
 21
188.80624859802199
  0
LINE
  8
_0-3_0-10
  6
CONTINUOUS
 62
    7
 10
170.55291541145578
 20
172.04108522744579
 11
185.59683890982498
 21
187.0850087258151
  0
LINE
  8
_0-3_0-10
  6
CONTINUOUS
 62
    7
 10
173.20456584090536
 20
172.04108522744579
 11
186.49282399355948
 21
185.32934338009999
  0
LINE
  8
_0-3_0-10
  6
CONTINUOUS
 62
    7
 10
175.85621627035487
 20
172.04108522744579
 11
187.35357824607876
 21
183.53844720316971
  0
LINE
  8
_0-3_0-10
  6
CONTINUOUS
 62
    7
 10
178.50786669980448
 20
172.04108522744579
 11
182.18714681676928
 21
175.72036534441059
  0
LINE
  8
_0-3_0-10
  6
CONTINUOUS
 62
    7
 10
183.91663126840518
 20
177.44984979604649
 11
188.17820173340285
 21
181.71142026104419
  0
LINE
  8
_0-3_0-10
  6
CONTINUOUS
 62
    7
 10
186.76518723234676
 20
177.64675533053861
 11
188.96568993346127
 21
179.84725803165309
  0
LINE
  8
_0-3_0-10
  6
CONTINUOUS
 62
    7
 10
124.04469762197837
 20
172.0410852274457
 11
123.64742516809266
 21
172.43835768133141
  0
LINE
  8
_0-3_0-10
  6
CONTINUOUS
 62
    7
 10
126.69634805142786
 20
172.04108522744579
 11
124.60107290512377
 21
174.1363603737499
  0
LINE
  8
_0-3_0-10
  6
CONTINUOUS
 62
    7
 10
129.34799848087746
 20
172.04108522744579
 11
125.53379138598954
 21
175.85529232233369
  0
LINE
  8
_0-3_0-10
  6
CONTINUOUS
 62
    7
 10
131.99964891032698
 20
172.04108522744579
 11
126.43856038427557
 21
177.60217375349719
  0
LINE
  8
_0-3_0-10
  6
CONTINUOUS
 62
    7
 10
134.65129933977658
 20
172.04108522744579
 11
127.30377677707147
 21
179.38860779015078
  0
LINE
  8
_0-3_0-10
  6
CONTINUOUS
 62
    7
 10
137.30294976922607
 20
172.0410852274457
 11
128.11241995131007
 21
181.23161504536179
  0
LINE
  8
_0-3_0-10
  6
CONTINUOUS
 62
    7
 10
139.95460019867567
 20
172.0410852274457
 11
129.01683463166546
 21
182.97885079445589
  0
LINE
  8
_0-3_0-10
  6
CONTINUOUS
 62
    7
 10
142.60625062812516
 20
172.0410852274457
 11
131.66848506111506
 21
182.97885079445589
  0
LINE
  8
_0-3_0-10
  6
CONTINUOUS
 62
    7
 10
145.25790105757477
 20
172.0410852274457
 11
134.32013549056458
 21
182.97885079445589
  0
LINE
  8
_0-3_0-10
  6
CONTINUOUS
 62
    7
 10
147.90955148702425
 20
172.0410852274457
 11
136.97178592001418
 21
182.97885079445589
  0
LINE
  8
_0-3_0-10
  6
CONTINUOUS
 62
    7
 10
150.56120191647386
 20
172.0410852274457
 11
139.62343634946367
 21
182.97885079445589
  0
LINE
  8
_0-3_0-10
  6
CONTINUOUS
 62
    7
 10
153.21285234592338
 20
172.04108522744579
 11
142.27508677891327
 21
182.97885079445589
  0
LINE
  8
_0-3_0-10
  6
CONTINUOUS
 62
    7
 10
155.86450277537298
 20
172.04108522744579
 11
144.92673720836276
 21
182.97885079445589
  0
LINE
  8
_0-3_0-10
  6
CONTINUOUS
 62
    7
 10
158.51615320482255
 20
172.04108522744579
 11
147.57838763781236
 21
182.97885079445589
  0
LINE
  8
_0-3_0-10
  6
CONTINUOUS
 62
    7
 10
161.16780363427207
 20
172.04108522744579
 11
150.23003806726197
 21
182.97885079445589
  0
LINE
  8
_0-3_0-10
  6
CONTINUOUS
 62
    7
 10
163.81945406372156
 20
172.04108522744579
 11
152.88168849671146
 21
182.97885079445589
  0
LINE
  8
_0-3_0-10
  6
CONTINUOUS
 62
    7
 10
166.47110449317116
 20
172.04108522744579
 11
155.53333892616097
 21
182.97885079445589
  0
LINE
  8
_0-3_0-10
  6
CONTINUOUS
 62
    7
 10
169.12275492262068
 20
172.04108522744579
 11
158.18498935561058
 21
182.97885079445589
  0
LINE
  8
_0-3_0-10
  6
CONTINUOUS
 62
    7
 10
171.77440535207026
 20
172.04108522744579
 11
160.83663978506018
 21
182.97885079445589
  0
LINE
  8
_0-3_0-10
  6
CONTINUOUS
 62
    7
 10
174.42605578151986
 20
172.04108522744579
 11
163.48829021450976
 21
182.97885079445589
  0
LINE
  8
_0-3_0-10
  6
CONTINUOUS
 62
    7
 10
177.07770621096938
 20
172.04108522744579
 11
166.13994064395927
 21
182.97885079445589
  0
LINE
  8
_0-3_0-10
  6
CONTINUOUS
 62
    7
 10
179.72935664041898
 20
172.04108522744579
 11
168.79159107340876
 21
182.97885079445589
  0
LINE
  8
_0-3_0-10
  6
CONTINUOUS
 62
    7
 10
181.14853713468048
 20
173.27355516263389
 11
171.44324150285837
 21
182.97885079445589
  0
LINE
  8
_0-3_0-10
  6
CONTINUOUS
 62
    7
 10
181.93869439466888
 20
175.13504833209489
 11
174.09489193230785
 21
182.97885079445589
  0
LINE
  8
_0-3_0-10
  6
CONTINUOUS
 62
    7
 10
182.91239936779217
 20
176.8129937884212
 11
176.64142344933748
 21
183.0839697068759
  0
LINE
  8
_0-3_0-10
  6
CONTINUOUS
 62
    7
 10
184.74021808618866
 20
177.63682549947429
 11
178.64549151926857
 21
183.73155206639438
  0
LINE
  8
_0-3_0-10
  6
CONTINUOUS
 62
    7
 10
187.38193868457386
 20
177.64675533053849
 11
179.78312694478665
 21
185.24556707032579
  0
LINE
  8
_0-3_0-10
  6
CONTINUOUS
 62
    7
 10
189.30051943827166
 20
178.37982500629038
 11
179.37360288641067
 21
188.3067415581514
  0
LINE
  8
_0-3_0-10
  6
CONTINUOUS
 62
    7
 10
187.82617732352215
 20
182.50581755048941
 11
179.30883273212467
 21
191.02316214188689
  0
LINE
  8
_0-3_0-10
  6
CONTINUOUS
 62
    7
 10
185.25511571998328
 20
187.72852958347789
 11
181.88328172549998
 21
191.1003635779611
  0
LINE
  8
_0-3_0-10
  6
CONTINUOUS
 62
    7
 10
114.15266956172067
 20
144.80899410165579
 11
116.44623759472708
 21
147.1025621346622
  0
LINE
  8
_0-3_0-10
  6
CONTINUOUS
 62
    7
 10
114.20175732023814
 20
142.20643143072379
 11
119.09788802417668
 21
147.1025621346622
  0
LINE
  8
_0-3_0-10
  6
CONTINUOUS
 62
    7
 10
114.25084507875574
 20
139.60386875979179
 11
121.74953845362617
 21
147.1025621346622
  0
LINE
  8
_0-3_0-10
  6
CONTINUOUS
 62
    7
 10
114.29993283727336
 20
137.00130608885979
 11
124.40118888307566
 21
147.1025621346622
  0
LINE
  8
_0-3_0-10
  6
CONTINUOUS
 62
    7
 10
116.11507374551507
 20
136.1647965676519
 11
127.05283931252526
 21
147.1025621346622
  0
LINE
  8
_0-3_0-10
  6
CONTINUOUS
 62
    7
 10
118.76672417496456
 20
136.1647965676519
 11
129.70448974197478
 21
147.1025621346622
  0
LINE
  8
_0-3_0-10
  6
CONTINUOUS
 62
    7
 10
121.41837460441415
 20
136.16479656765199
 11
132.35614017142438
 21
147.1025621346622
  0
LINE
  8
_0-3_0-10
  6
CONTINUOUS
 62
    7
 10
124.07002503386368
 20
136.16479656765199
 11
135.00779060087387
 21
147.1025621346622
  0
LINE
  8
_0-3_0-10
  6
CONTINUOUS
 62
    7
 10
126.72167546331326
 20
136.1647965676519
 11
137.65944103032347
 21
147.1025621346622
  0
LINE
  8
_0-3_0-10
  6
CONTINUOUS
 62
    7
 10
129.37332589276277
 20
136.1647965676519
 11
140.31109145977308
 21
147.1025621346622
  0
LINE
  8
_0-3_0-10
  6
CONTINUOUS
 62
    7
 10
132.02497632221238
 20
136.16479656765199
 11
142.96274188922257
 21
147.1025621346622
  0
LINE
  8
_0-3_0-10
  6
CONTINUOUS
 62
    7
 10
134.67662675166198
 20
136.16479656765199
 11
145.61439231867217
 21
147.1025621346622
  0
LINE
  8
_0-3_0-10
  6
CONTINUOUS
 62
    7
 10
137.32827718111147
 20
136.1647965676519
 11
148.26604274812166
 21
147.1025621346622
  0
LINE
  8
_0-3_0-10
  6
CONTINUOUS
 62
    7
 10
139.97992761056107
 20
136.1647965676519
 11
150.91769317757126
 21
147.1025621346622
  0
LINE
  8
_0-3_0-10
  6
CONTINUOUS
 62
    7
 10
142.63157804001056
 20
136.1647965676519
 11
153.56934360702086
 21
147.1025621346622
  0
LINE
  8
_0-3_0-10
  6
CONTINUOUS
 62
    7
 10
145.28322846946016
 20
136.1647965676519
 11
156.22099403647035
 21
147.1025621346622
  0
LINE
  8
_0-3_0-10
  6
CONTINUOUS
 62
    7
 10
147.93487889890965
 20
136.16479656765199
 11
158.87264446591996
 21
147.1025621346622
  0
LINE
  8
_0-3_0-10
  6
CONTINUOUS
 62
    7
 10
150.58652932835926
 20
136.16479656765199
 11
161.52429489536947
 21
147.1025621346622
  0
LINE
  8
_0-3_0-10
  6
CONTINUOUS
 62
    7
 10
153.23817975780886
 20
136.16479656765199
 11
164.17594532481908
 21
147.1025621346622
  0
LINE
  8
_0-3_0-10
  6
CONTINUOUS
 62
    7
 10
155.88983018725838
 20
136.1647965676519
 11
166.82759575426857
 21
147.1025621346622
  0
LINE
  8
_0-3_0-10
  6
CONTINUOUS
 62
    7
 10
158.54148061670798
 20
136.1647965676519
 11
169.47924618371817
 21
147.1025621346622
  0
LINE
  8
_0-3_0-10
  6
CONTINUOUS
 62
    7
 10
161.19313104615747
 20
136.1647965676519
 11
172.13089661316766
 21
147.1025621346622
  0
LINE
  8
_0-3_0-10
  6
CONTINUOUS
 62
    7
 10
163.84478147560696
 20
136.1647965676519
 11
174.78254704261726
 21
147.1025621346622
  0
LINE
  8
_0-3_0-10
  6
CONTINUOUS
 62
    7
 10
166.49643190505668
 20
136.16479656765199
 11
177.43419747206687
 21
147.1025621346622
  0
LINE
  8
_0-3_0-10
  6
CONTINUOUS
 62
    7
 10
169.14808233450617
 20
136.16479656765199
 11
180.08584790151635
 21
147.1025621346622
  0
LINE
  8
_0-3_0-10
  6
CONTINUOUS
 62
    7
 10
171.79973276395577
 20
136.16479656765199
 11
183.03807132233097
 21
147.40313512602719
  0
LINE
  8
_0-3_0-10
  6
CONTINUOUS
 62
    7
 10
174.45138319340526
 20
136.1647965676519
 11
186.78385742020947
 21
148.49727079445608
  0
LINE
  8
_0-3_0-10
  6
CONTINUOUS
 62
    7
 10
177.10303362285486
 20
136.1647965676519
 11
189.43550784965896
 21
148.49727079445608
  0
LINE
  8
_0-3_0-10
  6
CONTINUOUS
 62
    7
 10
179.75468405230438
 20
136.1647965676519
 11
192.08715827910856
 21
148.49727079445608
  0
LINE
  8
_0-3_0-10
  6
CONTINUOUS
 62
    7
 10
182.46091092632147
 20
136.21937301221939
 11
194.73880870855808
 21
148.49727079445608
  0
LINE
  8
_0-3_0-10
  6
CONTINUOUS
 62
    7
 10
190.52639643952298
 20
141.63320809597138
 11
195.08179148289607
 21
146.18860313934459
  0
LINE
  8
_0-3_0-10
  6
CONTINUOUS
 62
    7
 10
193.31530544374578
 20
141.77046667074469
 11
194.96064994613087
 21
143.41581117312981
  0
LINE
  8
_0-3_0-10
  6
CONTINUOUS
 62
    7
 10
114.84292898112977
 20
136.1647965676519
 11
114.30557531048467
 21
136.702150238297
  0
LINE
  8
_0-3_0-10
  6
CONTINUOUS
 62
    7
 10
117.49457941057926
 20
136.1647965676519
 11
114.25460023517806
 21
139.4047757430531
  0
LINE
  8
_0-3_0-10
  6
CONTINUOUS
 62
    7
 10
120.14622984002886
 20
136.1647965676519
 11
114.20362515987146
 21
142.10740124780929
  0
LINE
  8
_0-3_0-10
  6
CONTINUOUS
 62
    7
 10
122.79788026947838
 20
136.1647965676519
 11
114.15265008456485
 21
144.81002675256539
  0
LINE
  8
_0-3_0-10
  6
CONTINUOUS
 62
    7
 10
125.44953069892794
 20
136.1647965676519
 11
114.51176513191775
 21
147.10256213466209
  0
LINE
  8
_0-3_0-10
  6
CONTINUOUS
 62
    7
 10
128.10118112837756
 20
136.1647965676519
 11
117.16341556136724
 21
147.10256213466209
  0
LINE
  8
_0-3_0-10
  6
CONTINUOUS
 62
    7
 10
130.75283155782707
 20
136.1647965676519
 11
119.81506599081686
 21
147.10256213466209
  0
LINE
  8
_0-3_0-10
  6
CONTINUOUS
 62
    7
 10
133.40448198727656
 20
136.1647965676519
 11
122.46671642026636
 21
147.10256213466209
  0
LINE
  8
_0-3_0-10
  6
CONTINUOUS
 62
    7
 10
136.05613241672617
 20
136.1647965676519
 11
125.11836684971598
 21
147.10256213466209
  0
LINE
  8
_0-3_0-10
  6
CONTINUOUS
 62
    7
 10
138.70778284617577
 20
136.1647965676519
 11
127.77001727916547
 21
147.10256213466209
  0
LINE
  8
_0-3_0-10
  6
CONTINUOUS
 62
    7
 10
141.35943327562526
 20
136.1647965676519
 11
130.42166770861507
 21
147.10256213466209
  0
LINE
  8
_0-3_0-10
  6
CONTINUOUS
 62
    7
 10
144.01108370507478
 20
136.1647965676519
 11
133.07331813806456
 21
147.1025621346622
  0
LINE
  8
_0-3_0-10
  6
CONTINUOUS
 62
    7
 10
146.66273413452438
 20
136.1647965676519
 11
135.72496856751416
 21
147.10256213466209
  0
LINE
  8
_0-3_0-10
  6
CONTINUOUS
 62
    7
 10
149.31438456397387
 20
136.1647965676519
 11
138.37661899696368
 21
147.10256213466209
  0
LINE
  8
_0-3_0-10
  6
CONTINUOUS
 62
    7
 10
151.96603499342347
 20
136.1647965676519
 11
141.02826942641326
 21
147.10256213466209
  0
LINE
  8
_0-3_0-10
  6
CONTINUOUS
 62
    7
 10
154.61768542287296
 20
136.1647965676519
 11
143.67991985586277
 21
147.10256213466209
  0
LINE
  8
_0-3_0-10
  6
CONTINUOUS
 62
    7
 10
157.26933585232256
 20
136.1647965676519
 11
146.33157028531226
 21
147.10256213466209
  0
LINE
  8
_0-3_0-10
  6
CONTINUOUS
 62
    7
 10
159.92098628177205
 20
136.1647965676519
 11
148.98322071476187
 21
147.10256213466209
  0
LINE
  8
_0-3_0-10
  6
CONTINUOUS
 62
    7
 10
162.57263671122166
 20
136.1647965676519
 11
151.63487114421147
 21
147.10256213466209
  0
LINE
  8
_0-3_0-10
  6
CONTINUOUS
 62
    7
 10
165.22428714067126
 20
136.1647965676519
 11
154.28652157366107
 21
147.10256213466209
  0
LINE
  8
_0-3_0-10
  6
CONTINUOUS
 62
    7
 10
167.87593757012086
 20
136.1647965676519
 11
156.93817200311067
 21
147.10256213466209
  0
LINE
  8
_0-3_0-10
  6
CONTINUOUS
 62
    7
 10
170.52758799957038
 20
136.1647965676519
 11
159.58982243256016
 21
147.10256213466209
  0
LINE
  8
_0-3_0-10
  6
CONTINUOUS
 62
    7
 10
173.17923842901996
 20
136.1647965676519
 11
162.24147286200977
 21
147.10256213466209
  0
LINE
  8
_0-3_0-10
  6
CONTINUOUS
 62
    7
 10
175.83088885846947
 20
136.1647965676519
 11
164.89312329145926
 21
147.10256213466209
  0
LINE
  8
_0-3_0-10
  6
CONTINUOUS
 62
    7
 10
178.48253928791908
 20
136.1647965676519
 11
167.54477372090877
 21
147.10256213466209
  0
LINE
  8
_0-3_0-10
  6
CONTINUOUS
 62
    7
 10
181.13418971736857
 20
136.1647965676519
 11
170.19642415035838
 21
147.10256213466209
  0
LINE
  8
_0-3_0-10
  6
CONTINUOUS
 62
    7
 10
183.40143379494276
 20
136.5492029195272
 11
172.84807457980787
 21
147.10256213466209
  0
LINE
  8
_0-3_0-10
  6
CONTINUOUS
 62
    7
 10
184.84325371925217
 20
137.7590334246675
 11
175.49972500925747
 21
147.10256213466209
  0
LINE
  8
_0-3_0-10
  6
CONTINUOUS
 62
    7
 10
186.28507364356156
 20
138.96886392980758
 11
178.15137543870696
 21
147.10256213466209
  0
LINE
  8
_0-3_0-10
  6
CONTINUOUS
 62
    7
 10
187.72689356787097
 20
140.1786944349478
 11
180.78764783263326
 21
147.11794017018539
  0
LINE
  8
_0-3_0-10
  6
CONTINUOUS
 62
    7
 10
189.32372524407335
 20
141.2335131881949
 11
183.13419525313068
 21
147.4230431791376
  0
LINE
  8
_0-3_0-10
  6
CONTINUOUS
 62
    7
 10
191.44875976863966
 20
141.76012909307809
 11
185.13491281155256
 21
148.07397605016529
  0
LINE
  8
_0-3_0-10
  6
CONTINUOUS
 62
    7
 10
194.02062182611626
 20
141.83991746505108
 11
187.36326849671127
 21
148.49727079445608
  0
LINE
  8
_0-3_0-10
  6
CONTINUOUS
 62
    7
 10
194.96825583866828
 20
143.54393388194858
 11
190.01491892616076
 21
148.49727079445608
  0
LINE
  8
_0-3_0-10
  6
CONTINUOUS
 62
    7
 10
195.07890027668716
 20
146.08493987337919
 11
192.66656935561036
 21
148.49727079445599
  0
LINE
  8
_0-3_0-10
  6
CONTINUOUS
 62
    7
 10
186.78385742020947
 20
148.49727079445608
 11
193.51066154392057
 21
155.2240749181673
  0
LINE
  8
_0-3_0-10
  6
CONTINUOUS
 62
    7
 10
189.43550784965896
 20
148.49727079445608
 11
194.93419205339046
 21
153.99595499818758
  0
LINE
  8
_0-3_0-10
  6
CONTINUOUS
 62
    7
 10
192.08715827910856
 20
148.49727079445608
 11
195.06102968456747
 21
151.4711421999151
  0
LINE
  8
_0-3_0-10
  6
CONTINUOUS
 62
    7
 10
194.73880870855808
 20
148.49727079445608
 11
195.11244849147416
 21
148.87091057737208
  0
LINE
  8
_0-3_0-10
  6
CONTINUOUS
 62
    7
 10
187.36326849671127
 20
148.49727079445608
 11
186.74347075568547
 21
149.1170685354819
  0
LINE
  8
_0-3_0-10
  6
CONTINUOUS
 62
    7
 10
190.01491892616087
 20
148.49727079445599
 11
187.97854609311227
 21
150.53364362750468
  0
LINE
  8
_0-3_0-10
  6
CONTINUOUS
 62
    7
 10
192.66656935561036
 20
148.49727079445599
 11
189.19605778784926
 21
151.96778236221709
  0
LINE
  8
_0-3_0-10
  6
CONTINUOUS
 62
    7
 10
195.11302428527795
 20
148.70246629423809
 11
190.41356948258638
 21
153.40192109692969
  0
LINE
  8
_0-3_0-10
  6
CONTINUOUS
 62
    7
 10
195.06337066051526
 20
151.4037703484503
 11
191.32120914851665
 21
155.14593186044888
  0
LINE
  8
_0-3_0-10
  6
CONTINUOUS
 62
    7
 10
194.89404963555656
 20
154.2247418028586
 11
193.93997712844708
 21
155.178814309968
  0
TEXT
  8
_0-1_0-00
 62
    7
 10
-34.551433913719392
 20
-19.475228341160118
 40
4.3874999999999992
 41
1
 50
0
  1
型番：VC150JKAP□　　※)□はカラーを示します。
  0
TEXT
  8
_0-1_0-00
 62
    7
 10
386.51153737259335
 20
-25.420284384044236
 40
4.875
 41
1
 50
0
  1
耐外風型フード付換気口(網付)
  0
ENDSEC
  0
EOF
