  0
SECTION
  2
HEADER
  9
$ACADVER
  1
AC1009
  9
$INSBASE
 10
0
 20
0
 30
0
  9
$EXTMIN
 10
0
 20
0
  9
$EXTMAX
 10
420
 20
297
  9
$LIMMIN
 10
0
 20
0
  9
$LIMMAX
 10
420
 20
297
  9
$LTSCALE
 40
1
  0
ENDSEC
  0
SECTION
  2
TABLES
  0
TABLE
  2
LTYPE
 70
     9
  0
LTYPE
  2
CONTINUOUS
 70
    64
  3
実線
 72
    65
 73
     0
 40
0.0
  0
LTYPE
  2
DASHED1
 70
    64
  3
--  --  --  --  --  --  --  --  
 72
    65
 73
     2
 40
2.5
 49
1.25
 49
-1.25
  0
LTYPE
  2
DASHED2
 70
    64
  3
----    ----    ----    ----    
 72
    65
 73
     2
 40
5.0
 49
2.5
 49
-2.5
  0
LTYPE
  2
DASHED3
 70
    64
  3
------  ------  ------  ------  
 72
    65
 73
     2
 40
5.0
 49
3.75
 49
-1.25
  0
LTYPE
  2
CENTER1
 70
    64
  3
----- - ----- - ----- - ----- - 
 72
    65
 73
     4
 40
10.0
 49
6.25
 49
-1.25
 49
1.25
 49
-1.25
  0
LTYPE
  2
CENTER2
 70
    64
  3
----------  --  ----------  --  
 72
    65
 73
     4
 40
20.0
 49
12.5
 49
-2.5
 49
2.5
 49
-2.5
  0
LTYPE
  2
PHANTOM1
 70
    64
  3
--- - - --- - - --- - - --- - - 
 72
    65
 73
     6
 40
10.0
 49
3.25
 49
-1.25
 49
1.25
 49
-1.25
 49
1.25
 49
-1.25
  0
LTYPE
  2
PHANTOM2
 70
    64
  3
--------  -  -  --------  -  -  
 72
    65
 73
     6
 40
20.0
 49
10.0
 49
-2.5
 49
1.25
 49
-2.5
 49
1.25
 49
-2.5
  0
LTYPE
  2
DOT
 70
    64
  3
-   -   -   -   -   -   -   -   
 72
    65
 73
     2
 40
2.5
 49
0.625
 49
-1.875
  0
LTYPE
  2
DUMMY
 70
    64
  3
ダミー
 72
    65
 73
     0
 40
0.0
  0
LTYPE
  2
RAND1
 70
    64
  3
ランダム線1
 72
    65
 73
     4
 40
10.0
 49
1.0
 49
-2.0
 49
3.0
 49
-4.0
  0
LTYPE
  2
RAND2
 70
    64
  3
ランダム線2
 72
    65
 73
     4
 40
14.0
 49
2.0
 49
-3.0
 49
4.0
 49
-5.0
  0
LTYPE
  2
RAND3
 70
    64
  3
ランダム線3
 72
    65
 73
     4
 40
18.0
 49
3.0
 49
-4.0
 49
5.0
 49
-6.0
  0
LTYPE
  2
RAND4
 70
    64
  3
ランダム線4
 72
    65
 73
     4
 40
22.0
 49
4.0
 49
-5.0
 49
6.0
 49
-7.0
  0
LTYPE
  2
RAND5
 70
    64
  3
ランダム線5
 72
    65
 73
     4
 40
26.0
 49
5.0
 49
-6.0
 49
7.0
 49
-8.0
  0
LTYPE
  2
LONG1
 70
    64
  3
----------  --  ----------  --  
 72
    65
 73
     4
 40
40.0
 49
32.5
 49
-2.5
 49
2.5
 49
-2.5
  0
LTYPE
  2
LONG2
 70
    64
  3
--------  -  -  --------  -  -  
 72
    65
 73
     6
 40
40.0
 49
30.0
 49
-2.5
 49
1.25
 49
-2.5
 49
1.25
 49
-2.5
  0
LTYPE
  2
LONG3
 70
    64
  3
+++++++++++++++..+++++++++++++++
 72
    65
 73
     2
 40
40.0
 49
37.5
 49
-2.5
  0
LTYPE
  2
LONG4
 70
    64
  3
+++++++++++++++..+++++++++++++++
 72
    65
 73
     2
 40
80.0
 49
75.0
 49
-5.0
  0
LTYPE
  2
LONG5
 70
    64
  3
----------  --  ----------  --  
 72
    65
 73
     4
 40
60.0
 49
37.5
 49
-7.5
 49
7.5
 49
-7.5
  0
LTYPE
  2
dashed
 70
   64
  3
-------   -------------   ------
 72
   65
 73
    2
 40
7.5
 49
6
 49
-1.5
  0
LTYPE
  2
dashed_spaced
 70
   64
  3
----        --------        ----
 72
   65
 73
    2
 40
12
 49
6
 49
-6
  0
LTYPE
  2
long_dashed_dotted
 70
   64
  3
------------- --- --------------
 72
   65
 73
    4
 40
15.25
 49
12
 49
-1.5
 49
0.25
 49
-1.5
  0
LTYPE
  2
long_dashed_double-dotted
 70
   64
  3
----------- --- --- ------------
 72
   65
 73
    6
 40
17
 49
12
 49
-1.5
 49
0.25
 49
-1.5
 49
0.25
 49
-1.5
  0
LTYPE
  2
long_dashed_triplicate-dotted
 70
   64
  3
--------- --- --- --- ----------
 72
   65
 73
    8
 40
18.75
 49
12
 49
-1.5
 49
0.25
 49
-1.5
 49
0.25
 49
-1.5
 49
0.25
 49
-1.5
  0
LTYPE
  2
dotted
 70
   64
  3
   -       -       -       -    
 72
   65
 73
    2
 40
1.75
 49
0.25
 49
-1.5
  0
LTYPE
  2
chain
 70
   64
  3
-------------- -- --------------
 72
   65
 73
    4
 40
18.5
 49
12
 49
-1.5
 49
3.5
 49
-1.5
  0
LTYPE
  2
chain_double_dash
 70
   64
  3
------------ -- -- -------------
 72
   65
 73
    6
 40
23.5
 49
12
 49
-1.5
 49
3.5
 49
-1.5
 49
3.5
 49
-1.5
  0
LTYPE
  2
dashed_dotted
 70
   64
  3
-----------     -     ----------
 72
   65
 73
    4
 40
9.25
 49
6
 49
-1.5
 49
0.25
 49
-1.5
  0
LTYPE
  2
double-dashed_dotted
 70
   64
  3
------   -----------   -   -----
 72
   65
 73
    6
 40
16.75
 49
6
 49
-1.5
 49
6
 49
-1.5
 49
0.25
 49
-1.5
  0
LTYPE
  2
dashed_double-dotted
 70
   64
  3
---------    -    -    ---------
 72
   65
 73
    6
 40
11
 49
6
 49
-1.5
 49
0.25
 49
-1.5
 49
0.25
 49
-1.5
  0
LTYPE
  2
double-dashed_double-dotted
 70
   64
  3
-----   ---------   -   -   ----
 72
   65
 73
    8
 40
18.5
 49
6
 49
-1.5
 49
6
 49
-1.5
 49
0.25
 49
-1.5
 49
0.25
 49
-1.5
  0
LTYPE
  2
dashed_triplicate-dotted
 70
   64
  3
-------    -    -    -    ------
 72
   65
 73
    8
 40
12.75
 49
6
 49
-1.5
 49
0.25
 49
-1.5
 49
0.25
 49
-1.5
 49
0.25
 49
-1.5
  0
LTYPE
  2
double-dashed_triplicate-dotted
 70
   64
  3
-----  ---------  -  -  -  -----
 72
   65
 73
   10
 40
20.25
 49
6
 49
-1.5
 49
6
 49
-1.5
 49
0.25
 49
-1.5
 49
0.25
 49
-1.5
 49
0.25
 49
-1.5
  0
LTYPE
  2
undefined
 70
   64
  3
--------------------------------
 72
   65
 73
    0
 40
0
  0
LTYPE
  2
_
 70
   64
  3
                                
 72
   65
 73
    0
 40
0
  0
LTYPE
  2
__18
 70
   64
  3
                                
 72
   65
 73
    0
 40
0
  0
LTYPE
  2
__19
 70
   64
  3
                                
 72
   65
 73
    0
 40
0
  0
LTYPE
  2
__20
 70
   64
  3
                                
 72
   65
 73
    0
 40
0
  0
LTYPE
  2
__21
 70
   64
  3
                                
 72
   65
 73
    0
 40
0
  0
LTYPE
  2
__22
 70
   64
  3
                                
 72
   65
 73
    0
 40
0
  0
LTYPE
  2
__23
 70
   64
  3
                                
 72
   65
 73
    0
 40
0
  0
LTYPE
  2
__24
 70
   64
  3
                                
 72
   65
 73
    0
 40
0
  0
LTYPE
  2
__25
 70
   64
  3
                                
 72
   65
 73
    0
 40
0
  0
LTYPE
  2
__26
 70
   64
  3
                                
 72
   65
 73
    0
 40
0
  0
LTYPE
  2
__27
 70
   64
  3
                                
 72
   65
 73
    0
 40
0
  0
LTYPE
  2
__28
 70
   64
  3
                                
 72
   65
 73
    0
 40
0
  0
LTYPE
  2
__29
 70
   64
  3
                                
 72
   65
 73
    0
 40
0
  0
LTYPE
  2
__30
 70
   64
  3
                                
 72
   65
 73
    0
 40
0
  0
LTYPE
  2
__31
 70
   64
  3
                                
 72
   65
 73
    0
 40
0
  0
LTYPE
  2
__32
 70
   64
  3
                                
 72
   65
 73
    0
 40
0
  0
ENDTAB
  0
TABLE
  2
STYLE
  5
3
100
AcDbSymbolTable
 70
     1
  0
STYLE
  5
10
100
AcDbSymbolTableRecord
100
AcDbTextStyleTableRecord
  2
STANDARD
 70
     0
 40
0.0
 41
1.0
 50
0.0
 71
     0
 42
0.2
  3
txt
  4
bigfont.shx
  0
STYLE
  5
26
100
AcDbSymbolTableRecord
100
AcDbTextStyleTableRecord
  2
TATEGAKI
 70
    68
 40
0.0
 41
1.0
 50
0.0
 71
     0
 42
1.0
  3
txt
  4
bigfont.shx
  0
ENDTAB
  0
TABLE
  2
LAYER
 70
    4
  0
LAYER
  2
_0-0_0
 70
   64
 62
    7
  6
CONTINUOUS
  0
LAYER
  2
_0-1_0-00
 70
   64
 62
    7
  6
CONTINUOUS
  0
LAYER
  2
_0-2_0-10
 70
   64
 62
    7
  6
CONTINUOUS
  0
LAYER
  2
ADD_LINE
 70
   64
 62
    7
  6
CONTINUOUS
  0
ENDTAB
  0
ENDSEC
  0
SECTION
  2
BLOCKS
  0
BLOCK
  2
-000-EDTIP_ARROW_S_0
 70
   64
 10
0
 20
0
 30
0
  0
LINE
  8
_0-2_0-10
  6
CONTINUOUS
 62
    7
 10
0
 20
0
 11
-1
 21
0
  0
LINE
  8
_0-2_0-10
  6
CONTINUOUS
 62
    7
 10
0
 20
0
 11
-0.9659259999999999
 21
0.258819
  0
LINE
  8
_0-2_0-10
  6
CONTINUOUS
 62
    7
 10
0
 20
0
 11
-0.9659259999999999
 21
-0.258819
  0
ENDBLK
  0
BLOCK
  2
-001-EDTIP_ARROW_E_1
 70
   64
 10
0
 20
0
 30
0
  0
LINE
  8
_0-0_0
  6
CONTINUOUS
 62
    7
 10
0
 20
0
 11
-1
 21
0
  0
LINE
  8
_0-0_0
  6
CONTINUOUS
 62
    7
 10
0
 20
0
 11
-0.9659259999999999
 21
-0.258819
  0
LINE
  8
_0-0_0
  6
CONTINUOUS
 62
    7
 10
0
 20
0
 11
-0.9659259999999999
 21
0.258819
  0
ENDBLK
  0
BLOCK
  2
-002-BLKF019_2
 70
   64
 10
0
 20
0
 30
0
  0
LINE
  8
_0-0_0
  6
CONTINUOUS
 62
    4
 10
111.728244
 20
214.25727900000001
 11
111.85897699999999
 21
214.26013299999999
  0
LINE
  8
_0-0_0
  6
CONTINUOUS
 62
    4
 10
111.85897699999999
 20
214.26013299999999
 11
111.98871599999999
 21
214.268673
  0
LINE
  8
_0-0_0
  6
CONTINUOUS
 62
    4
 10
111.98871599999999
 20
214.268673
 11
112.116472
 21
214.282834
  0
LINE
  8
_0-0_0
  6
CONTINUOUS
 62
    4
 10
112.116472
 20
214.282834
 11
112.241274
 21
214.30250899999998
  0
LINE
  8
_0-0_0
  6
CONTINUOUS
 62
    4
 10
112.241274
 20
214.30250899999998
 11
112.362171
 21
214.327548
  0
LINE
  8
_0-0_0
  6
CONTINUOUS
 62
    4
 10
112.362171
 20
214.327548
 11
112.478244
 21
214.35776000000001
  0
LINE
  8
_0-0_0
  6
CONTINUOUS
 62
    4
 10
112.478244
 20
214.35776000000001
 11
112.58860799999999
 21
214.39291499999998
  0
LINE
  8
_0-0_0
  6
CONTINUOUS
 62
    4
 10
112.58860799999999
 20
214.39291499999998
 11
112.692425
 21
214.43274500000001
  0
LINE
  8
_0-0_0
  6
CONTINUOUS
 62
    4
 10
112.692425
 20
214.43274500000001
 11
112.788904
 21
214.47694899999999
  0
LINE
  8
_0-0_0
  6
CONTINUOUS
 62
    4
 10
112.788904
 20
214.47694899999999
 11
112.87730999999999
 21
214.52518800000001
  0
LINE
  8
_0-0_0
  6
CONTINUOUS
 62
    4
 10
112.87730999999999
 20
214.52518800000001
 11
112.95697199999999
 21
214.57709600000001
  0
LINE
  8
_0-0_0
  6
CONTINUOUS
 62
    4
 10
112.95697199999999
 20
214.57709600000001
 11
113.02728199999998
 21
214.63227900000001
  0
LINE
  8
_0-0_0
  6
CONTINUOUS
 62
    4
 10
113.02728199999998
 20
214.63227900000001
 11
113.08770499999998
 21
214.69031499999999
  0
LINE
  8
_0-0_0
  6
CONTINUOUS
 62
    4
 10
113.08770499999998
 20
214.69031499999999
 11
113.13778299999998
 21
214.750764
  0
LINE
  8
_0-0_0
  6
CONTINUOUS
 62
    4
 10
113.13778299999998
 20
214.750764
 11
113.177132
 21
214.813164
  0
LINE
  8
_0-0_0
  6
CONTINUOUS
 62
    4
 10
113.177132
 20
214.813164
 11
113.205455
 21
214.87704299999998
  0
LINE
  8
_0-0_0
  6
CONTINUOUS
 62
    4
 10
113.205455
 20
214.87704299999998
 11
113.222536
 21
214.941912
  0
LINE
  8
_0-0_0
  6
CONTINUOUS
 62
    4
 10
113.222536
 20
214.941912
 11
113.228244
 21
215.00727900000001
  0
ENDBLK
  0
BLOCK
  2
-003-BLKF020_3
 70
   64
 10
0
 20
0
 30
0
  0
LINE
  8
_0-0_0
  6
CONTINUOUS
 62
    4
 10
111.728244
 20
214.58203800000001
 11
111.85897699999999
 21
214.58489199999999
  0
LINE
  8
_0-0_0
  6
CONTINUOUS
 62
    4
 10
111.85897699999999
 20
214.58489199999999
 11
111.98871599999999
 21
214.593432
  0
LINE
  8
_0-0_0
  6
CONTINUOUS
 62
    4
 10
111.98871599999999
 20
214.593432
 11
112.116472
 21
214.607594
  0
LINE
  8
_0-0_0
  6
CONTINUOUS
 62
    4
 10
112.116472
 20
214.607594
 11
112.241274
 21
214.62726900000001
  0
LINE
  8
_0-0_0
  6
CONTINUOUS
 62
    4
 10
112.241274
 20
214.62726900000001
 11
112.362171
 21
214.652307
  0
LINE
  8
_0-0_0
  6
CONTINUOUS
 62
    4
 10
112.362171
 20
214.652307
 11
112.478244
 21
214.68251900000001
  0
LINE
  8
_0-0_0
  6
CONTINUOUS
 62
    4
 10
112.478244
 20
214.68251900000001
 11
112.58860799999999
 21
214.71767399999998
  0
LINE
  8
_0-0_0
  6
CONTINUOUS
 62
    4
 10
112.58860799999999
 20
214.71767399999998
 11
112.692425
 21
214.757505
  0
LINE
  8
_0-0_0
  6
CONTINUOUS
 62
    4
 10
112.692425
 20
214.757505
 11
112.788904
 21
214.80170799999999
  0
LINE
  8
_0-0_0
  6
CONTINUOUS
 62
    4
 10
112.788904
 20
214.80170799999999
 11
112.87730999999999
 21
214.84994800000001
  0
LINE
  8
_0-0_0
  6
CONTINUOUS
 62
    4
 10
112.87730999999999
 20
214.84994800000001
 11
112.95697199999999
 21
214.901856
  0
LINE
  8
_0-0_0
  6
CONTINUOUS
 62
    4
 10
112.95697199999999
 20
214.901856
 11
113.02728199999998
 21
214.95703800000001
  0
LINE
  8
_0-0_0
  6
CONTINUOUS
 62
    4
 10
113.02728199999998
 20
214.95703800000001
 11
113.08770499999998
 21
215.01507499999999
  0
LINE
  8
_0-0_0
  6
CONTINUOUS
 62
    4
 10
113.08770499999998
 20
215.01507499999999
 11
113.13778299999998
 21
215.075523
  0
LINE
  8
_0-0_0
  6
CONTINUOUS
 62
    4
 10
113.13778299999998
 20
215.075523
 11
113.177132
 21
215.13792399999999
  0
LINE
  8
_0-0_0
  6
CONTINUOUS
 62
    4
 10
113.177132
 20
215.13792399999999
 11
113.205455
 21
215.20180199999998
  0
LINE
  8
_0-0_0
  6
CONTINUOUS
 62
    4
 10
113.205455
 20
215.20180199999998
 11
113.222536
 21
215.266671
  0
LINE
  8
_0-0_0
  6
CONTINUOUS
 62
    4
 10
113.222536
 20
215.266671
 11
113.228244
 21
215.33203800000001
  0
LINE
  8
_0-0_0
  6
CONTINUOUS
 62
    4
 10
113.228244
 20
215.33203800000001
 11
113.222536
 21
215.39740499999999
  0
LINE
  8
_0-0_0
  6
CONTINUOUS
 62
    4
 10
113.222536
 20
215.39740499999999
 11
113.205455
 21
215.462274
  0
LINE
  8
_0-0_0
  6
CONTINUOUS
 62
    4
 10
113.205455
 20
215.462274
 11
113.177132
 21
215.52615299999999
  0
LINE
  8
_0-0_0
  6
CONTINUOUS
 62
    4
 10
113.177132
 20
215.52615299999999
 11
113.13778299999998
 21
215.58855299999999
  0
LINE
  8
_0-0_0
  6
CONTINUOUS
 62
    4
 10
113.13778299999998
 20
215.58855299999999
 11
113.08770499999998
 21
215.64900199999999
  0
LINE
  8
_0-0_0
  6
CONTINUOUS
 62
    4
 10
113.08770499999998
 20
215.64900199999999
 11
113.02728199999998
 21
215.70703800000001
  0
LINE
  8
_0-0_0
  6
CONTINUOUS
 62
    4
 10
113.02728199999998
 20
215.70703800000001
 11
112.95697199999999
 21
215.76222100000001
  0
LINE
  8
_0-0_0
  6
CONTINUOUS
 62
    4
 10
112.95697199999999
 20
215.76222100000001
 11
112.87730999999999
 21
215.814129
  0
LINE
  8
_0-0_0
  6
CONTINUOUS
 62
    4
 10
112.87730999999999
 20
215.814129
 11
112.788904
 21
215.862368
  0
LINE
  8
_0-0_0
  6
CONTINUOUS
 62
    4
 10
112.788904
 20
215.862368
 11
112.692425
 21
215.90657200000001
  0
LINE
  8
_0-0_0
  6
CONTINUOUS
 62
    4
 10
112.692425
 20
215.90657200000001
 11
112.58860799999999
 21
215.946402
  0
LINE
  8
_0-0_0
  6
CONTINUOUS
 62
    4
 10
112.58860799999999
 20
215.946402
 11
112.478244
 21
215.981557
  0
LINE
  8
_0-0_0
  6
CONTINUOUS
 62
    4
 10
112.478244
 20
215.981557
 11
112.434126
 21
215.99380300000001
  0
ENDBLK
  0
BLOCK
  2
-004-BLKF021_4
 70
   64
 10
0
 20
0
 30
0
  0
LINE
  8
_0-0_0
  6
CONTINUOUS
 62
    4
 10
120.75561999999999
 20
205.25727900000001
 11
120.919037
 21
205.26084599999998
  0
LINE
  8
_0-0_0
  6
CONTINUOUS
 62
    4
 10
120.919037
 20
205.26084599999998
 11
121.08121099999999
 21
205.271522
  0
LINE
  8
_0-0_0
  6
CONTINUOUS
 62
    4
 10
121.08121099999999
 20
205.271522
 11
121.24090599999999
 21
205.28922299999999
  0
LINE
  8
_0-0_0
  6
CONTINUOUS
 62
    4
 10
121.24090599999999
 20
205.28922299999999
 11
121.39690799999999
 21
205.313817
  0
LINE
  8
_0-0_0
  6
CONTINUOUS
 62
    4
 10
121.39690799999999
 20
205.313817
 11
121.54802899999998
 21
205.34511499999999
  0
LINE
  8
_0-0_0
  6
CONTINUOUS
 62
    4
 10
121.54802899999998
 20
205.34511499999999
 11
121.69311999999999
 21
205.38288
  0
LINE
  8
_0-0_0
  6
CONTINUOUS
 62
    4
 10
121.69311999999999
 20
205.38288
 11
121.83107599999999
 21
205.42682400000001
  0
LINE
  8
_0-0_0
  6
CONTINUOUS
 62
    4
 10
121.83107599999999
 20
205.42682400000001
 11
121.960847
 21
205.47661199999998
  0
LINE
  8
_0-0_0
  6
CONTINUOUS
 62
    4
 10
121.960847
 20
205.47661199999998
 11
122.081445
 21
205.531866
  0
LINE
  8
_0-0_0
  6
CONTINUOUS
 62
    4
 10
122.081445
 20
205.531866
 11
122.19195399999999
 21
205.59216499999999
  0
LINE
  8
_0-0_0
  6
CONTINUOUS
 62
    4
 10
122.19195399999999
 20
205.59216499999999
 11
122.29152999999999
 21
205.65705099999999
  0
LINE
  8
_0-0_0
  6
CONTINUOUS
 62
    4
 10
122.29152999999999
 20
205.65705099999999
 11
122.379418
 21
205.72602900000001
  0
LINE
  8
_0-0_0
  6
CONTINUOUS
 62
    4
 10
122.379418
 20
205.72602900000001
 11
122.454947
 21
205.798574
  0
LINE
  8
_0-0_0
  6
CONTINUOUS
 62
    4
 10
122.454947
 20
205.798574
 11
122.517544
 21
205.87413499999999
  0
LINE
  8
_0-0_0
  6
CONTINUOUS
 62
    4
 10
122.517544
 20
205.87413499999999
 11
122.566731
 21
205.95213599999999
  0
LINE
  8
_0-0_0
  6
CONTINUOUS
 62
    4
 10
122.566731
 20
205.95213599999999
 11
122.602135
 21
206.03198399999999
  0
LINE
  8
_0-0_0
  6
CONTINUOUS
 62
    4
 10
122.602135
 20
206.03198399999999
 11
122.623485
 21
206.11306999999999
  0
LINE
  8
_0-0_0
  6
CONTINUOUS
 62
    4
 10
122.623485
 20
206.11306999999999
 11
122.63061999999999
 21
206.19477900000001
  0
ENDBLK
  0
BLOCK
  2
-005-BLKF022_5
 70
   64
 10
0
 20
0
 30
0
  0
LINE
  8
_0-0_0
  6
CONTINUOUS
 62
    4
 10
120.75561999999999
 20
205.58203800000001
 11
120.919037
 21
205.58560600000001
  0
LINE
  8
_0-0_0
  6
CONTINUOUS
 62
    4
 10
120.919037
 20
205.58560600000001
 11
121.08121099999999
 21
205.596281
  0
LINE
  8
_0-0_0
  6
CONTINUOUS
 62
    4
 10
121.08121099999999
 20
205.596281
 11
121.24090599999999
 21
205.61398299999999
  0
LINE
  8
_0-0_0
  6
CONTINUOUS
 62
    4
 10
121.24090599999999
 20
205.61398299999999
 11
121.39690799999999
 21
205.638576
  0
LINE
  8
_0-0_0
  6
CONTINUOUS
 62
    4
 10
121.39690799999999
 20
205.638576
 11
121.54802899999998
 21
205.66987499999999
  0
LINE
  8
_0-0_0
  6
CONTINUOUS
 62
    4
 10
121.54802899999998
 20
205.66987499999999
 11
121.69311999999999
 21
205.707639
  0
LINE
  8
_0-0_0
  6
CONTINUOUS
 62
    4
 10
121.69311999999999
 20
205.707639
 11
121.83107599999999
 21
205.75158300000001
  0
LINE
  8
_0-0_0
  6
CONTINUOUS
 62
    4
 10
121.83107599999999
 20
205.75158300000001
 11
121.960847
 21
205.80137199999998
  0
LINE
  8
_0-0_0
  6
CONTINUOUS
 62
    4
 10
121.960847
 20
205.80137199999998
 11
122.081445
 21
205.856626
  0
LINE
  8
_0-0_0
  6
CONTINUOUS
 62
    4
 10
122.081445
 20
205.856626
 11
122.19195399999999
 21
205.91692499999999
  0
LINE
  8
_0-0_0
  6
CONTINUOUS
 62
    4
 10
122.19195399999999
 20
205.91692499999999
 11
122.29152999999999
 21
205.98180999999999
  0
LINE
  8
_0-0_0
  6
CONTINUOUS
 62
    4
 10
122.29152999999999
 20
205.98180999999999
 11
122.379418
 21
206.05078800000001
  0
LINE
  8
_0-0_0
  6
CONTINUOUS
 62
    4
 10
122.379418
 20
206.05078800000001
 11
122.454947
 21
206.12333399999999
  0
LINE
  8
_0-0_0
  6
CONTINUOUS
 62
    4
 10
122.454947
 20
206.12333399999999
 11
122.517544
 21
206.19889399999999
  0
LINE
  8
_0-0_0
  6
CONTINUOUS
 62
    4
 10
122.517544
 20
206.19889399999999
 11
122.566731
 21
206.27689499999999
  0
LINE
  8
_0-0_0
  6
CONTINUOUS
 62
    4
 10
122.566731
 20
206.27689499999999
 11
122.602135
 21
206.35674299999999
  0
LINE
  8
_0-0_0
  6
CONTINUOUS
 62
    4
 10
122.602135
 20
206.35674299999999
 11
122.623485
 21
206.43782999999999
  0
LINE
  8
_0-0_0
  6
CONTINUOUS
 62
    4
 10
122.623485
 20
206.43782999999999
 11
122.63061999999999
 21
206.51953800000001
  0
LINE
  8
_0-0_0
  6
CONTINUOUS
 62
    4
 10
122.63061999999999
 20
206.51953800000001
 11
122.623485
 21
206.601247
  0
LINE
  8
_0-0_0
  6
CONTINUOUS
 62
    4
 10
122.623485
 20
206.601247
 11
122.602135
 21
206.68233299999999
  0
LINE
  8
_0-0_0
  6
CONTINUOUS
 62
    4
 10
122.602135
 20
206.68233299999999
 11
122.566731
 21
206.76218099999999
  0
LINE
  8
_0-0_0
  6
CONTINUOUS
 62
    4
 10
122.566731
 20
206.76218099999999
 11
122.517544
 21
206.84018199999999
  0
LINE
  8
_0-0_0
  6
CONTINUOUS
 62
    4
 10
122.517544
 20
206.84018199999999
 11
122.454947
 21
206.91574299999999
  0
LINE
  8
_0-0_0
  6
CONTINUOUS
 62
    4
 10
122.454947
 20
206.91574299999999
 11
122.379418
 21
206.98828800000001
  0
LINE
  8
_0-0_0
  6
CONTINUOUS
 62
    4
 10
122.379418
 20
206.98828800000001
 11
122.29152999999999
 21
207.05726599999999
  0
ENDBLK
  0
BLOCK
  2
-006-BLKF023_6
 70
   64
 10
0
 20
0
 30
0
  0
LINE
  8
_0-0_0
  6
CONTINUOUS
 62
    4
 10
115.881061
 20
208.76953800000001
 11
115.91374399999999
 21
208.77025199999999
  0
LINE
  8
_0-0_0
  6
CONTINUOUS
 62
    4
 10
115.91374399999999
 20
208.77025199999999
 11
115.946179
 21
208.772387
  0
LINE
  8
_0-0_0
  6
CONTINUOUS
 62
    4
 10
115.946179
 20
208.772387
 11
115.97811799999999
 21
208.77592699999999
  0
LINE
  8
_0-0_0
  6
CONTINUOUS
 62
    4
 10
115.97811799999999
 20
208.77592699999999
 11
116.00931799999999
 21
208.78084599999999
  0
LINE
  8
_0-0_0
  6
CONTINUOUS
 62
    4
 10
116.00931799999999
 20
208.78084599999999
 11
116.03954299999999
 21
208.78710599999999
  0
LINE
  8
_0-0_0
  6
CONTINUOUS
 62
    4
 10
116.03954299999999
 20
208.78710599999999
 11
116.068561
 21
208.79465899999999
  0
LINE
  8
_0-0_0
  6
CONTINUOUS
 62
    4
 10
116.068561
 20
208.79465899999999
 11
116.096152
 21
208.803447
  0
LINE
  8
_0-0_0
  6
CONTINUOUS
 62
    4
 10
116.096152
 20
208.803447
 11
116.122106
 21
208.81340499999998
  0
LINE
  8
_0-0_0
  6
CONTINUOUS
 62
    4
 10
116.122106
 20
208.81340499999998
 11
116.14622599999998
 21
208.82445599999999
  0
LINE
  8
_0-0_0
  6
CONTINUOUS
 62
    4
 10
116.14622599999998
 20
208.82445599999999
 11
116.168327
 21
208.83651599999998
  0
LINE
  8
_0-0_0
  6
CONTINUOUS
 62
    4
 10
116.168327
 20
208.83651599999998
 11
116.18824299999998
 21
208.84949299999999
  0
LINE
  8
_0-0_0
  6
CONTINUOUS
 62
    4
 10
116.18824299999998
 20
208.84949299999999
 11
116.20582
 21
208.86328800000001
  0
LINE
  8
_0-0_0
  6
CONTINUOUS
 62
    4
 10
116.20582
 20
208.86328800000001
 11
116.220926
 21
208.87779699999998
  0
LINE
  8
_0-0_0
  6
CONTINUOUS
 62
    4
 10
116.220926
 20
208.87779699999998
 11
116.233446
 21
208.89291
  0
LINE
  8
_0-0_0
  6
CONTINUOUS
 62
    4
 10
116.233446
 20
208.89291
 11
116.243283
 21
208.90851
  0
LINE
  8
_0-0_0
  6
CONTINUOUS
 62
    4
 10
116.243283
 20
208.90851
 11
116.250364
 21
208.92447899999999
  0
LINE
  8
_0-0_0
  6
CONTINUOUS
 62
    4
 10
116.250364
 20
208.92447899999999
 11
116.25463399999999
 21
208.940697
  0
LINE
  8
_0-0_0
  6
CONTINUOUS
 62
    4
 10
116.25463399999999
 20
208.940697
 11
116.256061
 21
208.95703800000001
  0
ENDBLK
  0
BLOCK
  2
-007-BLKF024_7
 70
   64
 10
0
 20
0
 30
0
  0
LINE
  8
_0-0_0
  6
CONTINUOUS
 62
    4
 10
125.409913
 20
196.25727900000001
 11
125.606013
 21
196.26156
  0
LINE
  8
_0-0_0
  6
CONTINUOUS
 62
    4
 10
125.606013
 20
196.26156
 11
125.800621
 21
196.27437
  0
LINE
  8
_0-0_0
  6
CONTINUOUS
 62
    4
 10
125.800621
 20
196.27437
 11
125.99225599999998
 21
196.295612
  0
LINE
  8
_0-0_0
  6
CONTINUOUS
 62
    4
 10
125.99225599999998
 20
196.295612
 11
126.17945799999999
 21
196.32512500000001
  0
LINE
  8
_0-0_0
  6
CONTINUOUS
 62
    4
 10
126.17945799999999
 20
196.32512500000001
 11
126.360804
 21
196.362683
  0
LINE
  8
_0-0_0
  6
CONTINUOUS
 62
    4
 10
126.360804
 20
196.362683
 11
126.534913
 21
196.40799999999998
  0
LINE
  8
_0-0_0
  6
CONTINUOUS
 62
    4
 10
126.534913
 20
196.40799999999998
 11
126.70046
 21
196.460733
  0
LINE
  8
_0-0_0
  6
CONTINUOUS
 62
    4
 10
126.70046
 20
196.460733
 11
126.85618499999999
 21
196.52047899999999
  0
LINE
  8
_0-0_0
  6
CONTINUOUS
 62
    4
 10
126.85618499999999
 20
196.52047899999999
 11
127.00090299999999
 21
196.58678399999999
  0
LINE
  8
_0-0_0
  6
CONTINUOUS
 62
    4
 10
127.00090299999999
 20
196.58678399999999
 11
127.13351299999999
 21
196.659143
  0
LINE
  8
_0-0_0
  6
CONTINUOUS
 62
    4
 10
127.13351299999999
 20
196.659143
 11
127.253005
 21
196.73700500000001
  0
LINE
  8
_0-0_0
  6
CONTINUOUS
 62
    4
 10
127.253005
 20
196.73700500000001
 11
127.35846999999999
 21
196.81977900000001
  0
LINE
  8
_0-0_0
  6
CONTINUOUS
 62
    4
 10
127.35846999999999
 20
196.81977900000001
 11
127.449105
 21
196.906833
  0
LINE
  8
_0-0_0
  6
CONTINUOUS
 62
    4
 10
127.449105
 20
196.906833
 11
127.52422099999998
 21
196.99750599999998
  0
LINE
  8
_0-0_0
  6
CONTINUOUS
 62
    4
 10
127.52422099999998
 20
196.99750599999998
 11
127.583246
 21
197.09110699999999
  0
LINE
  8
_0-0_0
  6
CONTINUOUS
 62
    4
 10
127.583246
 20
197.09110699999999
 11
127.62573
 21
197.186925
  0
LINE
  8
_0-0_0
  6
CONTINUOUS
 62
    4
 10
127.62573
 20
197.186925
 11
127.651351
 21
197.28422900000001
  0
LINE
  8
_0-0_0
  6
CONTINUOUS
 62
    4
 10
127.651351
 20
197.28422900000001
 11
127.659913
 21
197.38227900000001
  0
ENDBLK
  0
BLOCK
  2
-008-BLKF025_8
 70
   64
 10
0
 20
0
 30
0
  0
LINE
  8
_0-0_0
  6
CONTINUOUS
 62
    4
 10
125.409913
 20
196.58203800000001
 11
125.606013
 21
196.586319
  0
LINE
  8
_0-0_0
  6
CONTINUOUS
 62
    4
 10
125.606013
 20
196.586319
 11
125.800621
 21
196.59913
  0
LINE
  8
_0-0_0
  6
CONTINUOUS
 62
    4
 10
125.800621
 20
196.59913
 11
125.99225599999998
 21
196.620372
  0
LINE
  8
_0-0_0
  6
CONTINUOUS
 62
    4
 10
125.99225599999998
 20
196.620372
 11
126.17945799999999
 21
196.64988399999998
  0
LINE
  8
_0-0_0
  6
CONTINUOUS
 62
    4
 10
126.17945799999999
 20
196.64988399999998
 11
126.360804
 21
196.687442
  0
LINE
  8
_0-0_0
  6
CONTINUOUS
 62
    4
 10
126.360804
 20
196.687442
 11
126.534913
 21
196.73276000000001
  0
LINE
  8
_0-0_0
  6
CONTINUOUS
 62
    4
 10
126.534913
 20
196.73276000000001
 11
126.70046
 21
196.785492
  0
LINE
  8
_0-0_0
  6
CONTINUOUS
 62
    4
 10
126.70046
 20
196.785492
 11
126.85618499999999
 21
196.84523799999999
  0
LINE
  8
_0-0_0
  6
CONTINUOUS
 62
    4
 10
126.85618499999999
 20
196.84523799999999
 11
127.00090299999999
 21
196.91154299999999
  0
LINE
  8
_0-0_0
  6
CONTINUOUS
 62
    4
 10
127.00090299999999
 20
196.91154299999999
 11
127.13351299999999
 21
196.983902
  0
LINE
  8
_0-0_0
  6
CONTINUOUS
 62
    4
 10
127.13351299999999
 20
196.983902
 11
127.253005
 21
197.061765
  0
LINE
  8
_0-0_0
  6
CONTINUOUS
 62
    4
 10
127.253005
 20
197.061765
 11
127.35846999999999
 21
197.14453800000001
  0
LINE
  8
_0-0_0
  6
CONTINUOUS
 62
    4
 10
127.35846999999999
 20
197.14453800000001
 11
127.449105
 21
197.231593
  0
LINE
  8
_0-0_0
  6
CONTINUOUS
 62
    4
 10
127.449105
 20
197.231593
 11
127.52422099999998
 21
197.32226600000001
  0
LINE
  8
_0-0_0
  6
CONTINUOUS
 62
    4
 10
127.52422099999998
 20
197.32226600000001
 11
127.583246
 21
197.41586699999999
  0
LINE
  8
_0-0_0
  6
CONTINUOUS
 62
    4
 10
127.583246
 20
197.41586699999999
 11
127.62573
 21
197.511684
  0
LINE
  8
_0-0_0
  6
CONTINUOUS
 62
    4
 10
127.62573
 20
197.511684
 11
127.651351
 21
197.60898800000001
  0
LINE
  8
_0-0_0
  6
CONTINUOUS
 62
    4
 10
127.651351
 20
197.60898800000001
 11
127.659913
 21
197.70703800000001
  0
LINE
  8
_0-0_0
  6
CONTINUOUS
 62
    4
 10
127.659913
 20
197.70703800000001
 11
127.651351
 21
197.805089
  0
ENDBLK
  0
BLOCK
  2
-009-BLKF026_9
 70
   64
 10
0
 20
0
 30
0
  0
LINE
  8
_0-0_0
  6
CONTINUOUS
 62
    4
 10
123.519023
 20
199.76953800000001
 11
123.55170699999999
 21
199.77025199999999
  0
LINE
  8
_0-0_0
  6
CONTINUOUS
 62
    4
 10
123.55170699999999
 20
199.77025199999999
 11
123.584141
 21
199.772387
  0
LINE
  8
_0-0_0
  6
CONTINUOUS
 62
    4
 10
123.584141
 20
199.772387
 11
123.61608099999999
 21
199.77592699999999
  0
LINE
  8
_0-0_0
  6
CONTINUOUS
 62
    4
 10
123.61608099999999
 20
199.77592699999999
 11
123.647281
 21
199.78084599999999
  0
LINE
  8
_0-0_0
  6
CONTINUOUS
 62
    4
 10
123.647281
 20
199.78084599999999
 11
123.67750499999999
 21
199.78710599999999
  0
LINE
  8
_0-0_0
  6
CONTINUOUS
 62
    4
 10
123.67750499999999
 20
199.78710599999999
 11
123.706523
 21
199.79465899999999
  0
LINE
  8
_0-0_0
  6
CONTINUOUS
 62
    4
 10
123.706523
 20
199.79465899999999
 11
123.734115
 21
199.803447
  0
LINE
  8
_0-0_0
  6
CONTINUOUS
 62
    4
 10
123.734115
 20
199.803447
 11
123.760069
 21
199.81340499999998
  0
LINE
  8
_0-0_0
  6
CONTINUOUS
 62
    4
 10
123.760069
 20
199.81340499999998
 11
123.784188
 21
199.82445599999999
  0
LINE
  8
_0-0_0
  6
CONTINUOUS
 62
    4
 10
123.784188
 20
199.82445599999999
 11
123.80629
 21
199.83651599999998
  0
LINE
  8
_0-0_0
  6
CONTINUOUS
 62
    4
 10
123.80629
 20
199.83651599999998
 11
123.826205
 21
199.84949299999999
  0
LINE
  8
_0-0_0
  6
CONTINUOUS
 62
    4
 10
123.826205
 20
199.84949299999999
 11
123.843783
 21
199.86328800000001
  0
LINE
  8
_0-0_0
  6
CONTINUOUS
 62
    4
 10
123.843783
 20
199.86328800000001
 11
123.858889
 21
199.87779699999998
  0
LINE
  8
_0-0_0
  6
CONTINUOUS
 62
    4
 10
123.858889
 20
199.87779699999998
 11
123.871408
 21
199.89291
  0
LINE
  8
_0-0_0
  6
CONTINUOUS
 62
    4
 10
123.871408
 20
199.89291
 11
123.881246
 21
199.90851
  0
LINE
  8
_0-0_0
  6
CONTINUOUS
 62
    4
 10
123.881246
 20
199.90851
 11
123.888326
 21
199.92447899999999
  0
ENDBLK
  0
BLOCK
  2
-010-BLKF027_10
 70
   64
 10
0
 20
0
 30
0
  0
LINE
  8
_0-0_0
  6
CONTINUOUS
 62
    4
 10
127.592415
 20
187.25727900000001
 11
127.85388299999999
 21
187.262987
  0
LINE
  8
_0-0_0
  6
CONTINUOUS
 62
    4
 10
127.85388299999999
 20
187.262987
 11
128.11336
 21
187.280067
  0
LINE
  8
_0-0_0
  6
CONTINUOUS
 62
    4
 10
128.11336
 20
187.280067
 11
128.36887200000001
 21
187.30839
  0
LINE
  8
_0-0_0
  6
CONTINUOUS
 62
    4
 10
128.36887200000001
 20
187.30839
 11
128.61847599999998
 21
187.34773999999998
  0
LINE
  8
_0-0_0
  6
CONTINUOUS
 62
    4
 10
128.61847599999998
 20
187.34773999999998
 11
128.86027000000001
 21
187.397817
  0
LINE
  8
_0-0_0
  6
CONTINUOUS
 62
    4
 10
128.86027000000001
 20
187.397817
 11
129.09241499999998
 21
187.45824099999998
  0
LINE
  8
_0-0_0
  6
CONTINUOUS
 62
    4
 10
129.09241499999998
 20
187.45824099999998
 11
129.31314499999999
 21
187.52855099999999
  0
LINE
  8
_0-0_0
  6
CONTINUOUS
 62
    4
 10
129.31314499999999
 20
187.52855099999999
 11
129.520778
 21
187.608212
  0
LINE
  8
_0-0_0
  6
CONTINUOUS
 62
    4
 10
129.520778
 20
187.608212
 11
129.71373600000001
 21
187.69661899999999
  0
LINE
  8
_0-0_0
  6
CONTINUOUS
 62
    4
 10
129.71373600000001
 20
187.69661899999999
 11
129.89054899999999
 21
187.79309699999998
  0
LINE
  8
_0-0_0
  6
CONTINUOUS
 62
    4
 10
129.89054899999999
 20
187.79309699999998
 11
130.04987099999999
 21
187.896914
  0
LINE
  8
_0-0_0
  6
CONTINUOUS
 62
    4
 10
130.04987099999999
 20
187.896914
 11
130.190491
 21
188.00727900000001
  0
LINE
  8
_0-0_0
  6
CONTINUOUS
 62
    4
 10
130.190491
 20
188.00727900000001
 11
130.311339
 21
188.12335100000001
  0
LINE
  8
_0-0_0
  6
CONTINUOUS
 62
    4
 10
130.311339
 20
188.12335100000001
 11
130.411493
 21
188.24424899999999
  0
LINE
  8
_0-0_0
  6
CONTINUOUS
 62
    4
 10
130.411493
 20
188.24424899999999
 11
130.490193
 21
188.36904999999998
  0
LINE
  8
_0-0_0
  6
CONTINUOUS
 62
    4
 10
130.490193
 20
188.36904999999998
 11
130.51552499999999
 21
188.41985199999999
  0
ENDBLK
  0
BLOCK
  2
-011-BLKF028_11
 70
   64
 10
0
 20
0
 30
0
  0
LINE
  8
_0-0_0
  6
CONTINUOUS
 62
    4
 10
127.592415
 20
187.58203800000001
 11
127.85388299999999
 21
187.587746
  0
LINE
  8
_0-0_0
  6
CONTINUOUS
 62
    4
 10
127.85388299999999
 20
187.587746
 11
128.11336
 21
187.604827
  0
LINE
  8
_0-0_0
  6
CONTINUOUS
 62
    4
 10
128.11336
 20
187.604827
 11
128.36887200000001
 21
187.63315
  0
LINE
  8
_0-0_0
  6
CONTINUOUS
 62
    4
 10
128.36887200000001
 20
187.63315
 11
128.61847599999998
 21
187.6724989999999
  0
LINE
  8
_0-0_0
  6
CONTINUOUS
 62
    4
 10
128.61847599999998
 20
187.6724989999999
 11
128.86027000000001
 21
187.722577
  0
LINE
  8
_0-0_0
  6
CONTINUOUS
 62
    4
 10
128.86027000000001
 20
187.722577
 11
129.09241499999998
 21
187.78299999999998
  0
LINE
  8
_0-0_0
  6
CONTINUOUS
 62
    4
 10
129.09241499999998
 20
187.78299999999998
 11
129.31314499999999
 21
187.85330999999999
  0
LINE
  8
_0-0_0
  6
CONTINUOUS
 62
    4
 10
129.31314499999999
 20
187.85330999999999
 11
129.520778
 21
187.932972
  0
LINE
  8
_0-0_0
  6
CONTINUOUS
 62
    4
 10
129.520778
 20
187.932972
 11
129.71373600000001
 21
188.02137799999999
  0
LINE
  8
_0-0_0
  6
CONTINUOUS
 62
    4
 10
129.71373600000001
 20
188.02137799999999
 11
129.89054899999999
 21
188.11785699999998
  0
LINE
  8
_0-0_0
  6
CONTINUOUS
 62
    4
 10
129.89054899999999
 20
188.11785699999998
 11
130.04987099999999
 21
188.221674
  0
LINE
  8
_0-0_0
  6
CONTINUOUS
 62
    4
 10
130.04987099999999
 20
188.221674
 11
130.190491
 21
188.33203800000001
  0
LINE
  8
_0-0_0
  6
CONTINUOUS
 62
    4
 10
130.190491
 20
188.33203800000001
 11
130.311339
 21
188.44811100000001
  0
LINE
  8
_0-0_0
  6
CONTINUOUS
 62
    4
 10
130.311339
 20
188.44811100000001
 11
130.411493
 21
188.56900799999999
  0
LINE
  8
_0-0_0
  6
CONTINUOUS
 62
    4
 10
130.411493
 20
188.56900799999999
 11
130.490193
 21
188.69381000000001
  0
LINE
  8
_0-0_0
  6
CONTINUOUS
 62
    4
 10
130.490193
 20
188.69381000000001
 11
130.51552499999999
 21
188.74461199999998
  0
ENDBLK
  0
BLOCK
  2
-012-BLKF029_12
 70
   64
 10
0
 20
0
 30
0
  0
LINE
  8
_0-0_0
  6
CONTINUOUS
 62
    4
 10
127.655415
 20
190.76953800000001
 11
127.70117199999998
 21
190.77053699999999
  0
LINE
  8
_0-0_0
  6
CONTINUOUS
 62
    4
 10
127.70117199999998
 20
190.77053699999999
 11
127.746581
 21
190.773526
  0
LINE
  8
_0-0_0
  6
CONTINUOUS
 62
    4
 10
127.746581
 20
190.773526
 11
127.791295
 21
190.77848299999999
  0
LINE
  8
_0-0_0
  6
CONTINUOUS
 62
    4
 10
127.791295
 20
190.77848299999999
 11
127.83497599999998
 21
190.785369
  0
LINE
  8
_0-0_0
  6
CONTINUOUS
 62
    4
 10
127.83497599999998
 20
190.785369
 11
127.87729
 21
190.79413299999998
  0
LINE
  8
_0-0_0
  6
CONTINUOUS
 62
    4
 10
127.87729
 20
190.79413299999998
 11
127.91791499999999
 21
190.804707
  0
LINE
  8
_0-0_0
  6
CONTINUOUS
 62
    4
 10
127.91791499999999
 20
190.804707
 11
127.95654299999999
 21
190.817011
  0
LINE
  8
_0-0_0
  6
CONTINUOUS
 62
    4
 10
127.95654299999999
 20
190.817011
 11
127.992879
 21
190.83095199999999
  0
LINE
  8
_0-0_0
  6
CONTINUOUS
 62
    4
 10
127.992879
 20
190.83095199999999
 11
128.02664599999999
 21
190.84642299999998
  0
LINE
  8
_0-0_0
  6
CONTINUOUS
 62
    4
 10
128.02664599999999
 20
190.84642299999998
 11
128.057589
 21
190.86330699999999
  0
LINE
  8
_0-0_0
  6
CONTINUOUS
 62
    4
 10
128.057589
 20
190.86330699999999
 11
128.08546999999998
 21
190.88147399999999
  0
LINE
  8
_0-0_0
  6
CONTINUOUS
 62
    4
 10
128.08546999999998
 20
190.88147399999999
 11
128.11007900000001
 21
190.900788
  0
LINE
  8
_0-0_0
  6
CONTINUOUS
 62
    4
 10
128.11007900000001
 20
190.900788
 11
128.13122699999999
 21
190.92110099999999
  0
LINE
  8
_0-0_0
  6
CONTINUOUS
 62
    4
 10
128.13122699999999
 20
190.92110099999999
 11
128.13867999999999
 21
190.929471
  0
ENDBLK
  0
BLOCK
  2
-013-BLKF030_13
 70
   64
 10
0
 20
0
 30
0
  0
LINE
  8
_0-0_0
  6
CONTINUOUS
 62
    4
 10
127.828252
 20
178.25727900000001
 11
128.15508600000001
 21
178.26441399999998
  0
LINE
  8
_0-0_0
  6
CONTINUOUS
 62
    4
 10
128.15508600000001
 20
178.26441399999998
 11
128.479433
 21
178.285764
  0
LINE
  8
_0-0_0
  6
CONTINUOUS
 62
    4
 10
128.479433
 20
178.285764
 11
128.79882399999999
 21
178.321168
  0
LINE
  8
_0-0_0
  6
CONTINUOUS
 62
    4
 10
128.79882399999999
 20
178.321168
 11
129.11082799999999
 21
178.37035499999998
  0
LINE
  8
_0-0_0
  6
CONTINUOUS
 62
    4
 10
129.11082799999999
 20
178.37035499999998
 11
129.413071
 21
178.432952
  0
LINE
  8
_0-0_0
  6
CONTINUOUS
 62
    4
 10
129.413071
 20
178.432952
 11
129.70325199999999
 21
178.50848099999998
  0
LINE
  8
_0-0_0
  6
CONTINUOUS
 62
    4
 10
129.70325199999999
 20
178.50848099999998
 11
129.97916399999999
 21
178.596369
  0
LINE
  8
_0-0_0
  6
CONTINUOUS
 62
    4
 10
129.97916399999999
 20
178.596369
 11
130.238706
 21
178.69594499999999
  0
LINE
  8
_0-0_0
  6
CONTINUOUS
 62
    4
 10
130.238706
 20
178.69594499999999
 11
130.479903
 21
178.806454
  0
LINE
  8
_0-0_0
  6
CONTINUOUS
 62
    4
 10
130.479903
 20
178.806454
 11
130.70091899999999
 21
178.927052
  0
LINE
  8
_0-0_0
  6
CONTINUOUS
 62
    4
 10
130.70091899999999
 20
178.927052
 11
130.90007199999999
 21
179.056823
  0
LINE
  8
_0-0_0
  6
CONTINUOUS
 62
    4
 10
130.90007199999999
 20
179.056823
 11
131.07584700000001
 21
179.19477900000001
  0
LINE
  8
_0-0_0
  6
CONTINUOUS
 62
    4
 10
131.07584700000001
 20
179.19477900000001
 11
131.22690600000001
 21
179.33986999999999
  0
LINE
  8
_0-0_0
  6
CONTINUOUS
 62
    4
 10
131.22690600000001
 20
179.33986999999999
 11
131.280145
 21
179.39965799999998
  0
ENDBLK
  0
BLOCK
  2
-014-BLKF031_14
 70
   64
 10
0
 20
0
 30
0
  0
LINE
  8
_0-0_0
  6
CONTINUOUS
 62
    4
 10
127.828252
 20
178.58203800000001
 11
128.15508600000001
 21
178.58917299999998
  0
LINE
  8
_0-0_0
  6
CONTINUOUS
 62
    4
 10
128.15508600000001
 20
178.58917299999998
 11
128.479433
 21
178.61052399999999
  0
LINE
  8
_0-0_0
  6
CONTINUOUS
 62
    4
 10
128.479433
 20
178.61052399999999
 11
128.79882399999999
 21
178.645927
  0
LINE
  8
_0-0_0
  6
CONTINUOUS
 62
    4
 10
128.79882399999999
 20
178.645927
 11
129.11082799999999
 21
178.69511499999998
  0
LINE
  8
_0-0_0
  6
CONTINUOUS
 62
    4
 10
129.11082799999999
 20
178.69511499999998
 11
129.413071
 21
178.757711
  0
LINE
  8
_0-0_0
  6
CONTINUOUS
 62
    4
 10
129.413071
 20
178.757711
 11
129.70325199999999
 21
178.83324099999998
  0
LINE
  8
_0-0_0
  6
CONTINUOUS
 62
    4
 10
129.70325199999999
 20
178.83324099999998
 11
129.97916399999999
 21
178.92112800000001
  0
LINE
  8
_0-0_0
  6
CONTINUOUS
 62
    4
 10
129.97916399999999
 20
178.92112800000001
 11
130.238706
 21
179.02070499999999
  0
LINE
  8
_0-0_0
  6
CONTINUOUS
 62
    4
 10
130.238706
 20
179.02070499999999
 11
130.479903
 21
179.131213
  0
LINE
  8
_0-0_0
  6
CONTINUOUS
 62
    4
 10
130.479903
 20
179.131213
 11
130.70091899999999
 21
179.251812
  0
LINE
  8
_0-0_0
  6
CONTINUOUS
 62
    4
 10
130.70091899999999
 20
179.251812
 11
130.90007199999999
 21
179.381582
  0
LINE
  8
_0-0_0
  6
CONTINUOUS
 62
    4
 10
130.90007199999999
 20
179.381582
 11
131.07584700000001
 21
179.51953800000001
  0
LINE
  8
_0-0_0
  6
CONTINUOUS
 62
    4
 10
131.07584700000001
 20
179.51953800000001
 11
131.22690600000001
 21
179.66462899999999
  0
LINE
  8
_0-0_0
  6
CONTINUOUS
 62
    4
 10
131.22690600000001
 20
179.66462899999999
 11
131.280145
 21
179.72441699999998
  0
ENDBLK
  0
BLOCK
  2
-015-BLKF032_15
 70
   64
 10
0
 20
0
 30
0
  0
LINE
  8
_0-0_0
  6
CONTINUOUS
 62
    4
 10
129.13613499999999
 20
181.76953800000001
 11
129.201502
 21
181.77096499999998
  0
LINE
  8
_0-0_0
  6
CONTINUOUS
 62
    4
 10
129.201502
 20
181.77096499999998
 11
129.26637099999999
 21
181.775235
  0
LINE
  8
_0-0_0
  6
CONTINUOUS
 62
    4
 10
129.26637099999999
 20
181.775235
 11
129.330249
 21
181.782316
  0
LINE
  8
_0-0_0
  6
CONTINUOUS
 62
    4
 10
129.330249
 20
181.782316
 11
129.39265
 21
181.79215400000001
  0
LINE
  8
_0-0_0
  6
CONTINUOUS
 62
    4
 10
129.39265
 20
181.79215400000001
 11
129.453099
 21
181.804673
  0
LINE
  8
_0-0_0
  6
CONTINUOUS
 62
    4
 10
129.453099
 20
181.804673
 11
129.51113499999999
 21
181.81977900000001
  0
LINE
  8
_0-0_0
  6
CONTINUOUS
 62
    4
 10
129.51113499999999
 20
181.81977900000001
 11
129.56631699999999
 21
181.83735599999999
  0
LINE
  8
_0-0_0
  6
CONTINUOUS
 62
    4
 10
129.56631699999999
 20
181.83735599999999
 11
129.61822599999999
 21
181.85727199999999
  0
LINE
  8
_0-0_0
  6
CONTINUOUS
 62
    4
 10
129.61822599999999
 20
181.85727199999999
 11
129.66646499999998
 21
181.87937299999998
  0
LINE
  8
_0-0_0
  6
CONTINUOUS
 62
    4
 10
129.66646499999998
 20
181.87937299999998
 11
129.71066799999999
 21
181.90349299999999
  0
ENDBLK
  0
BLOCK
  2
-016-BLKF033_16
 70
   64
 10
0
 20
0
 30
0
  0
LINE
  8
_0-0_0
  6
CONTINUOUS
 62
    4
 10
125.71591899999998
 20
169.25727900000001
 11
126.17348699999999
 21
169.267268
  0
LINE
  8
_0-0_0
  6
CONTINUOUS
 62
    4
 10
126.17348699999999
 20
169.267268
 11
126.627572
 21
169.29715799999999
  0
LINE
  8
_0-0_0
  6
CONTINUOUS
 62
    4
 10
126.627572
 20
169.29715799999999
 11
127.074719
 21
169.34672299999999
  0
LINE
  8
_0-0_0
  6
CONTINUOUS
 62
    4
 10
127.074719
 20
169.34672299999999
 11
127.511525
 21
169.41558599999999
  0
LINE
  8
_0-0_0
  6
CONTINUOUS
 62
    4
 10
127.511525
 20
169.41558599999999
 11
127.93466499999999
 21
169.50322099999999
  0
LINE
  8
_0-0_0
  6
CONTINUOUS
 62
    4
 10
127.93466499999999
 20
169.50322099999999
 11
128.34091900000001
 21
169.60896199999999
  0
LINE
  8
_0-0_0
  6
CONTINUOUS
 62
    4
 10
128.34091900000001
 20
169.60896199999999
 11
128.72719499999999
 21
169.73200499999998
  0
LINE
  8
_0-0_0
  6
CONTINUOUS
 62
    4
 10
128.72719499999999
 20
169.73200499999998
 11
129.09055399999999
 21
169.87141199999999
  0
LINE
  8
_0-0_0
  6
CONTINUOUS
 62
    4
 10
129.09055399999999
 20
169.87141199999999
 11
129.42823000000001
 21
170.02612300000001
  0
LINE
  8
_0-0_0
  6
CONTINUOUS
 62
    4
 10
129.42823000000001
 20
170.02612300000001
 11
129.73765199999999
 21
170.194961
  0
LINE
  8
_0-0_0
  6
CONTINUOUS
 62
    4
 10
129.73765199999999
 20
170.194961
 11
130.016467
 21
170.376641
  0
LINE
  8
_0-0_0
  6
CONTINUOUS
 62
    4
 10
130.016467
 20
170.376641
 11
130.16817199999999
 21
170.491241
  0
ENDBLK
  0
BLOCK
  2
-017-BLKF034_17
 70
   64
 10
0
 20
0
 30
0
  0
LINE
  8
_0-0_0
  6
CONTINUOUS
 62
    4
 10
125.71591899999998
 20
169.58203800000001
 11
126.17348699999999
 21
169.592027
  0
LINE
  8
_0-0_0
  6
CONTINUOUS
 62
    4
 10
126.17348699999999
 20
169.592027
 11
126.627572
 21
169.62191799999999
  0
LINE
  8
_0-0_0
  6
CONTINUOUS
 62
    4
 10
126.627572
 20
169.62191799999999
 11
127.074719
 21
169.67148299999999
  0
LINE
  8
_0-0_0
  6
CONTINUOUS
 62
    4
 10
127.074719
 20
169.67148299999999
 11
127.511525
 21
169.74034499999999
  0
LINE
  8
_0-0_0
  6
CONTINUOUS
 62
    4
 10
127.511525
 20
169.74034499999999
 11
127.93466499999999
 21
169.82797999999999
  0
LINE
  8
_0-0_0
  6
CONTINUOUS
 62
    4
 10
127.93466499999999
 20
169.82797999999999
 11
128.34091900000001
 21
169.93372199999998
  0
LINE
  8
_0-0_0
  6
CONTINUOUS
 62
    4
 10
128.34091900000001
 20
169.93372199999998
 11
128.72719499999999
 21
170.05676399999998
  0
LINE
  8
_0-0_0
  6
CONTINUOUS
 62
    4
 10
128.72719499999999
 20
170.05676399999998
 11
129.09055399999999
 21
170.19617199999999
  0
LINE
  8
_0-0_0
  6
CONTINUOUS
 62
    4
 10
129.09055399999999
 20
170.19617199999999
 11
129.42823000000001
 21
170.35088300000001
  0
LINE
  8
_0-0_0
  6
CONTINUOUS
 62
    4
 10
129.42823000000001
 20
170.35088300000001
 11
129.73765199999999
 21
170.519721
  0
LINE
  8
_0-0_0
  6
CONTINUOUS
 62
    4
 10
129.73765199999999
 20
170.519721
 11
130.016467
 21
170.7014
  0
LINE
  8
_0-0_0
  6
CONTINUOUS
 62
    4
 10
130.016467
 20
170.7014
 11
130.16817199999999
 21
170.816
  0
ENDBLK
  0
BLOCK
  2
-018-BLKF035_18
 70
   64
 10
0
 20
0
 30
0
  0
LINE
  8
_0-0_0
  6
CONTINUOUS
 62
    4
 10
128.69442900000001
 20
172.76953800000001
 11
128.77286899999998
 21
172.771251
  0
LINE
  8
_0-0_0
  6
CONTINUOUS
 62
    4
 10
128.77286899999998
 20
172.771251
 11
128.85071199999998
 21
172.776375
  0
LINE
  8
_0-0_0
  6
CONTINUOUS
 62
    4
 10
128.85071199999998
 20
172.776375
 11
128.927366
 21
172.784872
  0
LINE
  8
_0-0_0
  6
CONTINUOUS
 62
    4
 10
128.927366
 20
172.784872
 11
129.00224700000001
 21
172.79667699999998
  0
LINE
  8
_0-0_0
  6
CONTINUOUS
 62
    4
 10
129.00224700000001
 20
172.79667699999998
 11
129.07478499999999
 21
172.8117
  0
LINE
  8
_0-0_0
  6
CONTINUOUS
 62
    4
 10
129.07478499999999
 20
172.8117
 11
129.144429
 21
172.82982699999999
  0
LINE
  8
_0-0_0
  6
CONTINUOUS
 62
    4
 10
129.144429
 20
172.82982699999999
 11
129.21064799999999
 21
172.85092
  0
LINE
  8
_0-0_0
  6
CONTINUOUS
 62
    4
 10
129.21064799999999
 20
172.85092
 11
129.27293800000001
 21
172.874818
  0
ENDBLK
  0
BLOCK
  2
-019-BLKF036_19
 70
   64
 10
0
 20
0
 30
0
  0
LINE
  8
_0-0_0
  6
CONTINUOUS
 62
    4
 10
120.62591199999998
 20
160.25727900000001
 11
121.27957999999999
 21
160.27154899999999
  0
LINE
  8
_0-0_0
  6
CONTINUOUS
 62
    4
 10
121.27957999999999
 20
160.27154899999999
 11
121.928274
 21
160.31424999999998
  0
LINE
  8
_0-0_0
  6
CONTINUOUS
 62
    4
 10
121.928274
 20
160.31424999999998
 11
122.56705499999999
 21
160.38505699999998
  0
LINE
  8
_0-0_0
  6
CONTINUOUS
 62
    4
 10
122.56705499999999
 20
160.38505699999998
 11
123.19106299999998
 21
160.48343099999999
  0
LINE
  8
_0-0_0
  6
CONTINUOUS
 62
    4
 10
123.19106299999998
 20
160.48343099999999
 11
123.79554899999999
 21
160.60862499999998
  0
LINE
  8
_0-0_0
  6
CONTINUOUS
 62
    4
 10
123.79554899999999
 20
160.60862499999998
 11
124.37591199999998
 21
160.75968399999999
  0
LINE
  8
_0-0_0
  6
CONTINUOUS
 62
    4
 10
124.37591199999998
 20
160.75968399999999
 11
124.92773599999999
 21
160.935459
  0
LINE
  8
_0-0_0
  6
CONTINUOUS
 62
    4
 10
124.92773599999999
 20
160.935459
 11
125.446819
 21
161.134612
  0
LINE
  8
_0-0_0
  6
CONTINUOUS
 62
    4
 10
125.446819
 20
161.134612
 11
125.929213
 21
161.35562799999999
  0
LINE
  8
_0-0_0
  6
CONTINUOUS
 62
    4
 10
125.929213
 20
161.35562799999999
 11
126.02096099999998
 21
161.40230999999999
  0
ENDBLK
  0
BLOCK
  2
-020-BLKF037_20
 70
   64
 10
0
 20
0
 30
0
  0
LINE
  8
_0-0_0
  6
CONTINUOUS
 62
    4
 10
120.62591199999998
 20
160.58203800000001
 11
121.27957999999999
 21
160.59630799999999
  0
LINE
  8
_0-0_0
  6
CONTINUOUS
 62
    4
 10
121.27957999999999
 20
160.59630799999999
 11
121.928274
 21
160.63900899999998
  0
LINE
  8
_0-0_0
  6
CONTINUOUS
 62
    4
 10
121.928274
 20
160.63900899999998
 11
122.56705499999999
 21
160.70981599999998
  0
LINE
  8
_0-0_0
  6
CONTINUOUS
 62
    4
 10
122.56705499999999
 20
160.70981599999998
 11
123.19106299999998
 21
160.80819099999999
  0
LINE
  8
_0-0_0
  6
CONTINUOUS
 62
    4
 10
123.19106299999998
 20
160.80819099999999
 11
123.79554899999999
 21
160.93338399999998
  0
LINE
  8
_0-0_0
  6
CONTINUOUS
 62
    4
 10
123.79554899999999
 20
160.93338399999998
 11
124.37591199999998
 21
161.08444299999999
  0
LINE
  8
_0-0_0
  6
CONTINUOUS
 62
    4
 10
124.37591199999998
 20
161.08444299999999
 11
124.92773599999999
 21
161.260218
  0
LINE
  8
_0-0_0
  6
CONTINUOUS
 62
    4
 10
124.92773599999999
 20
161.260218
 11
125.446819
 21
161.459372
  0
LINE
  8
_0-0_0
  6
CONTINUOUS
 62
    4
 10
125.446819
 20
161.459372
 11
125.929213
 21
161.68038799999999
  0
LINE
  8
_0-0_0
  6
CONTINUOUS
 62
    4
 10
125.929213
 20
161.68038799999999
 11
126.02096099999998
 21
161.727069
  0
ENDBLK
  0
BLOCK
  2
-021-BLKF038_21
 70
   64
 10
0
 20
0
 30
0
  0
LINE
  8
_0-0_0
  6
CONTINUOUS
 62
    4
 10
126.062606
 20
163.76953800000001
 11
126.160656
 21
163.771679
  0
LINE
  8
_0-0_0
  6
CONTINUOUS
 62
    4
 10
126.160656
 20
163.771679
 11
126.25795999999999
 21
163.778084
  0
LINE
  8
_0-0_0
  6
CONTINUOUS
 62
    4
 10
126.25795999999999
 20
163.778084
 11
126.35377699999999
 21
163.78870499999999
  0
LINE
  8
_0-0_0
  6
CONTINUOUS
 62
    4
 10
126.35377699999999
 20
163.78870499999999
 11
126.44737899999998
 21
163.80346099999999
  0
LINE
  8
_0-0_0
  6
CONTINUOUS
 62
    4
 10
126.44737899999998
 20
163.80346099999999
 11
126.53805199999999
 21
163.82223999999999
  0
LINE
  8
_0-0_0
  6
CONTINUOUS
 62
    4
 10
126.53805199999999
 20
163.82223999999999
 11
126.625106
 21
163.84489899999999
  0
LINE
  8
_0-0_0
  6
CONTINUOUS
 62
    4
 10
126.625106
 20
163.84489899999999
 11
126.707879
 21
163.87126499999999
  0
ENDBLK
  0
BLOCK
  2
-022-BLKF039_22
 70
   64
 10
0
 20
0
 30
0
  0
LINE
  8
_0-0_0
  6
CONTINUOUS
 62
    4
 10
109.40005899999998
 20
151.25727900000001
 11
111.03422899999999
 21
151.29295300000001
  0
LINE
  8
_0-0_0
  6
CONTINUOUS
 62
    4
 10
111.03422899999999
 20
151.29295300000001
 11
112.65596299999998
 21
151.399706
  0
LINE
  8
_0-0_0
  6
CONTINUOUS
 62
    4
 10
112.65596299999998
 20
151.399706
 11
114.25291599999998
 21
151.57672400000001
  0
LINE
  8
_0-0_0
  6
CONTINUOUS
 62
    4
 10
114.25291599999998
 20
151.57672400000001
 11
115.812937
 21
151.82266000000001
  0
LINE
  8
_0-0_0
  6
CONTINUOUS
 62
    4
 10
115.812937
 20
151.82266000000001
 11
117.32415199999998
 21
152.13564299999998
  0
LINE
  8
_0-0_0
  6
CONTINUOUS
 62
    4
 10
117.32415199999998
 20
152.13564299999998
 11
118.77505899999998
 21
152.513291
  0
LINE
  8
_0-0_0
  6
CONTINUOUS
 62
    4
 10
118.77505899999998
 20
152.513291
 11
119.88492599999999
 21
152.86005199999999
  0
ENDBLK
  0
BLOCK
  2
-023-BLKF040_23
 70
   64
 10
0
 20
0
 30
0
  0
LINE
  8
_0-0_0
  6
CONTINUOUS
 62
    4
 10
109.40005899999998
 20
151.58203800000001
 11
111.03422899999999
 21
151.617713
  0
LINE
  8
_0-0_0
  6
CONTINUOUS
 62
    4
 10
111.03422899999999
 20
151.617713
 11
112.65596299999998
 21
151.724466
  0
LINE
  8
_0-0_0
  6
CONTINUOUS
 62
    4
 10
112.65596299999998
 20
151.724466
 11
114.25291599999998
 21
151.90148400000001
  0
LINE
  8
_0-0_0
  6
CONTINUOUS
 62
    4
 10
114.25291599999998
 20
151.90148400000001
 11
115.812937
 21
152.14742000000001
  0
LINE
  8
_0-0_0
  6
CONTINUOUS
 62
    4
 10
115.812937
 20
152.14742000000001
 11
117.32415199999998
 21
152.46040300000001
  0
LINE
  8
_0-0_0
  6
CONTINUOUS
 62
    4
 10
117.32415199999998
 20
152.46040300000001
 11
118.77505899999998
 21
152.83805
  0
LINE
  8
_0-0_0
  6
CONTINUOUS
 62
    4
 10
118.77505899999998
 20
152.83805
 11
119.88492599999999
 21
153.18481099999999
  0
ENDBLK
  0
BLOCK
  2
-024-BLKF041_24
 70
   64
 10
0
 20
0
 30
0
  0
LINE
  8
_0-0_0
  6
CONTINUOUS
 62
    4
 10
120.77756399999998
 20
154.76953800000001
 11
120.89522499999999
 21
154.772107
  0
LINE
  8
_0-0_0
  6
CONTINUOUS
 62
    4
 10
120.89522499999999
 20
154.772107
 11
121.01198899999998
 21
154.77979300000001
  0
LINE
  8
_0-0_0
  6
CONTINUOUS
 62
    4
 10
121.01198899999998
 20
154.77979300000001
 11
121.12697
 21
154.792538
  0
LINE
  8
_0-0_0
  6
CONTINUOUS
 62
    4
 10
121.12697
 20
154.792538
 11
121.239292
 21
154.810246
  0
LINE
  8
_0-0_0
  6
CONTINUOUS
 62
    4
 10
121.239292
 20
154.810246
 11
121.348099
 21
154.83278100000001
  0
LINE
  8
_0-0_0
  6
CONTINUOUS
 62
    4
 10
121.348099
 20
154.83278100000001
 11
121.45256399999999
 21
154.859971
  0
LINE
  8
_0-0_0
  6
CONTINUOUS
 62
    4
 10
121.45256399999999
 20
154.859971
 11
121.49295499999999
 21
154.872106
  0
ENDBLK
  0
BLOCK
  2
-025-BLKF042_25
 70
   64
 10
0
 20
0
 30
0
  0
LINE
  8
_0-0_0
  6
CONTINUOUS
 62
    4
 10
93.728244000000003
 20
142.58203800000001
 11
97.192683999999999
 21
142.65766899999999
  0
LINE
  8
_0-0_0
  6
CONTINUOUS
 62
    4
 10
97.192683999999999
 20
142.65766899999999
 11
100.63075899999998
 21
142.88398399999999
  0
LINE
  8
_0-0_0
  6
CONTINUOUS
 62
    4
 10
100.63075899999998
 20
142.88398399999999
 11
104.01630099999998
 21
143.259263
  0
LINE
  8
_0-0_0
  6
CONTINUOUS
 62
    4
 10
104.01630099999998
 20
143.259263
 11
107.32354399999998
 21
143.78064699999998
  0
LINE
  8
_0-0_0
  6
CONTINUOUS
 62
    4
 10
107.32354399999998
 20
143.78064699999998
 11
110.52732
 21
144.44417100000001
  0
LINE
  8
_0-0_0
  6
CONTINUOUS
 62
    4
 10
110.52732
 20
144.44417100000001
 11
113.603244
 21
145.24478300000001
  0
LINE
  8
_0-0_0
  6
CONTINUOUS
 62
    4
 10
113.603244
 20
145.24478300000001
 11
115.888176
 21
145.957039
  0
ENDBLK
  0
BLOCK
  2
-026-BLKF043_26
 70
   64
 10
0
 20
0
 30
0
  0
LINE
  8
_0-0_0
  6
CONTINUOUS
 62
    4
 10
93.728244000000003
 20
142.25727900000001
 11
97.192683999999999
 21
142.332909
  0
LINE
  8
_0-0_0
  6
CONTINUOUS
 62
    4
 10
97.192683999999999
 20
142.332909
 11
100.63075899999998
 21
142.55922499999999
  0
LINE
  8
_0-0_0
  6
CONTINUOUS
 62
    4
 10
100.63075899999998
 20
142.55922499999999
 11
104.01630099999998
 21
142.934503
  0
LINE
  8
_0-0_0
  6
CONTINUOUS
 62
    4
 10
104.01630099999998
 20
142.934503
 11
107.32354399999998
 21
143.45588799999998
  0
LINE
  8
_0-0_0
  6
CONTINUOUS
 62
    4
 10
107.32354399999998
 20
143.45588799999998
 11
110.52732
 21
144.11941200000001
  0
LINE
  8
_0-0_0
  6
CONTINUOUS
 62
    4
 10
110.52732
 20
144.11941200000001
 11
113.603244
 21
144.92002400000001
  0
LINE
  8
_0-0_0
  6
CONTINUOUS
 62
    4
 10
113.603244
 20
144.92002400000001
 11
115.888176
 21
145.63228
  0
ENDBLK
  0
BLOCK
  2
-027-BLKF044_27
 70
   64
 10
0
 20
0
 30
0
  0
LINE
  8
_0-0_0
  6
CONTINUOUS
 62
    4
 10
111.398007
 20
145.76953800000001
 11
111.52874099999999
 21
145.77239199999999
  0
LINE
  8
_0-0_0
  6
CONTINUOUS
 62
    4
 10
111.52874099999999
 20
145.77239199999999
 11
111.65847999999998
 21
145.780932
  0
LINE
  8
_0-0_0
  6
CONTINUOUS
 62
    4
 10
111.65847999999998
 20
145.780932
 11
111.786236
 21
145.795094
  0
LINE
  8
_0-0_0
  6
CONTINUOUS
 62
    4
 10
111.786236
 20
145.795094
 11
111.911038
 21
145.81476900000001
  0
LINE
  8
_0-0_0
  6
CONTINUOUS
 62
    4
 10
111.911038
 20
145.81476900000001
 11
112.031935
 21
145.839807
  0
LINE
  8
_0-0_0
  6
CONTINUOUS
 62
    4
 10
112.031935
 20
145.839807
 11
112.055564
 21
145.84544299999998
  0
ENDBLK
  0
BLOCK
  2
-028-BLKF018_35
 70
   64
 10
0
 20
0
 30
0
  0
LINE
  8
_0-2_0-10
  6
CONTINUOUS
 62
    4
 10
111.728244
 20
214.25727900000001
 11
111.85897699999999
 21
214.26013299999999
  0
LINE
  8
_0-2_0-10
  6
CONTINUOUS
 62
    4
 10
111.85897699999999
 20
214.26013299999999
 11
111.98871599999999
 21
214.268673
  0
LINE
  8
_0-2_0-10
  6
CONTINUOUS
 62
    4
 10
111.98871599999999
 20
214.268673
 11
112.116472
 21
214.282834
  0
LINE
  8
_0-2_0-10
  6
CONTINUOUS
 62
    4
 10
112.116472
 20
214.282834
 11
112.241274
 21
214.30250899999998
  0
LINE
  8
_0-2_0-10
  6
CONTINUOUS
 62
    4
 10
112.241274
 20
214.30250899999998
 11
112.362171
 21
214.327548
  0
LINE
  8
_0-2_0-10
  6
CONTINUOUS
 62
    4
 10
112.362171
 20
214.327548
 11
112.478244
 21
214.35776000000001
  0
LINE
  8
_0-2_0-10
  6
CONTINUOUS
 62
    4
 10
112.478244
 20
214.35776000000001
 11
112.58860799999999
 21
214.39291499999998
  0
LINE
  8
_0-2_0-10
  6
CONTINUOUS
 62
    4
 10
112.58860799999999
 20
214.39291499999998
 11
112.692425
 21
214.43274500000001
  0
LINE
  8
_0-2_0-10
  6
CONTINUOUS
 62
    4
 10
112.692425
 20
214.43274500000001
 11
112.788904
 21
214.47694899999999
  0
LINE
  8
_0-2_0-10
  6
CONTINUOUS
 62
    4
 10
112.788904
 20
214.47694899999999
 11
112.87730999999999
 21
214.52518800000001
  0
LINE
  8
_0-2_0-10
  6
CONTINUOUS
 62
    4
 10
112.87730999999999
 20
214.52518800000001
 11
112.95697199999999
 21
214.57709600000001
  0
LINE
  8
_0-2_0-10
  6
CONTINUOUS
 62
    4
 10
112.95697199999999
 20
214.57709600000001
 11
113.02728199999998
 21
214.63227900000001
  0
LINE
  8
_0-2_0-10
  6
CONTINUOUS
 62
    4
 10
113.02728199999998
 20
214.63227900000001
 11
113.08770499999998
 21
214.69031499999999
  0
LINE
  8
_0-2_0-10
  6
CONTINUOUS
 62
    4
 10
113.08770499999998
 20
214.69031499999999
 11
113.13778299999998
 21
214.750764
  0
LINE
  8
_0-2_0-10
  6
CONTINUOUS
 62
    4
 10
113.13778299999998
 20
214.750764
 11
113.177132
 21
214.813164
  0
LINE
  8
_0-2_0-10
  6
CONTINUOUS
 62
    4
 10
113.177132
 20
214.813164
 11
113.205455
 21
214.87704299999998
  0
LINE
  8
_0-2_0-10
  6
CONTINUOUS
 62
    4
 10
113.205455
 20
214.87704299999998
 11
113.222536
 21
214.941912
  0
LINE
  8
_0-2_0-10
  6
CONTINUOUS
 62
    4
 10
113.222536
 20
214.941912
 11
113.228244
 21
215.00727900000001
  0
ENDBLK
  0
BLOCK
  2
-029-EDTIP_ARROW_S
 70
   64
 10
0
 20
0
 30
0
  0
LINE
  8
_0-0_0
  6
CONTINUOUS
 62
    7
 10
0
 20
0
 11
-1
 21
0
  0
LINE
  8
_0-0_0
  6
CONTINUOUS
 62
    7
 10
0
 20
0
 11
-0.9659259999999999
 21
0.258819
  0
LINE
  8
_0-0_0
  6
CONTINUOUS
 62
    7
 10
0
 20
0
 11
-0.9659259999999999
 21
-0.258819
  0
ENDBLK
  0
BLOCK
  2
-030-EDTIP_ARROW_E
 70
   64
 10
0
 20
0
 30
0
  0
LINE
  8
_0-0_0
  6
CONTINUOUS
 62
    7
 10
0
 20
0
 11
-1
 21
0
  0
LINE
  8
_0-0_0
  6
CONTINUOUS
 62
    7
 10
0
 20
0
 11
-0.9659259999999999
 21
-0.258819
  0
LINE
  8
_0-0_0
  6
CONTINUOUS
 62
    7
 10
0
 20
0
 11
-0.9659259999999999
 21
0.258819
  0
ENDBLK
  0
BLOCK
  2
-031-_D31
 70
   64
 10
0
 20
0
 30
0
  0
LINE
  8
_0-0_0
  6
CONTINUOUS
 62
    7
 10
470.13887737658779
 20
256.4999993084931
 11
502.19313070992427
 21
256.4999993084931
  0
LINE
  8
_0-0_0
  6
CONTINUOUS
 62
    7
 10
470.13887737658779
 20
111.4999993084976
 11
502.19313070992438
 21
111.4999993084977
  0
LINE
  8
_0-0_0
  6
CONTINUOUS
 62
    7
 10
501.19313070992427
 20
253.4999993084931
 11
501.19313070992438
 21
114.4999993084977
  0
INSERT
  2
-029-EDTIP_ARROW_S
  8
_0-0_0
 10
501.19313070992427
 20
256.4999993084931
 41
3
 42
3
 50
90
  0
INSERT
  2
-030-EDTIP_ARROW_E
  8
_0-0_0
 10
501.19313070992438
 20
111.4999993084977
 41
3
 42
3
 50
270
  0
TEXT
  8
_0-0_0
 62
    7
 10
500.69313070992427
 20
181.7499993084952
 40
3
 41
1
 50
90
  1
145
  0
POINT
  8
_0-4__0-4__0-3_Defpoints
 62
    7
 10
469.13887737658779
 20
256.4999993084931
  0
POINT
  8
_0-4__0-4__0-3_Defpoints
 62
    7
 10
469.13887737658779
 20
111.4999993084976
  0
POINT
  8
_0-4__0-4__0-3_Defpoints
 62
    7
 10
501.19313070992438
 20
111.4999993084977
  0
ENDBLK
  0
BLOCK
  2
-032-_D32
 70
   64
 10
0
 20
0
 30
0
  0
LINE
  8
_0-0_0
  6
CONTINUOUS
 62
    7
 10
416.3388773765879
 20
282.49999930849287
 11
502.19979737659139
 21
282.49999930849287
  0
LINE
  8
_0-0_0
  6
CONTINUOUS
 62
    7
 10
470.13887737658779
 20
256.4999993084931
 11
502.19979737659139
 21
256.4999993084931
  0
LINE
  8
_0-0_0
  6
CONTINUOUS
 62
    7
 10
501.1997973765915
 20
279.49999930849287
 11
501.1997973765915
 21
259.4999993084931
  0
INSERT
  2
-029-EDTIP_ARROW_S
  8
_0-0_0
 10
501.1997973765915
 20
282.49999930849287
 41
3
 42
3
 50
90
  0
INSERT
  2
-030-EDTIP_ARROW_E
  8
_0-0_0
 10
501.1997973765915
 20
256.4999993084931
 41
3
 42
3
 50
270
  0
TEXT
  8
_0-0_0
 62
    7
 10
500.69979737659139
 20
267.99999930849281
 40
3
 41
1
 50
90
  1
26
  0
POINT
  8
_0-4__0-4__0-3_Defpoints
 62
    7
 10
415.3388773765879
 20
282.49999930849287
  0
POINT
  8
_0-4__0-4__0-3_Defpoints
 62
    7
 10
469.13887737658779
 20
256.4999993084931
  0
POINT
  8
_0-4__0-4__0-3_Defpoints
 62
    7
 10
501.1997973765915
 20
256.4999993084931
  0
ENDBLK
  0
BLOCK
  2
-033-_D33
 70
   64
 10
0
 20
0
 30
0
  0
LINE
  8
_0-0_0
  6
CONTINUOUS
 62
    7
 10
492.13887737658757
 20
283.49999930849281
 11
492.13887737658757
 21
294.632373848192
  0
LINE
  8
_0-0_0
  6
CONTINUOUS
 62
    7
 10
415.33887737658761
 20
283.49999930849281
 11
415.33887737658761
 21
294.632373848192
  0
LINE
  8
_0-0_0
  6
CONTINUOUS
 62
    7
 10
489.13887737658757
 20
293.63237384819188
 11
418.33887737658767
 21
293.63237384819188
  0
INSERT
  2
-029-EDTIP_ARROW_S
  8
_0-0_0
 10
492.13887737658757
 20
293.63237384819188
 41
3
 42
3
 50
0
  0
INSERT
  2
-030-EDTIP_ARROW_E
  8
_0-0_0
 10
415.33887737658761
 20
293.63237384819188
 41
3
 42
3
 50
180
  0
TEXT
  8
_0-0_0
 62
    7
 10
452.23887737658759
 20
294.13237384819188
 40
3
 41
1
 50
0
  1
77
  0
POINT
  8
_0-4__0-4__0-3_Defpoints
 62
    7
 10
492.13887737658757
 20
282.49999930849281
  0
POINT
  8
_0-4__0-4__0-3_Defpoints
 62
    7
 10
415.33887737658761
 20
282.49999930849281
  0
POINT
  8
_0-4__0-4__0-3_Defpoints
 62
    7
 10
415.33887737658761
 20
293.63237384819188
  0
ENDBLK
  0
BLOCK
  2
-034-_D34
 70
   64
 10
0
 20
0
 30
0
  0
LINE
  8
_0-0_0
  6
CONTINUOUS
 62
    7
 10
415.33887737658761
 20
283.4999993084927
 11
415.33887737658761
 21
294.63409930849252
  0
LINE
  8
_0-0_0
  6
CONTINUOUS
 62
    7
 10
331.82507204325429
 20
283.4999993084927
 11
331.82507204325429
 21
294.63409930849252
  0
LINE
  8
_0-0_0
  6
CONTINUOUS
 62
    7
 10
412.33887737658761
 20
293.63409930849252
 11
334.82507204325429
 21
293.63409930849252
  0
INSERT
  2
-029-EDTIP_ARROW_S
  8
_0-0_0
 10
415.33887737658761
 20
293.63409930849252
 41
3
 42
3
 50
0
  0
INSERT
  2
-030-EDTIP_ARROW_E
  8
_0-0_0
 10
331.82507204325429
 20
293.63409930849252
 41
3
 42
3
 50
180
  0
TEXT
  8
_0-0_0
 62
    7
 10
372.08197470992098
 20
294.13409930849252
 40
3
 41
1
 50
0
  1
84
  0
POINT
  8
_0-4__0-4__0-3_Defpoints
 62
    7
 10
415.33887737658761
 20
282.4999993084927
  0
POINT
  8
_0-4__0-4__0-3_Defpoints
 62
    7
 10
331.82507204325429
 20
282.4999993084927
  0
POINT
  8
_0-4__0-4__0-3_Defpoints
 62
    7
 10
331.82507204325429
 20
293.63409930849252
  0
ENDBLK
  0
BLOCK
  2
-035-_D35
 70
   64
 10
0
 20
0
 30
0
  0
LINE
  8
_0-0_0
  6
CONTINUOUS
 62
    7
 10
415.33887737658761
 20
283.4999993084927
 11
415.33887737658761
 21
287.85023264182592
  0
LINE
  8
_0-0_0
  6
CONTINUOUS
 62
    7
 10
469.13887737658757
 20
228.49999930849298
 11
469.13887737658757
 21
287.85023264182592
  0
LINE
  8
_0-0_0
  6
CONTINUOUS
 62
    7
 10
418.33887737658767
 20
286.85023264182581
 11
466.13887737658757
 21
286.85023264182581
  0
INSERT
  2
-029-EDTIP_ARROW_S
  8
_0-0_0
 10
415.33887737658761
 20
286.85023264182581
 41
3
 42
3
 50
180
  0
INSERT
  2
-030-EDTIP_ARROW_E
  8
_0-0_0
 10
469.13887737658757
 20
286.85023264182581
 41
3
 42
3
 50
0
  0
TEXT
  8
_0-0_0
 62
    7
 10
440.73887737658759
 20
287.35023264182581
 40
3
 41
1
 50
0
  1
54
  0
POINT
  8
_0-4__0-4__0-3_Defpoints
 62
    7
 10
415.33887737658761
 20
282.4999993084927
  0
POINT
  8
_0-4__0-4__0-3_Defpoints
 62
    7
 10
469.13887737658757
 20
227.49999930849298
  0
POINT
  8
_0-4__0-4__0-3_Defpoints
 62
    7
 10
469.13887737658757
 20
286.85023264182581
  0
ENDBLK
  0
BLOCK
  2
-036-_D36
 70
   64
 10
0
 20
0
 30
0
  0
LINE
  8
_0-0_0
  6
CONTINUOUS
 62
    7
 10
330.8250720432544
 20
282.49999930849281
 11
316.08891604325691
 21
282.49999930849281
  0
LINE
  8
_0-0_0
  6
CONTINUOUS
 62
    7
 10
330.8250720432544
 20
76.499999308492874
 11
316.08891604325691
 21
76.499999308492874
  0
LINE
  8
_0-0_0
  6
CONTINUOUS
 62
    7
 10
317.08891604325691
 20
279.49999930849281
 11
317.08891604325691
 21
79.499999308492874
  0
INSERT
  2
-029-EDTIP_ARROW_S
  8
_0-0_0
 10
317.08891604325691
 20
282.49999930849281
 41
3
 42
3
 50
90
  0
INSERT
  2
-030-EDTIP_ARROW_E
  8
_0-0_0
 10
317.08891604325691
 20
76.499999308492874
 41
3
 42
3
 50
270
  0
TEXT
  8
_0-0_0
 62
    7
 10
316.58891604325691
 20
177.2499993084927
 40
3
 41
1
 50
90
  1
206
  0
POINT
  8
_0-4__0-4__0-3_Defpoints
 62
    7
 10
331.8250720432544
 20
282.49999930849281
  0
POINT
  8
_0-4__0-4__0-3_Defpoints
 62
    7
 10
331.8250720432544
 20
76.499999308492874
  0
POINT
  8
_0-4__0-4__0-3_Defpoints
 62
    7
 10
317.08891604325691
 20
76.499999308492874
  0
ENDBLK
  0
BLOCK
  2
-037-_D37
 70
   64
 10
0
 20
0
 30
0
  0
LINE
  8
_0-0_0
  6
CONTINUOUS
 62
    7
 10
397.33887737658767
 20
63.751024641826312
 11
397.33887737658767
 21
50.958455308492922
  0
LINE
  8
_0-0_0
  6
CONTINUOUS
 62
    7
 10
415.33887737658761
 20
78.577691308492916
 11
415.33887737658761
 21
50.958455308492922
  0
LINE
  8
_0-0_0
  6
CONTINUOUS
 62
    7
 10
400.33887737658761
 20
51.958455308492908
 11
412.33887737658761
 21
51.958455308492908
  0
INSERT
  2
-029-EDTIP_ARROW_S
  8
_0-0_0
 10
397.33887737658767
 20
51.958455308492908
 41
3
 42
3
 50
180
  0
INSERT
  2
-030-EDTIP_ARROW_E
  8
_0-0_0
 10
415.33887737658761
 20
51.958455308492908
 41
3
 42
3
 50
0
  0
TEXT
  8
_0-0_0
 62
    7
 10
404.83887737658761
 20
52.458455308492922
 40
3
 41
1
 50
0
  1
18
  0
POINT
  8
_0-4__0-4__0-3_Defpoints
 62
    7
 10
397.33887737658767
 20
64.751024641826319
  0
POINT
  8
_0-4__0-4__0-3_Defpoints
 62
    7
 10
415.33887737658761
 20
79.577691308492916
  0
POINT
  8
_0-4__0-4__0-3_Defpoints
 62
    7
 10
415.33887737658761
 20
51.958455308492908
  0
ENDBLK
  0
BLOCK
  2
-038-_D38
 70
   64
 10
0
 20
0
 30
0
  0
LINE
  8
_0-0_0
  6
CONTINUOUS
 62
    7
 10
264.77602838820172
 20
283.49999930849281
 11
264.77602838820172
 21
294.63409930849269
  0
LINE
  8
_0-0_0
  6
CONTINUOUS
 62
    7
 10
68.776028388201652
 20
283.49999930849281
 11
68.776028388201652
 21
294.63409930849269
  0
LINE
  8
_0-0_0
  6
CONTINUOUS
 62
    7
 10
261.77602838820172
 20
293.63409930849269
 11
71.776028388201652
 21
293.63409930849269
  0
INSERT
  2
-029-EDTIP_ARROW_S
  8
_0-0_0
 10
264.77602838820172
 20
293.63409930849269
 41
3
 42
3
 50
0
  0
INSERT
  2
-030-EDTIP_ARROW_E
  8
_0-0_0
 10
68.776028388201652
 20
293.63409930849269
 41
3
 42
3
 50
180
  0
TEXT
  8
_0-0_0
 62
    7
 10
164.5260283882016
 20
294.13409930849269
 40
3
 41
1
 50
0
  1
196
  0
POINT
  8
_0-4__0-4__0-3_Defpoints
 62
    7
 10
264.77602838820172
 20
282.49999930849281
  0
POINT
  8
_0-4__0-4__0-3_Defpoints
 62
    7
 10
68.776028388201652
 20
282.49999930849281
  0
POINT
  8
_0-4__0-4__0-3_Defpoints
 62
    7
 10
68.776028388201652
 20
293.63409930849269
  0
ENDBLK
  0
BLOCK
  2
-039-_D39
 70
   64
 10
0
 20
0
 30
0
  0
LINE
  8
_0-0_0
  6
CONTINUOUS
 62
    7
 10
67.77602838820168
 20
282.49999930849287
 11
43.844817721534369
 21
282.49999930849287
  0
LINE
  8
_0-0_0
  6
CONTINUOUS
 62
    7
 10
61.77602838820168
 20
61.499999308492839
 11
43.844817721534411
 21
61.499999308492839
  0
LINE
  8
_0-0_0
  6
CONTINUOUS
 62
    7
 10
44.844817721534361
 20
279.49999930849287
 11
44.844817721534418
 21
64.499999308492846
  0
INSERT
  2
-029-EDTIP_ARROW_S
  8
_0-0_0
 10
44.844817721534361
 20
282.49999930849287
 41
3
 42
3
 50
90
  0
INSERT
  2
-030-EDTIP_ARROW_E
  8
_0-0_0
 10
44.844817721534418
 20
61.499999308492839
 41
3
 42
3
 50
270
  0
TEXT
  8
_0-0_0
 62
    7
 10
44.344817721534433
 20
169.74999930849278
 40
3
 41
1
 50
90
  1
221
  0
POINT
  8
_0-4__0-4__0-3_Defpoints
 62
    7
 10
68.77602838820168
 20
282.49999930849287
  0
POINT
  8
_0-4__0-4__0-3_Defpoints
 62
    7
 10
62.77602838820168
 20
61.499999308492839
  0
POINT
  8
_0-4__0-4__0-3_Defpoints
 62
    7
 10
44.844817721534418
 20
61.499999308492839
  0
ENDBLK
  0
BLOCK
  2
-040-_D40
 70
   64
 10
0
 20
0
 30
0
  0
LINE
  8
_0-0_0
  6
CONTINUOUS
 62
    7
 10
270.7760283882016
 20
80.660253975159633
 11
270.7760283882016
 21
50.958455308492922
  0
LINE
  8
_0-0_0
  6
CONTINUOUS
 62
    7
 10
62.776028388201652
 20
80.660253975159633
 11
62.776028388201652
 21
50.958455308492922
  0
LINE
  8
_0-0_0
  6
CONTINUOUS
 62
    7
 10
267.77602838820172
 20
51.958455308492908
 11
65.776028388201652
 21
51.958455308492908
  0
INSERT
  2
-029-EDTIP_ARROW_S
  8
_0-0_0
 10
270.7760283882016
 20
51.958455308492908
 41
3
 42
3
 50
0
  0
INSERT
  2
-030-EDTIP_ARROW_E
  8
_0-0_0
 10
62.776028388201652
 20
51.958455308492908
 41
3
 42
3
 50
180
  0
TEXT
  8
_0-0_0
 62
    7
 10
164.5260283882016
 20
52.458455308492922
 40
3
 41
1
 50
0
  1
208
  0
POINT
  8
_0-4__0-4__0-3_Defpoints
 62
    7
 10
270.7760283882016
 20
81.660253975159633
  0
POINT
  8
_0-4__0-4__0-3_Defpoints
 62
    7
 10
62.776028388201652
 20
81.660253975159633
  0
POINT
  8
_0-4__0-4__0-3_Defpoints
 62
    7
 10
62.776028388201652
 20
51.958455308492908
  0
ENDBLK
  0
ENDSEC
  0
SECTION
  2
ENTITIES
  0
LINE
  8
_0-2_0-10
  6
CONTINUOUS
 62
    3
 10
-43.757690207107032
 20
325.99552798980505
 11
463.74230979289319
 21
325.99552798980505
  0
LINE
  8
_0-2_0-10
  6
CONTINUOUS
 62
    3
 10
209.99230979289302
 20
-29.004472010194916
 11
209.99230979289302
 21
-26.504472010194916
  0
LINE
  8
_0-2_0-10
  6
CONTINUOUS
 62
    3
 10
463.74230979289296
 20
-29.004472010194916
 11
463.74230979289296
 21
325.99552798980505
  0
LINE
  8
_0-2_0-10
  6
CONTINUOUS
 62
    3
 10
-43.757690207106975
 20
-29.004472010194916
 11
-43.757690207106975
 21
325.99552798980505
  0
LINE
  8
_0-2_0-10
  6
CONTINUOUS
 62
    3
 10
-43.757690207106975
 20
-29.004472010194916
 11
463.74230979289296
 21
-29.004472010194916
  0
LINE
  8
_0-1_0-00
  6
CONTINUOUS
 62
    3
 10
219.99230979289433
 20
-16.504472010194916
 11
463.74230979289296
 21
-16.504472010194916
  0
LINE
  8
_0-1_0-00
  6
CONTINUOUS
 62
    3
 10
219.99230979289433
 20
-16.504472010194916
 11
219.99230979289433
 21
-29.004472010194916
  0
LINE
  8
_0-1_0-00
  6
CONTINUOUS
 62
    3
 10
294.99230979289421
 20
-16.504472010194916
 11
294.99230979289421
 21
-29.004472010194916
  0
LINE
  8
_0-1_0-00
  6
CONTINUOUS
 62
    3
 10
369.9923097928941
 20
-16.504472010194916
 11
369.9923097928941
 21
-29.004472010194916
  0
LINE
  8
_0-2_0-10
  6
CONTINUOUS
 62
    4
 10
363.83118814736963
 20
43.746553323138414
 11
346.33118814736968
 21
26.246553323138442
  0
LINE
  8
_0-2_0-10
  6
CONTINUOUS
 62
    3
 10
280.8173828140363
 20
246.99552798980479
 11
364.33118814736963
 21
246.99552798980479
  0
LINE
  8
_0-2_0-10
  6
CONTINUOUS
 62
    3
 10
280.8173828140363
 20
246.99552798980479
 11
280.8173828140363
 21
40.995527989804941
  0
LINE
  8
_0-2_0-10
  6
CONTINUOUS
 62
    5
 10
354.83118814736968
 20
246.49552798980479
 11
358.33118814736968
 21
246.49552798980479
  0
ARC
  8
_0-2_0-10
  6
CONTINUOUS
 62
    5
 10
358.83118814736968
 20
246.49552798980479
 40
0.5
 50
90
 51
180
  0
LINE
  8
_0-2_0-10
  6
CONTINUOUS
 62
    3
 10
281.3173828140363
 20
246.99552798980479
 11
281.3173828140363
 21
40.995527989804941
  0
LINE
  8
_0-2_0-10
  6
CONTINUOUS
 62
    3
 10
360.33118814736963
 20
40.995527989804941
 11
363.73118814736949
 21
44.395527989805017
  0
ARC
  8
_0-2_0-10
  6
CONTINUOUS
 62
    6
 10
415.13118814736958
 20
217.99552798980519
 40
3
 50
0
 51
90
  0
ARC
  8
_0-2_0-10
  6
CONTINUOUS
 62
    6
 10
415.13118814736958
 20
78.995527989809701
 40
3
 50
270
 51
0
  0
LINE
  8
_0-2_0-10
  6
CONTINUOUS
 62
    6
 10
415.13118814736958
 20
75.995527989809701
 11
363.13118814736958
 21
75.995527989809701
  0
LINE
  8
_0-2_0-10
  6
CONTINUOUS
 62
    6
 10
363.13118814736958
 20
220.99552798980519
 11
415.13118814736958
 21
220.99552798980519
  0
LINE
  8
_0-2_0-10
  6
CONTINUOUS
 62
    6
 10
358.63118814736958
 20
235.29552798980486
 11
358.63118814736958
 21
64.195527989809761
  0
LINE
  8
_0-2_0-10
  6
CONTINUOUS
 62
    6
 10
359.13118814736958
 20
235.29552798980486
 11
359.13118814736958
 21
224.99552798980519
  0
ARC
  8
_0-2_0-10
  6
CONTINUOUS
 62
    6
 10
363.13118814736958
 20
224.99552798980519
 40
4
 50
180
 51
270
  0
ARC
  8
_0-2_0-10
  6
CONTINUOUS
 62
    6
 10
363.13118814736958
 20
71.995527989809701
 40
4
 50
90
 51
180
  0
LINE
  8
_0-2_0-10
  6
CONTINUOUS
 62
    6
 10
359.13118814736958
 20
71.995527989809701
 11
359.13118814736958
 21
64.195527989809761
  0
LINE
  8
_0-2_0-10
  6
CONTINUOUS
 62
    6
 10
359.33118814736963
 20
245.99552798980479
 11
359.83118814736963
 21
245.99552798980479
  0
LINE
  8
_0-2_0-10
  6
CONTINUOUS
 62
    3
 10
280.8173828140363
 20
40.995527989804941
 11
360.33118814736963
 21
40.995527989804941
  0
LINE
  8
_0-2_0-10
  6
CONTINUOUS
 62
    3
 10
363.73118814736949
 20
46.182577323138275
 11
363.73118814736949
 21
44.395527989805017
  0
LINE
  8
_0-2_0-10
  6
CONTINUOUS
 62
    5
 10
358.33118814736968
 20
246.49552798980479
 11
358.33118814736968
 21
237.37919198980469
  0
LINE
  8
_0-2_0-10
  6
CONTINUOUS
 62
    5
 10
358.83118814736968
 20
236.99552798980479
 11
322.60896948070291
 21
227.2898146564714
  0
LINE
  8
_0-2_0-10
  6
CONTINUOUS
 62
    5
 10
358.83118814736968
 20
246.99552798980479
 11
364.33118814736963
 21
246.99552798980479
  0
LINE
  8
_0-2_0-10
  6
CONTINUOUS
 62
    5
 10
358.83118814736968
 20
246.49552798980479
 11
358.83118814736968
 21
236.29552798980486
  0
ARC
  8
_0-2_0-10
  6
CONTINUOUS
 62
    5
 10
358.33118814736968
 20
237.37919198980469
 40
0.5
 50
285.00000000000119
 51
0.0000000000000127
  0
LINE
  8
_0-2_0-10
  6
CONTINUOUS
 62
    5
 10
321.99659614736958
 20
227.64336798980477
 11
320.8319108140364
 21
231.99003332313802
  0
LINE
  8
_0-2_0-10
  6
CONTINUOUS
 62
    5
 10
321.31487348070288
 20
232.1194439898048
 11
320.8319108140364
 21
231.99003332313802
  0
LINE
  8
_0-2_0-10
  6
CONTINUOUS
 62
    5
 10
322.47956014736951
 20
227.77277732313811
 11
321.31487348070288
 21
232.1194439898048
  0
LINE
  8
_0-2_0-10
  6
CONTINUOUS
 62
    5
 10
322.12600681403631
 20
227.4192239898048
 11
322.12600681403631
 21
223.06143598980489
  0
LINE
  8
_0-2_0-10
  6
CONTINUOUS
 62
    5
 10
321.99659614736958
 20
223.28557998980468
 11
321.17265214736971
 21
226.36058132313812
  0
LINE
  8
_0-2_0-10
  6
CONTINUOUS
 62
    5
 10
320.8319108140364
 20
231.99003332313802
 11
320.8319108140364
 21
228.94877198980466
  0
LINE
  8
_0-2_0-10
  6
CONTINUOUS
 62
    5
 10
329.72400281403633
 20
224.46345065647139
 11
329.72400281403633
 21
224.28962265647137
  0
LINE
  8
_0-2_0-10
  6
CONTINUOUS
 62
    5
 10
329.09812148070301
 20
224.67079065647138
 11
322.60896948070291
 21
222.93202665647137
  0
LINE
  8
_0-2_0-10
  6
CONTINUOUS
 62
    5
 10
329.72400281403633
 20
224.28962265647137
 11
329.85341348070289
 21
223.80665998980467
  0
LINE
  8
_0-2_0-10
  6
CONTINUOUS
 62
    5
 10
329.85341348070289
 20
224.09123465647141
 11
329.85341348070289
 21
223.80665998980467
  0
ARC
  8
_0-2_0-10
  6
CONTINUOUS
 62
    5
 10
322.47956014736951
 20
223.41498932313808
 40
0.5
 50
195.0000000000011
 51
285.00000000000119
  0
ARC
  8
_0-2_0-10
  6
CONTINUOUS
 62
    5
 10
322.47956014736951
 20
227.77277732313811
 40
0.5
 50
195.0000000000011
 51
285.00000000000119
  0
LINE
  8
_0-2_0-10
  6
CONTINUOUS
 62
    5
 10
353.83118814736968
 20
245.49552798980479
 11
353.83118814736968
 21
236.17341998980461
  0
ARC
  8
_0-2_0-10
  6
CONTINUOUS
 62
    5
 10
329.25341348070293
 20
224.09123465647141
 40
0.5999999999999997
 50
0
 51
105.00000000000119
  0
ARC
  8
_0-2_0-10
  6
CONTINUOUS
 62
    5
 10
354.83118814736968
 20
245.49552798980479
 40
1
 50
90
 51
180
  0
ARC
  8
_0-2_0-10
  6
CONTINUOUS
 62
    5
 10
330.83191081403629
 20
228.94877198980466
 40
10
 50
180
 51
195.0000000000011
  0
LINE
  8
_0-2_0-10
  6
CONTINUOUS
 62
    5
 10
358.33118814736968
 20
237.37919198980469
 11
322.47956014736951
 21
227.77277732313811
  0
LINE
  8
_0-2_0-10
  6
CONTINUOUS
 62
    4
 10
358.83118814736968
 20
245.99552798980479
 11
358.83118814736968
 21
236.29552798980486
  0
LINE
  8
_0-2_0-10
  6
CONTINUOUS
 62
    4
 10
359.33118814736963
 20
246.49552798980479
 11
364.33118814736963
 21
246.49552798980479
  0
LINE
  8
_0-2_0-10
  6
CONTINUOUS
 62
    4
 10
359.33118814736963
 20
245.99552798980479
 11
364.33118814736963
 21
245.99552798980479
  0
ARC
  8
_0-2_0-10
  6
CONTINUOUS
 62
    4
 10
359.33118814736963
 20
245.99552798980479
 40
0.5
 50
90
 51
180
  0
LINE
  8
_0-2_0-10
  6
CONTINUOUS
 62
    4
 10
363.83118814736963
 20
46.155782656471728
 11
359.2017774807029
 21
47.396229323138413
  0
LINE
  8
_0-2_0-10
  6
CONTINUOUS
 62
    4
 10
363.96059748070302
 20
46.638745323138323
 11
359.33118814736963
 21
47.879191989805008
  0
LINE
  8
_0-2_0-10
  6
CONTINUOUS
 62
    4
 10
364.18474148070293
 20
43.392998656471718
 11
346.68474148070299
 21
25.892998656471732
  0
ARC
  8
_0-2_0-10
  6
CONTINUOUS
 62
    4
 10
359.33118814736963
 20
47.879191989805008
 40
0.5
 50
180
 51
254.9999999999988
  0
LINE
  8
_0-2_0-10
  6
CONTINUOUS
 62
    4
 10
354.7162028140363
 20
40.995527989804941
 11
352.54246414736962
 21
38.821790656471648
  0
ARC
  8
_0-2_0-10
  6
CONTINUOUS
 62
    4
 10
354.66378414736959
 20
36.700469323138349
 40
3
 50
135.00000000000034
 51
224.99999999999963
  0
LINE
  8
_0-2_0-10
  6
CONTINUOUS
 62
    4
 10
352.54246414736962
 20
34.579149323138381
 11
353.60312414736949
 21
33.518489323138268
  0
LINE
  8
_0-2_0-10
  6
CONTINUOUS
 62
    4
 10
358.13118814736958
 20
235.79552798980486
 11
358.13118814736958
 21
63.695527989809761
  0
LINE
  8
_0-2_0-10
  6
CONTINUOUS
 62
    4
 10
357.63118814736958
 20
63.695527989809761
 11
357.63118814736958
 21
79.934365323143097
  0
LINE
  8
_0-2_0-10
  6
CONTINUOUS
 62
    4
 10
364.33118814736963
 20
43.746553323138414
 11
364.33118814736963
 21
46.155782656471728
  0
LINE
  8
_0-2_0-10
  6
CONTINUOUS
 62
    4
 10
363.83118814736963
 20
43.746553323138414
 11
363.83118814736963
 21
46.155782656471728
  0
ARC
  8
_0-2_0-10
  6
CONTINUOUS
 62
    4
 10
363.83118814736963
 20
46.155782656471728
 40
0.5
 50
0
 51
74.999999999998806
  0
ARC
  8
_0-2_0-10
  6
CONTINUOUS
 62
    4
 10
363.83118814736963
 20
43.746553323138414
 40
0.5
 50
315.00000000000022
 51
359.99999999999994
  0
LINE
  8
_0-2_0-10
  6
CONTINUOUS
 62
    4
 10
346.68474148070299
 20
25.892998656471732
 11
346.33118814736968
 21
26.246553323138442
  0
LINE
  8
_0-2_0-10
  6
CONTINUOUS
 62
    4
 10
364.33118814736963
 20
246.49552798980479
 11
364.33118814736963
 21
245.99552798980479
  0
ARC
  8
_0-2_0-10
  6
CONTINUOUS
 62
    4
 10
357.63118814736958
 20
80.495527989809701
 40
0.5
 50
297.00000000000181
 51
0.0000000000000127
  0
LINE
  8
_0-2_0-10
  6
CONTINUOUS
 62
    4
 10
357.63118814736958
 20
233.5955279898047
 11
358.13118814736958
 21
233.5955279898047
  0
LINE
  8
_0-2_0-10
  6
CONTINUOUS
 62
    4
 10
358.83118814736968
 20
242.89552798980477
 11
359.33118814736963
 21
242.89552798980477
  0
LINE
  8
_0-2_0-10
  6
CONTINUOUS
 62
    3
 10
328.57699881403618
 20
246.99552798980479
 11
328.57699881403618
 21
229.40658132313799
  0
LINE
  8
_0-2_0-10
  6
CONTINUOUS
 62
    3
 10
328.57699881403618
 20
224.53115598980477
 11
328.57699881403618
 21
40.995527989804941
  0
LINE
  8
_0-2_0-10
  6
CONTINUOUS
 62
    5
 10
358.83118814736968
 20
246.49552798980479
 11
364.33118814736963
 21
246.49552798980479
  0
LINE
  8
_0-2_0-10
  6
CONTINUOUS
 62
    4
 10
359.33118814736963
 20
245.99552798980479
 11
359.33118814736963
 21
223.47565998980522
  0
LINE
  8
_0-2_0-10
  6
CONTINUOUS
 62
    4
 10
358.83118814736968
 20
63.195527989809761
 11
358.83118814736968
 21
47.879191989805008
  0
LINE
  8
_0-2_0-10
  6
CONTINUOUS
 62
    4
 10
357.63118814736958
 20
188.49552798980508
 11
357.63118814736958
 21
199.93436569627098
  0
LINE
  8
_0-2_0-10
  6
CONTINUOUS
 62
    4
 10
357.63118814736958
 20
80.495527989809701
 11
357.63118814736958
 21
97.793121755029602
  0
LINE
  8
_0-2_0-10
  6
CONTINUOUS
 62
    3
 10
364.33118814736963
 20
75.995527989809701
 11
364.33118814736963
 21
46.695527989804972
  0
ARC
  8
_0-2_0-10
  6
CONTINUOUS
 62
    3
 10
364.0311881473695
 20
46.695527989804972
 40
0.2999999999999998
 50
309.92769199999742
 51
0
  0
LINE
  8
_0-0_0
  6
CONTINUOUS
 62
    7
 10
416.13118814736958
 20
75.995527989809701
 11
451.51877481403749
 21
75.995527989809701
  0
LINE
  8
_0-0_0
  6
CONTINUOUS
 62
    7
 10
416.13118814736958
 20
220.99552798980508
 11
451.51877481403749
 21
220.99552798980508
  0
LINE
  8
_0-0_0
  6
CONTINUOUS
 62
    7
 10
450.18544148070418
 20
79.995527989809701
 11
450.18544148070418
 21
216.99552798980508
  0
INSERT
  2
-000-EDTIP_ARROW_S_0
  8
_0-0_0
 10
450.18544148070418
 20
75.995527989809701
 41
4
 42
4
 50
270
  0
INSERT
  2
-001-EDTIP_ARROW_E_1
  8
_0-0_0
 10
450.18544148070418
 20
220.99552798980508
 41
4
 42
4
 50
90
  0
CIRCLE
  8
_0-1_0-00
  6
CONTINUOUS
 62
    7
 10
414.79785481403621
 20
75.995527989809701
 40
0.0066666666666667
  0
CIRCLE
  8
_0-1_0-00
  6
CONTINUOUS
 62
    7
 10
414.79785481403621
 20
220.99552798980508
 40
0.0066666666666667
  0
CIRCLE
  8
_0-1_0-00
  6
CONTINUOUS
 62
    7
 10
450.18544148070418
 20
220.99552798980508
 40
0.0066666666666667
  0
LINE
  8
_0-2_0-10
  6
CONTINUOUS
 62
    4
 10
357.63118814736958
 20
68.995527989809701
 11
358.13118814736958
 21
68.995527989809701
  0
LINE
  8
_0-2_0-10
  6
CONTINUOUS
 62
    6
 10
359.13118814736958
 20
235.29552798980486
 11
358.63118814736958
 21
235.29552798980486
  0
LINE
  8
_0-2_0-10
  6
CONTINUOUS
 62
    4
 10
358.13118814736958
 20
235.79552798980486
 11
358.83118814736968
 21
235.79552798980486
  0
LINE
  8
_0-2_0-10
  6
CONTINUOUS
 62
    4
 10
358.13118814736958
 20
236.29552798980486
 11
358.83118814736968
 21
236.29552798980486
  0
ARC
  8
_0-2_0-10
  6
CONTINUOUS
 62
    4
 10
358.13118814736958
 20
235.79552798980486
 40
0.5
 50
90
 51
180
  0
ARC
  8
_0-2_0-10
  6
CONTINUOUS
 62
    4
 10
358.83118814736968
 20
236.29552798980486
 40
0.5
 50
270
 51
0
  0
LINE
  8
_0-2_0-10
  6
CONTINUOUS
 62
    5
 10
357.63118814736958
 20
231.2496919898048
 11
329.85341348070289
 21
223.80665998980467
  0
LINE
  8
_0-2_0-10
  6
CONTINUOUS
 62
    7
 10
362.37703081403628
 20
246.49552798980479
 11
363.24305614736948
 21
245.99552798980479
  0
LINE
  8
_0-2_0-10
  6
CONTINUOUS
 62
    4
 10
358.13118814736958
 20
63.695527989809761
 11
358.83118814736968
 21
63.695527989809761
  0
LINE
  8
_0-2_0-10
  6
CONTINUOUS
 62
    4
 10
358.13118814736958
 20
63.195527989809761
 11
358.83118814736968
 21
63.195527989809761
  0
ARC
  8
_0-2_0-10
  6
CONTINUOUS
 62
    4
 10
358.13118814736958
 20
63.695527989809761
 40
0.5
 50
180
 51
270
  0
ARC
  8
_0-2_0-10
  6
CONTINUOUS
 62
    4
 10
358.83118814736968
 20
63.195527989809761
 40
0.5
 50
0
 51
90
  0
LINE
  8
_0-2_0-10
  6
CONTINUOUS
 62
    6
 10
359.13118814736958
 20
64.195527989809761
 11
358.63118814736958
 21
64.195527989809761
  0
LINE
  8
_0-2_0-10
  6
CONTINUOUS
 62
    4
 10
359.33118814736963
 20
73.515397323141797
 11
359.33118814736963
 21
47.879191989805008
  0
LINE
  8
_0-2_0-10
  6
CONTINUOUS
 62
    2
 10
441.13118814736958
 20
154.59552798980499
 11
441.13118814736958
 21
142.39552798980508
  0
ARC
  8
_0-2_0-10
  6
CONTINUOUS
 62
    2
 10
440.73118814736949
 20
154.59552798980499
 40
0.4
 50
0
 51
90
  0
ARC
  8
_0-2_0-10
  6
CONTINUOUS
 62
    2
 10
440.73118814736949
 20
142.39552798980508
 40
0.4
 50
270
 51
0
  0
LINE
  8
_0-2_0-10
  6
CONTINUOUS
 62
    7
 10
384.13118814736958
 20
223.45793598980512
 11
384.20064681403619
 21
223.85185865647181
  0
LINE
  8
_0-2_0-10
  6
CONTINUOUS
 62
    7
 10
384.13118814736958
 20
223.45793598980512
 11
386.10080281403628
 21
223.11063865647182
  0
ARC
  8
_0-2_0-10
  6
CONTINUOUS
 62
    7
 10
386.17026281403633
 20
223.50456265647179
 40
0.4
 50
260.00000000000142
 51
297.39251799999891
  0
ARC
  8
_0-2_0-10
  6
CONTINUOUS
 62
    7
 10
390.77110148070289
 20
214.62580798980508
 40
9.5999999999999996
 50
42.607482000001148
 51
117.39251799999878
  0
LINE
  8
_0-2_0-10
  6
CONTINUOUS
 62
    7
 10
384.20064681403619
 20
223.85185865647181
 11
386.17026281403633
 21
223.50456265647179
  0
ARC
  8
_0-2_0-10
  6
CONTINUOUS
 62
    7
 10
390.77110148070289
 20
214.62580798980508
 40
10
 50
42.607482000001148
 51
117.39251799999878
  0
LINE
  8
_0-2_0-10
  6
CONTINUOUS
 62
    7
 10
398.13118814736952
 20
220.99552798980519
 11
410.13118814736958
 21
220.99552798980519
  0
LINE
  8
_0-2_0-10
  6
CONTINUOUS
 62
    7
 10
398.13118814736952
 20
221.39552798980517
 11
410.13118814736958
 21
221.39552798980517
  0
LINE
  8
_0-2_0-10
  6
CONTINUOUS
 62
    7
 10
410.13118814736958
 20
221.39552798980517
 11
410.13118814736958
 21
220.99552798980519
  0
LINE
  8
_0-2_0-10
  6
CONTINUOUS
 62
    6
 10
418.13118814736958
 20
127.233119989805
 11
418.13118814736958
 21
78.995527989809701
  0
LINE
  8
_0-2_0-10
  6
CONTINUOUS
 62
    6
 10
418.13118814736958
 20
217.99552798980519
 11
418.13118814736958
 21
127.2331198477344
  0
LINE
  8
_0-2_0-10
  6
CONTINUOUS
 62
    2
 10
418.13118814736958
 20
154.99552798980508
 11
440.73118814736949
 21
154.99552798980508
  0
LINE
  8
_0-2_0-10
  6
CONTINUOUS
 62
    2
 10
418.13118814736958
 20
141.99552798980508
 11
440.73118814736949
 21
141.99552798980508
  0
LINE
  8
_0-2_0-10
  6
CONTINUOUS
 62
    3
 10
364.33118814736963
 20
246.99552798980479
 11
364.33118814736963
 21
220.99552798980519
  0
LINE
  8
_0-1_0-00
  6
CONTINUOUS
 62
    7
 10
441.13118814736958
 20
148.49552798980508
 11
441.13118814736958
 21
259.46296132313796
  0
INSERT
  2
-031-_D31
  8
_0-0_0
 10
-51.007689229217987
 20
-35.504471318687905
 41
1
 42
1
 50
0
  0
INSERT
  2
-032-_D32
  8
_0-0_0
 10
-51.007689229217987
 20
-35.504471318687905
 41
1
 42
1
 50
0
  0
INSERT
  2
-033-_D33
  8
_0-0_0
 10
-51.007689229217987
 20
-35.504471318687905
 41
1
 42
1
 50
0
  0
INSERT
  2
-034-_D34
  8
_0-0_0
 10
-51.007689229217987
 20
-35.504471318687905
 41
1
 42
1
 50
0
  0
INSERT
  2
-035-_D35
  8
_0-0_0
 10
-51.007689229217987
 20
-35.504471318687905
 41
1
 42
1
 50
0
  0
INSERT
  2
-036-_D36
  8
_0-0_0
 10
-51.007689229217987
 20
-35.504471318687905
 41
1
 42
1
 50
0
  0
INSERT
  2
-037-_D37
  8
_0-0_0
 10
-51.007689229217987
 20
-35.504471318687905
 41
1
 42
1
 50
0
  0
LINE
  8
_0-2_0-10
  6
CONTINUOUS
 62
    4
 10
349.87380814736962
 20
75.95637065647169
 11
350.1461281473696
 21
75.537035989804991
  0
LINE
  8
_0-2_0-10
  6
CONTINUOUS
 62
    4
 10
357.63118814736958
 20
80.495527989804998
 11
354.0671614807029
 21
78.679566656471791
  0
LINE
  8
_0-2_0-10
  6
CONTINUOUS
 62
    4
 10
357.85818281403624
 20
80.050025323138399
 11
354.29415748070289
 21
78.234062656471692
  0
LINE
  8
_0-2_0-10
  6
CONTINUOUS
 62
    4
 10
354.0671614807029
 20
78.679566656471791
 11
349.87380814736962
 21
75.95637065647169
  0
LINE
  8
_0-2_0-10
  6
CONTINUOUS
 62
    4
 10
354.339481480703
 20
78.260230656471691
 11
350.1461281473696
 21
75.537035989804991
  0
LINE
  8
_0-2_0-10
  6
CONTINUOUS
 62
    4
 10
357.1405348140363
 20
80.245527989804998
 11
357.36753081403622
 21
79.800025323138399
  0
ARC
  8
_0-2_0-10
  6
CONTINUOUS
 62
    4
 10
357.63118814736958
 20
80.495527989804998
 40
0.5
 50
297.00000000000181
 51
0.0000000000000127
  0
LINE
  8
_0-2_0-10
  6
CONTINUOUS
 62
    7
 10
2.0870978256503178
 20
148.49552798980508
 11
229.44957915898373
 21
148.49552798980508
  0
LINE
  8
_0-2_0-10
  6
CONTINUOUS
 62
    7
 10
115.76833915898362
 20
255.48632532313817
 11
115.76833915898362
 21
24.084630143933424
  0
LINE
  8
_0-2_0-10
  6
CONTINUOUS
 62
    3
 10
26.768339158983678
 20
246.99552798980491
 11
26.768339158983678
 21
40.995527989804941
  0
LINE
  8
_0-2_0-10
  6
CONTINUOUS
 62
    3
 10
204.7683391589837
 20
246.99552798980491
 11
204.7683391589837
 21
40.995527989804941
  0
LINE
  8
_0-2_0-10
  6
CONTINUOUS
 62
    3
 10
213.76833915898373
 20
246.99552798980491
 11
204.2683391589837
 21
246.99552798980491
  0
LINE
  8
_0-2_0-10
  6
CONTINUOUS
 62
    3
 10
213.76833915898373
 20
246.99552798980491
 11
213.76833915898373
 21
40.995527989804941
  0
LINE
  8
_0-2_0-10
  6
CONTINUOUS
 62
    3
 10
17.768339158983678
 20
246.99552798980491
 11
17.768339158983678
 21
40.995527989804941
  0
LINE
  8
_0-2_0-10
  6
CONTINUOUS
 62
    7
 10
22.268339158983678
 20
183.26849865647159
 11
22.268339158983678
 21
173.72255732313828
  0
ARC
  8
_0-2_0-10
  6
CONTINUOUS
 62
    3
 10
22.268339158983678
 20
178.49552798980508
 40
2.149999999999999
 50
8.0209330000001486
 51
171.97906699999987
  0
ARC
  8
_0-2_0-10
  6
CONTINUOUS
 62
    3
 10
22.268339158983678
 20
178.49552798980508
 40
2.149999999999999
 50
188.02093300000001
 51
351.97906699999981
  0
LINE
  8
_0-2_0-10
  6
CONTINUOUS
 62
    7
 10
17.495368492317027
 20
178.49552798980508
 11
27.04130982565033
 21
178.49552798980508
  0
LINE
  8
_0-2_0-10
  6
CONTINUOUS
 62
    3
 10
213.76833915898373
 20
40.995527989804941
 11
204.2683391589837
 21
40.995527989804941
  0
LINE
  8
_0-2_0-10
  6
CONTINUOUS
 62
    4
 10
219.76833915898362
 20
46.155782656471728
 11
219.76833915898362
 21
33.518493323138272
  0
LINE
  8
_0-2_0-10
  6
CONTINUOUS
 62
    4
 10
219.26833915898373
 20
46.155782656471728
 11
219.26833915898373
 21
33.518493323138272
  0
LINE
  8
_0-2_0-10
  6
CONTINUOUS
 62
    4
 10
219.26833915898373
 20
33.518493323138272
 11
219.76833915898362
 21
33.518493323138272
  0
LINE
  8
_0-2_0-10
  6
CONTINUOUS
 62
    4
 10
11.768339158983678
 20
46.155782656471728
 11
11.768339158983678
 21
33.518493323138272
  0
LINE
  8
_0-2_0-10
  6
CONTINUOUS
 62
    4
 10
12.268339158983678
 20
46.155782656471728
 11
12.268339158983678
 21
33.518493323138272
  0
LINE
  8
_0-2_0-10
  6
CONTINUOUS
 62
    4
 10
12.268339158983678
 20
33.518493323138272
 11
11.768339158983678
 21
33.518493323138272
  0
ARC
  8
_0-2_0-10
  6
CONTINUOUS
 62
    4
 10
115.7683591589834
 20
748.62264852981923
 40
722.6271205400144
 50
261.72529459576071
 51
278.27470540423928
  0
ARC
  8
_0-2_0-10
  6
CONTINUOUS
 62
    4
 10
115.768354557142
 20
747.27320550321348
 40
720.9241241800754
 50
261.74576606327559
 51
278.25423169034672
  0
LINE
  8
_0-2_0-10
  6
CONTINUOUS
 62
    4
 10
11.768339158983678
 20
46.155782656471728
 11
17.768339158983678
 21
46.155782656471728
  0
LINE
  8
_0-2_0-10
  6
CONTINUOUS
 62
    4
 10
12.268339158983678
 20
43.746553323138414
 11
17.768339158983678
 21
43.746553323138414
  0
LINE
  8
_0-2_0-10
  6
CONTINUOUS
 62
    4
 10
98.614742894317004
 20
46.155782656471728
 11
204.2683391589837
 21
46.155782656471728
  0
LINE
  8
_0-2_0-10
  6
CONTINUOUS
 62
    4
 10
98.272496006250719
 20
43.746553323138414
 11
204.2683391589837
 21
43.746553323138414
  0
LINE
  8
_0-2_0-10
  6
CONTINUOUS
 62
    7
 10
209.26833915898362
 20
183.26849865647159
 11
209.26833915898362
 21
173.72255732313828
  0
LINE
  8
_0-2_0-10
  6
CONTINUOUS
 62
    7
 10
214.04130982565033
 20
178.49552798980508
 11
204.49536849231699
 21
178.49552798980508
  0
LINE
  8
_0-2_0-10
  6
CONTINUOUS
 62
    4
 10
204.0183391589837
 20
246.49552798980491
 11
204.2683391589837
 21
246.49552798980491
  0
LINE
  8
_0-2_0-10
  6
CONTINUOUS
 62
    4
 10
98.822712947921019
 20
47.495527989804941
 11
204.2683391589837
 21
47.495527989804941
  0
LINE
  8
_0-2_0-10
  6
CONTINUOUS
 62
    3
 10
204.2683391589837
 20
246.99552798980491
 11
204.2683391589837
 21
40.995527989804941
  0
LINE
  8
_0-2_0-10
  6
CONTINUOUS
 62
    4
 10
213.76833915898373
 20
46.155782656471728
 11
219.76833915898362
 21
46.155782656471728
  0
LINE
  8
_0-2_0-10
  6
CONTINUOUS
 62
    4
 10
213.76833915898373
 20
43.746553323138414
 11
219.26833915898373
 21
43.746553323138414
  0
LINE
  8
_0-2_0-10
  6
CONTINUOUS
 62
    7
 10
131.6546751589837
 20
246.99552798980491
 11
131.77813382565031
 21
244.61706265647157
  0
LINE
  8
_0-2_0-10
  6
CONTINUOUS
 62
    7
 10
131.77813382565031
 20
244.61706265647157
 11
131.87217382565032
 21
242.73950932313809
  0
LINE
  8
_0-2_0-10
  6
CONTINUOUS
 62
    7
 10
131.87217382565032
 20
242.73950932313809
 11
131.95928182565032
 21
240.8637786564715
  0
LINE
  8
_0-2_0-10
  6
CONTINUOUS
 62
    7
 10
131.95928182565032
 20
240.8637786564715
 11
132.0359938256503
 21
238.99078132313829
  0
LINE
  8
_0-2_0-10
  6
CONTINUOUS
 62
    7
 10
132.0359938256503
 20
238.99078132313829
 11
132.09884315898372
 21
237.12143065647157
  0
LINE
  8
_0-2_0-10
  6
CONTINUOUS
 62
    7
 10
132.09884315898372
 20
237.12143065647157
 11
132.144364492317
 21
235.2566386564716
  0
LINE
  8
_0-2_0-10
  6
CONTINUOUS
 62
    7
 10
132.144364492317
 20
235.2566386564716
 11
132.16909115898371
 21
233.39731332313832
  0
LINE
  8
_0-2_0-10
  6
CONTINUOUS
 62
    7
 10
132.16909115898371
 20
233.39731332313832
 11
132.16955915898361
 21
231.5443706564715
  0
LINE
  8
_0-2_0-10
  6
CONTINUOUS
 62
    7
 10
132.16955915898361
 20
231.5443706564715
 11
132.14230182565032
 21
229.69871865647158
  0
LINE
  8
_0-2_0-10
  6
CONTINUOUS
 62
    7
 10
132.14230182565032
 20
229.69871865647158
 11
132.08385382565032
 21
227.86126932313808
  0
LINE
  8
_0-2_0-10
  6
CONTINUOUS
 62
    7
 10
132.08385382565032
 20
227.86126932313808
 11
131.99074982565031
 21
226.03293598980488
  0
LINE
  8
_0-2_0-10
  6
CONTINUOUS
 62
    7
 10
131.99074982565031
 20
226.03293598980488
 11
131.85952315898362
 21
224.21462798980476
  0
LINE
  8
_0-2_0-10
  6
CONTINUOUS
 62
    7
 10
131.85952315898362
 20
224.21462798980476
 11
131.68670849231702
 21
222.40725865647149
  0
LINE
  8
_0-2_0-10
  6
CONTINUOUS
 62
    7
 10
131.68670849231702
 20
222.40725865647149
 11
131.46884182565031
 21
220.61173865647148
  0
LINE
  8
_0-2_0-10
  6
CONTINUOUS
 62
    7
 10
131.46884182565031
 20
220.61173865647148
 11
131.20245649231702
 21
218.82897865647149
  0
LINE
  8
_0-2_0-10
  6
CONTINUOUS
 62
    7
 10
131.20245649231702
 20
218.82897865647149
 11
130.88408582565031
 21
190.5598906564717
  0
LINE
  8
_0-2_0-10
  6
CONTINUOUS
 62
    7
 10
130.88408582565031
 20
190.5598906564717
 11
130.51026582565032
 21
188.80538665647168
  0
LINE
  8
_0-2_0-10
  6
CONTINUOUS
 62
    7
 10
130.51026582565032
 20
188.80538665647168
 11
130.07752849231701
 21
187.06637865647169
  0
LINE
  8
_0-2_0-10
  6
CONTINUOUS
 62
    7
 10
130.07752849231701
 20
187.06637865647169
 11
129.58241115898371
 21
185.34377732313828
  0
LINE
  8
_0-2_0-10
  6
CONTINUOUS
 62
    7
 10
129.58241115898371
 20
185.34377732313828
 11
129.02144715898361
 21
183.63849332313839
  0
LINE
  8
_0-2_0-10
  6
CONTINUOUS
 62
    7
 10
129.02144715898361
 20
183.63849332313839
 11
128.3911698256503
 21
181.95143998980498
  0
LINE
  8
_0-2_0-10
  6
CONTINUOUS
 62
    7
 10
128.3911698256503
 20
181.95143998980498
 11
127.82931782565032
 21
180.60008132313828
  0
LINE
  8
_0-2_0-10
  6
CONTINUOUS
 62
    7
 10
127.82931782565032
 20
180.60008132313828
 11
127.22529382565031
 21
179.25988932313839
  0
LINE
  8
_0-2_0-10
  6
CONTINUOUS
 62
    7
 10
127.22529382565031
 20
179.25988932313839
 11
126.584568492317
 21
177.92949465647168
  0
LINE
  8
_0-2_0-10
  6
CONTINUOUS
 62
    7
 10
126.584568492317
 20
177.92949465647168
 11
125.91261515898361
 21
176.60753332313839
  0
LINE
  8
_0-2_0-10
  6
CONTINUOUS
 62
    7
 10
125.91261515898361
 20
176.60753332313839
 11
125.2149058256503
 21
175.29263865647158
  0
LINE
  8
_0-2_0-10
  6
CONTINUOUS
 62
    7
 10
125.2149058256503
 20
175.29263865647158
 11
124.49691115898359
 21
173.98344532313848
  0
LINE
  8
_0-2_0-10
  6
CONTINUOUS
 62
    7
 10
124.49691115898359
 20
173.98344532313848
 11
123.7641058256503
 21
172.6785853231384
  0
LINE
  8
_0-2_0-10
  6
CONTINUOUS
 62
    7
 10
123.7641058256503
 20
172.6785853231384
 11
123.02196049231702
 21
171.37669465647158
  0
LINE
  8
_0-2_0-10
  6
CONTINUOUS
 62
    7
 10
123.02196049231702
 20
171.37669465647158
 11
122.27594715898358
 21
170.0764066564717
  0
LINE
  8
_0-2_0-10
  6
CONTINUOUS
 62
    7
 10
122.27594715898358
 20
170.0764066564717
 11
121.5315391589836
 21
168.77635465647168
  0
LINE
  8
_0-2_0-10
  6
CONTINUOUS
 62
    7
 10
121.5315391589836
 20
168.77635465647168
 11
120.79420849231701
 21
167.4751733231383
  0
LINE
  8
_0-2_0-10
  6
CONTINUOUS
 62
    7
 10
120.79420849231701
 20
167.4751733231383
 11
120.06942715898361
 21
166.17149598980498
  0
LINE
  8
_0-2_0-10
  6
CONTINUOUS
 62
    7
 10
120.06942715898361
 20
166.17149598980498
 11
119.36266849231698
 21
164.86395598980499
  0
LINE
  8
_0-2_0-10
  6
CONTINUOUS
 62
    7
 10
119.36266849231698
 20
164.86395598980499
 11
118.6794018256503
 21
163.5511893231384
  0
LINE
  8
_0-2_0-10
  6
CONTINUOUS
 62
    7
 10
118.6794018256503
 20
163.5511893231384
 11
118.02510182565032
 21
162.23182798980499
  0
LINE
  8
_0-2_0-10
  6
CONTINUOUS
 62
    7
 10
118.02510182565032
 20
162.23182798980499
 11
117.40524049231692
 21
160.90450665647168
  0
LINE
  8
_0-2_0-10
  6
CONTINUOUS
 62
    7
 10
117.40524049231692
 20
160.90450665647168
 11
116.82528982565031
 21
159.56785998980498
  0
LINE
  8
_0-2_0-10
  6
CONTINUOUS
 62
    7
 10
116.82528982565031
 20
159.56785998980498
 11
116.29072182565029
 21
158.22051998980498
  0
LINE
  8
_0-2_0-10
  6
CONTINUOUS
 62
    7
 10
116.29072182565029
 20
158.22051998980498
 11
115.80700849231699
 21
156.8611226564717
  0
LINE
  8
_0-2_0-10
  6
CONTINUOUS
 62
    7
 10
115.80700849231699
 20
156.8611226564717
 11
115.3796231589837
 21
155.488299989805
  0
LINE
  8
_0-2_0-10
  6
CONTINUOUS
 62
    7
 10
115.3796231589837
 20
155.488299989805
 11
115.014036492317
 21
154.10068798980498
  0
LINE
  8
_0-2_0-10
  6
CONTINUOUS
 62
    7
 10
115.014036492317
 20
154.10068798980498
 11
114.69844449231699
 21
152.61557598980499
  0
LINE
  8
_0-2_0-10
  6
CONTINUOUS
 62
    7
 10
114.69844449231699
 20
152.61557598980499
 11
114.45161382565028
 21
151.11387998980498
  0
LINE
  8
_0-2_0-10
  6
CONTINUOUS
 62
    7
 10
114.45161382565028
 20
151.11387998980498
 11
114.267008492317
 21
149.597099989805
  0
LINE
  8
_0-2_0-10
  6
CONTINUOUS
 62
    7
 10
114.267008492317
 20
149.597099989805
 11
114.138096492317
 21
148.06673598980498
  0
LINE
  8
_0-2_0-10
  6
CONTINUOUS
 62
    7
 10
114.138096492317
 20
148.06673598980498
 11
114.05834582565032
 21
146.52428798980508
  0
LINE
  8
_0-2_0-10
  6
CONTINUOUS
 62
    7
 10
114.05834582565032
 20
146.52428798980508
 11
114.02122049231701
 21
144.971255989805
  0
LINE
  8
_0-2_0-10
  6
CONTINUOUS
 62
    7
 10
114.02122049231701
 20
144.971255989805
 11
114.0201898256503
 21
143.40913865647169
  0
LINE
  8
_0-2_0-10
  6
CONTINUOUS
 62
    7
 10
114.0201898256503
 20
143.40913865647169
 11
114.0487178256503
 21
141.83943598980499
  0
LINE
  8
_0-2_0-10
  6
CONTINUOUS
 62
    7
 10
114.0487178256503
 20
141.83943598980499
 11
114.100272492317
 21
140.263647989805
  0
LINE
  8
_0-2_0-10
  6
CONTINUOUS
 62
    7
 10
114.100272492317
 20
140.263647989805
 11
114.16832049231699
 21
138.6832733231383
  0
LINE
  8
_0-2_0-10
  6
CONTINUOUS
 62
    7
 10
114.16832049231699
 20
138.6832733231383
 11
114.246328492317
 21
137.0998133231383
  0
LINE
  8
_0-2_0-10
  6
CONTINUOUS
 62
    7
 10
114.246328492317
 20
137.0998133231383
 11
114.32776182565028
 21
135.51476665647169
  0
LINE
  8
_0-2_0-10
  6
CONTINUOUS
 62
    7
 10
114.32776182565028
 20
135.51476665647169
 11
114.40608849231702
 21
133.92963198980498
  0
LINE
  8
_0-2_0-10
  6
CONTINUOUS
 62
    7
 10
114.40608849231702
 20
133.92963198980498
 11
114.4747751589836
 21
132.34591198980498
  0
LINE
  8
_0-2_0-10
  6
CONTINUOUS
 62
    7
 10
114.4747751589836
 20
132.34591198980498
 11
114.52728849231701
 21
130.76510265647178
  0
LINE
  8
_0-2_0-10
  6
CONTINUOUS
 62
    7
 10
114.52728849231701
 20
130.76510265647178
 11
114.55709382565028
 21
129.18870665647159
  0
LINE
  8
_0-2_0-10
  6
CONTINUOUS
 62
    7
 10
114.55709382565028
 20
129.18870665647159
 11
114.55765915898362
 21
127.6182226564716
  0
LINE
  8
_0-2_0-10
  6
CONTINUOUS
 62
    7
 10
114.55765915898362
 20
127.6182226564716
 11
114.52245115898361
 21
126.05514932313839
  0
LINE
  8
_0-2_0-10
  6
CONTINUOUS
 62
    7
 10
114.52245115898361
 20
126.05514932313839
 11
114.44493515898372
 21
124.50098798980498
  0
LINE
  8
_0-2_0-10
  6
CONTINUOUS
 62
    7
 10
114.44493515898372
 20
124.50098798980498
 11
114.31857782565032
 21
122.95723732313828
  0
LINE
  8
_0-2_0-10
  6
CONTINUOUS
 62
    7
 10
114.31857782565032
 20
122.95723732313828
 11
114.13684715898361
 21
121.42539598980499
  0
LINE
  8
_0-2_0-10
  6
CONTINUOUS
 62
    7
 10
114.13684715898361
 20
121.42539598980499
 11
113.834956492317
 21
119.57965865647169
  0
LINE
  8
_0-2_0-10
  6
CONTINUOUS
 62
    7
 10
113.834956492317
 20
119.57965865647169
 11
113.44911115898361
 21
117.7520146564716
  0
LINE
  8
_0-2_0-10
  6
CONTINUOUS
 62
    7
 10
113.44911115898361
 20
117.7520146564716
 11
112.98694582565029
 21
115.9407226564717
  0
LINE
  8
_0-2_0-10
  6
CONTINUOUS
 62
    7
 10
112.98694582565029
 20
115.9407226564717
 11
112.45609649231701
 21
114.14403732313829
  0
LINE
  8
_0-2_0-10
  6
CONTINUOUS
 62
    7
 10
112.45609649231701
 20
114.14403732313829
 11
111.86419782565029
 21
112.36021465647168
  0
LINE
  8
_0-2_0-10
  6
CONTINUOUS
 62
    7
 10
111.86419782565029
 20
112.36021465647168
 11
111.21888449231701
 21
110.587507989805
  0
LINE
  8
_0-2_0-10
  6
CONTINUOUS
 62
    7
 10
111.21888449231701
 20
110.587507989805
 11
110.5277911589837
 21
108.82417598980498
  0
LINE
  8
_0-2_0-10
  6
CONTINUOUS
 62
    7
 10
110.5277911589837
 20
108.82417598980498
 11
109.79855249231701
 21
107.0684733231383
  0
LINE
  8
_0-2_0-10
  6
CONTINUOUS
 62
    7
 10
109.79855249231701
 20
107.0684733231383
 11
109.03880315898362
 21
105.31865465647159
  0
LINE
  8
_0-2_0-10
  6
CONTINUOUS
 62
    7
 10
109.03880315898362
 20
105.31865465647159
 11
108.25617915898358
 21
103.57297598980487
  0
LINE
  8
_0-2_0-10
  6
CONTINUOUS
 62
    7
 10
108.25617915898358
 20
103.57297598980487
 11
107.45831515898362
 21
101.8296933231384
  0
LINE
  8
_0-2_0-10
  6
CONTINUOUS
 62
    7
 10
107.45831515898362
 20
101.8296933231384
 11
106.6528458256503
 21
100.0870626564716
  0
LINE
  8
_0-2_0-10
  6
CONTINUOUS
 62
    7
 10
106.6528458256503
 20
100.0870626564716
 11
105.84740449231702
 21
98.343338656471701
  0
LINE
  8
_0-2_0-10
  6
CONTINUOUS
 62
    7
 10
105.84740449231702
 20
98.343338656471701
 11
105.04962849231698
 21
96.596775989804996
  0
LINE
  8
_0-2_0-10
  6
CONTINUOUS
 62
    7
 10
105.04962849231698
 20
96.596775989804996
 11
104.26715115898359
 21
94.845631989804985
  0
LINE
  8
_0-2_0-10
  6
CONTINUOUS
 62
    7
 10
104.26715115898359
 20
94.845631989804985
 11
103.507608492317
 21
93.088162656471695
  0
LINE
  8
_0-2_0-10
  6
CONTINUOUS
 62
    7
 10
103.507608492317
 20
93.088162656471695
 11
102.7786338256503
 21
91.322621323138392
  0
LINE
  8
_0-2_0-10
  6
CONTINUOUS
 62
    7
 10
102.7786338256503
 20
91.322621323138392
 11
102.08786182565032
 21
89.547265323136997
  0
LINE
  8
_0-2_0-10
  6
CONTINUOUS
 62
    7
 10
102.08786182565032
 20
89.547265323136997
 11
101.44292982565031
 21
87.7603506564717
  0
LINE
  8
_0-2_0-10
  6
CONTINUOUS
 62
    7
 10
101.44292982565031
 20
87.7603506564717
 11
100.85147115898358
 21
85.960130656471591
  0
LINE
  8
_0-2_0-10
  6
CONTINUOUS
 62
    7
 10
100.85147115898358
 20
85.960130656471591
 11
100.32112049231689
 21
84.144862656471701
  0
LINE
  8
_0-2_0-10
  6
CONTINUOUS
 62
    7
 10
100.32112049231689
 20
84.144862656471701
 11
100.15187515898361
 21
83.508177323138397
  0
LINE
  8
_0-2_0-10
  6
CONTINUOUS
 62
    7
 10
100.15187515898361
 20
83.508177323138397
 11
99.990587158983601
 21
82.869547989804999
  0
LINE
  8
_0-2_0-10
  6
CONTINUOUS
 62
    7
 10
99.990587158983601
 20
82.869547989804999
 11
99.836859158983713
 21
82.229071989804992
  0
LINE
  8
_0-2_0-10
  6
CONTINUOUS
 62
    7
 10
99.836859158983713
 20
82.229071989804992
 11
99.690292492317013
 21
52.086846656471607
  0
LINE
  8
_0-2_0-10
  6
CONTINUOUS
 62
    7
 10
99.690292492317013
 20
52.086846656471607
 11
99.550489825650316
 21
51.442969323138299
  0
LINE
  8
_0-2_0-10
  6
CONTINUOUS
 62
    7
 10
99.550489825650316
 20
51.442969323138299
 11
99.417052492317026
 21
50.797537323138385
  0
LINE
  8
_0-2_0-10
  6
CONTINUOUS
 62
    7
 10
99.417052492317026
 20
50.797537323138385
 11
99.289583158983703
 21
50.150646656471622
  0
LINE
  8
_0-2_0-10
  6
CONTINUOUS
 62
    7
 10
99.289583158983703
 20
50.150646656471622
 11
99.167684492316908
 21
49.502394656471651
  0
LINE
  8
_0-2_0-10
  6
CONTINUOUS
 62
    7
 10
99.167684492316908
 20
49.502394656471651
 11
99.0509578256503
 21
48.852879989805046
  0
LINE
  8
_0-2_0-10
  6
CONTINUOUS
 62
    7
 10
99.0509578256503
 20
48.852879989805046
 11
98.939005825650298
 21
48.202198656471637
  0
LINE
  8
_0-2_0-10
  6
CONTINUOUS
 62
    7
 10
98.939005825650298
 20
48.202198656471637
 11
98.831429825650303
 21
47.550449323138309
  0
LINE
  8
_0-2_0-10
  6
CONTINUOUS
 62
    7
 10
98.831429825650303
 20
47.550449323138309
 11
98.72783249231702
 21
46.897726656471604
  0
LINE
  8
_0-2_0-10
  6
CONTINUOUS
 62
    7
 10
98.72783249231702
 20
46.897726656471604
 11
98.627816492316924
 21
46.244130656471725
  0
LINE
  8
_0-2_0-10
  6
CONTINUOUS
 62
    7
 10
98.627816492316924
 20
46.244130656471725
 11
98.530983158983701
 21
45.58975598980497
  0
LINE
  8
_0-2_0-10
  6
CONTINUOUS
 62
    7
 10
98.530983158983701
 20
45.58975598980497
 11
98.436935158983601
 21
44.934701323138369
  0
LINE
  8
_0-2_0-10
  6
CONTINUOUS
 62
    7
 10
98.436935158983601
 20
44.934701323138369
 11
98.345273825650309
 21
44.279062656471637
  0
LINE
  8
_0-2_0-10
  6
CONTINUOUS
 62
    7
 10
98.345273825650309
 20
44.279062656471637
 11
98.255601825650302
 21
43.62293998980499
  0
LINE
  8
_0-2_0-10
  6
CONTINUOUS
 62
    7
 10
98.255601825650302
 20
43.62293998980499
 11
98.167521825650311
 21
42.966426656471639
  0
LINE
  8
_0-2_0-10
  6
CONTINUOUS
 62
    7
 10
98.167521825650311
 20
42.966426656471639
 11
98.080635158983625
 21
42.30962265647166
  0
LINE
  8
_0-2_0-10
  6
CONTINUOUS
 62
    7
 10
98.080635158983625
 20
42.30962265647166
 11
97.994544492317004
 21
41.652623989804965
  0
LINE
  8
_0-2_0-10
  6
CONTINUOUS
 62
    7
 10
97.994544492317004
 20
41.652623989804965
 11
97.908851158983708
 21
40.995527989804941
  0
LINE
  8
_0-2_0-10
  6
CONTINUOUS
 62
    3
 10
204.2683391589837
 20
40.995527989804941
 11
17.768339158983678
 21
40.995527989804941
  0
LINE
  8
_0-2_0-10
  6
CONTINUOUS
 62
    3
 10
157.6546751589837
 20
246.99552798980491
 11
17.768339158983678
 21
246.99552798980491
  0
LINE
  8
_0-2_0-10
  6
CONTINUOUS
 62
    5
 10
132.09209026015381
 20
228.12020087062577
 11
191.58790449231702
 21
222.9149893231382
  0
LINE
  8
_0-2_0-10
  6
CONTINUOUS
 62
    5
 10
158.15496849231701
 20
230.55638932313817
 11
189.00881782565042
 21
227.85702798980489
  0
LINE
  8
_0-2_0-10
  6
CONTINUOUS
 62
    5
 10
132.16920179880921
 20
232.95925936283268
 11
189.0200538256503
 21
227.98545332313821
  0
LINE
  8
_0-2_0-10
  6
CONTINUOUS
 62
    5
 10
132.06162513910712
 20
238.22841980939008
 11
203.5183391589837
 21
231.97676665647148
  0
LINE
  8
_0-2_0-10
  6
CONTINUOUS
 62
    5
 10
191.7471698256503
 20
224.73540265647162
 11
191.58790449231702
 21
222.9149893231382
  0
LINE
  8
_0-2_0-10
  6
CONTINUOUS
 62
    5
 10
204.0183391589837
 20
246.99552798980491
 11
157.6546751589837
 21
246.99552798980491
  0
LINE
  8
_0-2_0-10
  6
CONTINUOUS
 62
    5
 10
192.28353515898371
 20
224.22790265647151
 11
203.5183391589837
 21
223.24498532313819
  0
LINE
  8
_0-2_0-10
  6
CONTINUOUS
 62
    5
 10
192.24019782565031
 20
223.74959198980477
 11
203.47476049231701
 21
222.76669465647151
  0
ARC
  8
_0-2_0-10
  6
CONTINUOUS
 62
    5
 10
192.23124182565041
 20
223.63018665647157
 40
0.5999999999999997
 50
85.000000000000227
 51
159.63548999999829
  0
ARC
  8
_0-2_0-10
  6
CONTINUOUS
 62
    5
 10
192.18790449231701
 20
223.1518746564715
 40
0.5999999999999997
 50
85.000000000000227
 51
159.1091209999991
  0
ARC
  8
_0-2_0-10
  6
CONTINUOUS
 62
    5
 10
188.7473498256503
 20
224.86844398980477
 40
3
 50
355.00000000000022
 51
85.000000000000213
  0
ARC
  8
_0-2_0-10
  6
CONTINUOUS
 62
    5
 10
188.75858582565041
 20
224.99686932313821
 40
3
 50
355.00000000000022
 51
85.000000000000213
  0
LINE
  8
_0-2_0-10
  6
CONTINUOUS
 62
    5
 10
204.0183391589837
 20
246.99552798980491
 11
204.0183391589837
 21
223.26479198980499
  0
LINE
  8
_0-2_0-10
  6
CONTINUOUS
 62
    5
 10
203.5183391589837
 20
246.99552798980491
 11
203.5183391589837
 21
223.24498532313819
  0
ARC
  8
_0-2_0-10
  6
CONTINUOUS
 62
    5
 10
203.5183391589837
 20
223.26479198980499
 40
0.5
 50
265.00000000000022
 51
0
  0
LINE
  8
_0-2_0-10
  6
CONTINUOUS
 62
    5
 10
203.5183391589837
 20
227.74101065647161
 11
204.0183391589837
 21
227.74101065647161
  0
LINE
  8
_0-2_0-10
  6
CONTINUOUS
 62
    5
 10
203.5183391589837
 20
235.40786665647149
 11
204.0183391589837
 21
235.40786665647149
  0
LINE
  8
_0-2_0-10
  6
CONTINUOUS
 62
    7
 10
209.26833915898362
 20
178.49552798980508
 11
218.34996530037972
 21
166.03149270155699
  0
TEXT
  8
_0-2_0-10
 62
    7
 10
221.28834046283571
 20
167.5798681216757
 40
3.1199999999999992
 41
1
 50
0
  1
2-φ4.3
  0
LINE
  8
_0-2_0-10
  6
CONTINUOUS
 62
    7
 10
240.0681632468183
 20
166.03149270155699
 11
218.34996530037972
 21
166.03149270155699
  0
INSERT
  2
-038-_D38
  8
_0-0_0
 10
-51.007689229217987
 20
-35.504471318687905
 41
1
 42
1
 50
0
  0
INSERT
  2
-039-_D39
  8
_0-0_0
 10
-51.007689229217987
 20
-35.504471318687905
 41
1
 42
1
 50
0
  0
INSERT
  2
-040-_D40
  8
_0-0_0
 10
-51.007689229217987
 20
-35.504471318687905
 41
1
 42
1
 50
0
  0
CIRCLE
  8
_0-2_0-10
  6
CONTINUOUS
 62
    3
 10
209.26833915898362
 20
178.49552798980499
 40
2.149999999999999
  0
TEXT
  8
_0-1_0-00
 62
    7
 10
228.11731101525418
 20
-25.641971145811169
 40
4.875
 41
1
 50
0
  1
マックス株式会社
  0
TEXT
  8
_0-1_0-00
 62
    7
 10
308.53356101525429
 20
-25.641971145811169
 40
4.875
 41
1
 50
0
  1
2024/1/9
  0
TEXT
  8
_0-1_0-00
 62
    7
 10
371.8673110152543
 20
-21.986971145811168
 40
2.9249999999999989
 41
1
 50
0
  1
名称
  0
TEXT
  8
_0-1_0-00
 62
    7
 10
296.86731101525418
 20
-21.986971145811168
 40
2.9249999999999989
 41
1
 50
0
  1
日付
  0
ARC
  8
_0-2_0-10
  6
CONTINUOUS
 62
    4
 10
112.1317412208393
 20
148.49552798980508
 40
82.963917525773183
 50
261.42407869909288
 51
306.86989800000071
  0
LINE
  8
_0-2_0-10
  6
CONTINUOUS
 62
    4
 10
131.30282450967101
 20
219.50068262898039
 11
148.00802988063321
 21
219.50068262898039
  0
LINE
  8
_0-2_0-10
  6
CONTINUOUS
 62
    4
 10
131.20610510191031
 20
218.853396649599
 11
148.00802988063321
 21
218.853396649599
  0
LINE
  8
_0-2_0-10
  6
CONTINUOUS
 62
    4
 10
131.0079992771588
 20
201.56253829908339
 11
166.0007380593274
 21
201.56253829908339
  0
LINE
  8
_0-2_0-10
  6
CONTINUOUS
 62
    4
 10
131.00070944634501
 20
200.915252319702
 11
166.0007380593274
 21
200.915252319702
  0
LINE
  8
_0-2_0-10
  6
CONTINUOUS
 62
    4
 10
131.0795487514425
 20
207.91563108258858
 11
156.2851221830387
 21
207.91563108258858
  0
LINE
  8
_0-2_0-10
  6
CONTINUOUS
 62
    4
 10
130.75999706477492
 20
189.9774867526917
 11
171.50855159884631
 21
189.9774867526917
  0
LINE
  8
_0-2_0-10
  6
CONTINUOUS
 62
    4
 10
129.01617968875322
 20
183.62439396918648
 11
175.2773357912861
 21
183.62439396918648
  0
LINE
  8
_0-2_0-10
  6
CONTINUOUS
 62
    4
 10
128.7743558691217
 20
182.97710798980489
 11
175.2773357912861
 21
182.977107989805
  0
LINE
  8
_0-2_0-10
  6
CONTINUOUS
 62
    4
 10
123.39970415391002
 20
172.0393424227947
 11
179.75290678784972
 21
172.03934242279478
  0
LINE
  8
_0-2_0-10
  6
CONTINUOUS
 62
    4
 10
119.80713914967222
 20
165.68624963928959
 11
179.62733977754041
 21
165.68624963928959
  0
LINE
  8
_0-2_0-10
  6
CONTINUOUS
 62
    4
 10
119.45726459459949
 20
165.038963659908
 11
179.62733977754041
 21
165.03896365990809
  0
LINE
  8
_0-2_0-10
  6
CONTINUOUS
 62
    4
 10
115.0141708864339
 20
154.10119809289778
 11
182.7041700180903
 21
154.10119809289778
  0
LINE
  8
_0-2_0-10
  6
CONTINUOUS
 62
    4
 10
114.12162202498751
 20
147.74810530939268
 11
180.0973929046882
 21
147.74810530939268
  0
LINE
  8
_0-2_0-10
  6
CONTINUOUS
 62
    4
 10
114.08815477787152
 20
147.10081933001109
 11
180.0973929046882
 21
147.10081933001109
  0
LINE
  8
_0-2_0-10
  6
CONTINUOUS
 62
    4
 10
114.29445543716852
 20
136.1630537630009
 11
181.8237937981589
 21
136.1630537630009
  0
LINE
  8
_0-2_0-10
  6
CONTINUOUS
 62
    4
 10
114.5453476069448
 20
129.80996097949579
 11
175.88724465726551
 21
129.80996097949579
  0
LINE
  8
_0-2_0-10
  6
CONTINUOUS
 62
    4
 10
114.5571031963685
 20
129.1626750001142
 11
175.88724465726551
 21
129.1626750001142
  0
LINE
  8
_0-2_0-10
  6
CONTINUOUS
 62
    4
 10
113.5489469271755
 20
118.22490943310397
 11
176.57823592874311
 21
118.22490943310397
  0
LINE
  8
_0-2_0-10
  6
CONTINUOUS
 62
    4
 10
111.68640769729178
 20
111.87181664959868
 11
165.74221352324491
 21
111.87181664959868
  0
LINE
  8
_0-2_0-10
  6
CONTINUOUS
 62
    4
 10
111.4507780351324
 20
111.22453067021729
 11
165.74221352324491
 21
111.22453067021729
  0
LINE
  8
_0-2_0-10
  6
CONTINUOUS
 62
    4
 10
106.7451512118195
 20
100.28676510320697
 11
166.04447524145791
 21
100.28676510320697
  0
LINE
  8
_0-2_0-10
  6
CONTINUOUS
 62
    4
 10
103.87302065179071
 20
93.933672319701798
 11
143.36766115211079
 21
93.933672319701798
  0
LINE
  8
_0-2_0-10
  6
CONTINUOUS
 62
    4
 10
103.59327675552441
 20
93.286386340320404
 11
143.36766115211079
 21
93.286386340320404
  0
LINE
  8
_0-2_0-10
  6
CONTINUOUS
 62
    4
 10
99.865553435413517
 20
82.348620773310088
 11
147.34982555073631
 21
82.348620773310088
  0
ARC
  8
_0-2_0-10
  6
CONTINUOUS
 62
    4
 10
112.1317412208393
 20
148.49552798980508
 40
82.963917525773183
 50
261.42407869909288
 51
72.705860587864791
  0
ARC
  8
_0-2_0-10
  6
CONTINUOUS
 62
    4
 10
112.1317412208393
 20
148.49552798980508
 40
82.963917525773183
 50
35.78176100000082
 51
46.365534999998686
  0
LINE
  8
_0-2_0-10
  6
CONTINUOUS
 62
    7
 10
156.2992992964408
 20
82.722332113516188
 11
149.5724951727293
 21
82.722332113516188
  0
LINE
  8
_0-2_0-10
  6
CONTINUOUS
 62
    4
 10
161.46163812805582
 20
83.469754793928601
 11
157.95185881534112
 21
83.469754793928601
  0
LINE
  8
_0-2_0-10
  6
CONTINUOUS
 62
    4
 10
168.1435789527982
 20
87.954290876402794
 11
163.06049682221402
 21
87.954290876402794
  0
LINE
  8
_0-2_0-10
  6
CONTINUOUS
 62
    7
 10
174.7389582655129
 20
100.6604764434131
 11
168.0121541418016
 21
100.6604764434131
  0
LINE
  8
_0-2_0-10
  6
CONTINUOUS
 62
    4
 10
178.7086018393962
 20
101.4078991238255
 11
176.30407730331361
 21
101.4078991238255
  0
LINE
  8
_0-2_0-10
  6
CONTINUOUS
 62
    4
 10
182.38311111774672
 20
105.89243520629969
 11
178.95687771568472
 21
105.89243520629969
  0
LINE
  8
_0-2_0-10
  6
CONTINUOUS
 62
    4
 10
190.23651640984292
 20
123.83057953619679
 11
188.18127744077071
 21
123.83057953619679
  0
LINE
  8
_0-2_0-10
  6
CONTINUOUS
 62
    4
 10
188.28087001809021
 20
119.34604345372258
 11
186.30885207994592
 21
119.34604345372258
  0
LINE
  8
_0-2_0-10
  6
CONTINUOUS
 62
    7
 10
185.07945537891501
 20
118.59862077331017
 11
178.35265125520362
 21
118.59862077331017
  0
LINE
  8
_0-2_0-10
  6
CONTINUOUS
 62
    4
 10
193.5726943479872
 20
141.76872386609369
 11
191.77895565382911
 21
141.76872386609369
  0
LINE
  8
_0-2_0-10
  6
CONTINUOUS
 62
    7
 10
190.0942370283995
 20
136.5367651032071
 11
183.3674329046882
 21
136.5367651032071
  0
LINE
  8
_0-2_0-10
  6
CONTINUOUS
 62
    4
 10
192.95298527582221
 20
159.7068681959906
 11
190.50969840297
 21
159.7068681959906
  0
LINE
  8
_0-2_0-10
  6
CONTINUOUS
 62
    7
 10
190.7551938668875
 20
154.47490943310398
 11
184.0283897431762
 21
154.47490943310398
  0
LINE
  8
_0-2_0-10
  6
CONTINUOUS
 62
    4
 10
190.23651640984292
 20
173.1604764434133
 11
188.2566475438634
 21
173.1604764434133
  0
LINE
  8
_0-2_0-10
  6
CONTINUOUS
 62
    7
 10
187.4895646572655
 20
172.41305376300098
 11
180.7627605335542
 21
172.41305376300098
  0
LINE
  8
_0-2_0-10
  6
CONTINUOUS
 62
    4
 10
178.7086018393962
 20
195.58315685578449
 11
175.69868884970532
 21
195.58315685578449
  0
LINE
  8
_0-2_0-10
  6
CONTINUOUS
 62
    7
 10
178.99430864351981
 20
190.3511980928979
 11
172.26750451980842
 21
190.3511980928979
  0
LINE
  8
_0-2_0-10
  6
CONTINUOUS
 62
    4
 10
161.46163812805582
 20
213.52130118568138
 11
160.02223558510061
 21
213.52130118568138
  0
LINE
  8
_0-2_0-10
  6
CONTINUOUS
 62
    4
 10
168.1435789527982
 20
209.0367651032071
 11
164.09746905589082
 21
209.0367651032071
  0
LINE
  8
_0-2_0-10
  6
CONTINUOUS
 62
    7
 10
163.75934898716241
 20
208.28934242279478
 11
157.0325448634511
 21
208.28934242279478
  0
ARC
  8
_0-2_0-10
  6
CONTINUOUS
 62
    4
 10
112.1317412208393
 20
148.49552798980508
 40
82.963917525773183
 50
313.63446500000128
 51
324.21823899999907
  0
ARC
  8
_0-2_0-10
  6
CONTINUOUS
 62
    4
 10
112.1317412208393
 20
148.49552798980508
 40
82.963917525773183
 50
329.75646699999867
 51
338.36988900000062
  0
ARC
  8
_0-2_0-10
  6
CONTINUOUS
 62
    4
 10
112.1317412208393
 20
148.49552798980508
 40
82.963917525773183
 50
8.7275869999981487
 51
16.523205999999778
  0
LINE
  8
_0-2_0-10
  6
CONTINUOUS
 62
    4
 10
157.0325448634511
 20
210.53161046403189
 11
157.0325448634511
 21
208.28934242279478
  0
LINE
  8
_0-2_0-10
  6
CONTINUOUS
 62
    4
 10
172.7544175094992
 20
193.11262194169498
 11
172.26750451980842
 21
190.3511980928979
  0
LINE
  8
_0-2_0-10
  6
CONTINUOUS
 62
    4
 10
187.07434445108
 20
158.10493609977069
 11
184.0283897431762
 21
154.47490943310398
  0
ARC
  8
_0-2_0-10
  6
CONTINUOUS
 62
    4
 10
160.02223558510061
 20
210.53161046403189
 40
2.9896907216494841
 50
90
 51
180
  0
LINE
  8
_0-2_0-10
  6
CONTINUOUS
 62
    4
 10
178.98579001809031
 20
190.44857032657489
 11
178.99430864351981
 21
190.3511980928979
  0
ARC
  8
_0-2_0-10
  6
CONTINUOUS
 62
    4
 10
175.69868884970532
 20
192.59346613413498
 40
2.9896907216494841
 50
90
 51
170.0000000000013
  0
LINE
  8
_0-2_0-10
  6
CONTINUOUS
 62
    4
 10
187.52838280159539
 20
172.5811879898049
 11
187.4895646572655
 21
172.41305376300098
  0
LINE
  8
_0-2_0-10
  6
CONTINUOUS
 62
    4
 10
190.84049771568481
 20
154.67587445028598
 11
190.7551938668875
 21
154.47490943310398
  0
LINE
  8
_0-2_0-10
  6
CONTINUOUS
 62
    4
 10
187.93548300778101
 20
140.36981568739949
 11
183.3674329046882
 21
136.5367651032071
  0
LINE
  8
_0-2_0-10
  6
CONTINUOUS
 62
    4
 10
183.89423634111432
 20
122.4788805671246
 11
178.35265125520362
 21
118.59862077331017
  0
LINE
  8
_0-2_0-10
  6
CONTINUOUS
 62
    4
 10
190.25391242358861
 20
136.79229994856788
 11
190.0942370283995
 21
136.5367651032071
  0
ARC
  8
_0-2_0-10
  6
CONTINUOUS
 62
    4
 10
190.50969840297
 20
155.22233211351638
 40
4.4845360824742259
 50
90
 51
139.99999999999968
  0
ARC
  8
_0-2_0-10
  6
CONTINUOUS
 62
    4
 10
191.77895565382911
 20
135.7893424227947
 40
5.9793814432989691
 50
90
 51
130.00000000000281
  0
LINE
  8
_0-2_0-10
  6
CONTINUOUS
 62
    4
 10
174.20399496654391
 20
104.52956874581869
 11
168.0121541418016
 21
100.6604764434131
  0
LINE
  8
_0-2_0-10
  6
CONTINUOUS
 62
    4
 10
157.81812197685312
 20
86.743994312828988
 11
149.5724951727293
 21
82.722332113516188
  0
ARC
  8
_0-2_0-10
  6
CONTINUOUS
 62
    4
 10
188.18127744077071
 20
116.3563527320731
 40
7.4742268041237114
 50
90
 51
124.99999999999711
  0
LINE
  8
_0-2_0-10
  6
CONTINUOUS
 62
    4
 10
185.4486104304614
 20
118.980892594614
 11
185.07945537891501
 21
118.59862077331017
  0
ARC
  8
_0-2_0-10
  6
CONTINUOUS
 62
    4
 10
178.95687771568472
 20
96.923363041351308
 40
8.9690721649484537
 50
90
 51
121.99999999999768
  0
LINE
  8
_0-2_0-10
  6
CONTINUOUS
 62
    4
 10
175.4681717363033
 20
101.15233637468469
 11
174.7389582655129
 21
100.6604764434131
  0
ARC
  8
_0-2_0-10
  6
CONTINUOUS
 62
    4
 10
163.06049682221402
 20
75.995527989804898
 40
11.95876288659794
 50
90
 51
116.00000000000197
  0
ARC
  8
_0-2_0-10
  6
CONTINUOUS
 62
    4
 10
161.46163812805582
 20
214.26872386609369
 40
0.7474226804123712
 50
270
 51
53.13010199999934
  0
ARC
  8
_0-2_0-10
  6
CONTINUOUS
 62
    4
 10
178.7086018393962
 20
196.48006407227919
 40
0.896907216494845
 50
270
 51
35.78176100000082
  0
ARC
  8
_0-2_0-10
  6
CONTINUOUS
 62
    4
 10
192.95298527582221
 20
160.90274448465029
 40
1.1958762886597928
 50
270
 51
8.727586999998147
  0
ARC
  8
_0-2_0-10
  6
CONTINUOUS
 62
    4
 10
193.5726943479872
 20
143.11408469083599
 40
1.3453608247422679
 50
270
 51
356.21951400000028
  0
ARC
  8
_0-2_0-10
  6
CONTINUOUS
 62
    4
 10
190.23651640984292
 20
125.32542489702149
 40
1.494845360824742
 50
270
 51
343.47679400000021
  0
ARC
  8
_0-2_0-10
  6
CONTINUOUS
 62
    4
 10
182.38311111774672
 20
107.53676510320697
 40
1.6443298969072159
 50
270
 51
329.75646699999867
  0
ARC
  8
_0-2_0-10
  6
CONTINUOUS
 62
    4
 10
168.1435789527982
 20
89.748105309392599
 40
1.7938144329896898
 50
270
 51
313.63446500000128
  0
ARC
  8
_0-2_0-10
  6
CONTINUOUS
 62
    4
 10
161.46163812805582
 20
82.722332113516188
 40
0.7474226804123712
 50
306.86989800000071
 51
90
  0
ARC
  8
_0-2_0-10
  6
CONTINUOUS
 62
    4
 10
178.7086018393962
 20
100.5109919073308
 40
0.896907216494845
 50
324.21823899999907
 51
89.999999999999928
  0
ARC
  8
_0-2_0-10
  6
CONTINUOUS
 62
    4
 10
188.28087001809021
 20
118.29965170114327
 40
1.0463917525773189
 50
338.36988900000062
 51
90
  0
ARC
  8
_0-2_0-10
  6
CONTINUOUS
 62
    4
 10
190.23651640984292
 20
171.66563108258858
 40
1.494845360824742
 50
16.523205999999778
 51
89.999999999999985
  0
ARC
  8
_0-2_0-10
  6
CONTINUOUS
 62
    4
 10
168.1435789527982
 20
207.24295067021759
 40
1.7938144329896898
 50
46.365534999998686
 51
90
  0
ARC
  8
_0-2_0-10
  6
CONTINUOUS
 62
    4
 10
164.09746905589082
 20
208.58831149495958
 40
0.4484536082474224
 50
90
 51
214.99999999999749
  0
ARC
  8
_0-2_0-10
  6
CONTINUOUS
 62
    4
 10
179.58145400434452
 20
190.5006826289802
 40
0.597938144329897
 50
90
 51
185
  0
ARC
  8
_0-2_0-10
  6
CONTINUOUS
 62
    4
 10
188.2566475438634
 20
172.41305376300098
 40
0.7474226804123712
 50
90
 51
166.99999999999968
  0
ARC
  8
_0-2_0-10
  6
CONTINUOUS
 62
    4
 10
191.66610678784971
 20
154.32542489702149
 40
0.896907216494845
 50
90
 51
157.00000000000062
  0
ARC
  8
_0-2_0-10
  6
CONTINUOUS
 62
    4
 10
191.14130245795291
 20
136.2377960310421
 40
1.0463917525773189
 50
90
 51
147.99999999999769
  0
ARC
  8
_0-2_0-10
  6
CONTINUOUS
 62
    4
 10
186.30885207994592
 20
118.15016716506268
 40
1.1958762886597928
 50
90
 51
135.99999999999729
  0
ARC
  8
_0-2_0-10
  6
CONTINUOUS
 62
    4
 10
176.30407730331361
 20
99.913053763000789
 40
1.494845360824742
 50
90
 51
123.9999999999989
  0
ARC
  8
_0-2_0-10
  6
CONTINUOUS
 62
    4
 10
157.95185881534112
 20
81.67594036093709
 40
1.7938144329896898
 50
90
 51
124.43955700000381
  0
INSERT
  2
-028-BLKF018_35
  8
_0-2_0-10
 10
-74.680566408026606
 20
-208.18860273184441
 41
1.993127147766323
 42
1.993127147766323
 50
0
  0
INSERT
  2
-002-BLKF019_2
  8
_0-2_0-10
 10
-74.680566408026606
 20
-208.18860273184441
 41
1.993127147766323
 42
1.993127147766323
 50
0
  0
LINE
  8
_0-2_0-10
  6
CONTINUOUS
 62
    4
 10
150.99772060228272
 20
220.99552151423657
 11
150.99772060228272
 21
220.34824201042368
  0
INSERT
  2
-003-BLKF020_3
  8
_0-2_0-10
 10
-74.680566408026606
 20
-208.18860273184441
 41
1.993127147766323
 42
1.993127147766323
 50
0
  0
INSERT
  2
-004-BLKF021_4
  8
_0-2_0-10
 10
-74.680566408026606
 20
-208.18860273184441
 41
1.993127147766323
 42
1.993127147766323
 50
0
  0
LINE
  8
_0-2_0-10
  6
CONTINUOUS
 62
    4
 10
163.75934898716241
 20
208.28934242279478
 11
169.06200197685311
 21
204.50285527502819
  0
LINE
  8
_0-2_0-10
  6
CONTINUOUS
 62
    4
 10
169.73785146138922
 20
203.43109500011428
 11
169.73785146138922
 21
202.783809020733
  0
INSERT
  2
-005-BLKF022_5
  8
_0-2_0-10
 10
-74.680566408026606
 20
-208.18860273184441
 41
1.993127147766323
 42
1.993127147766323
 50
0
  0
INSERT
  2
-006-BLKF023_6
  8
_0-2_0-10
 10
-74.680566408026606
 20
-208.18860273184441
 41
1.993127147766323
 42
1.993127147766323
 50
0
  0
INSERT
  2
-007-BLKF024_7
  8
_0-2_0-10
 10
-74.680566408026606
 20
-208.18860273184441
 41
1.993127147766323
 42
1.993127147766323
 50
0
  0
LINE
  8
_0-2_0-10
  6
CONTINUOUS
 62
    4
 10
178.99430864351981
 20
190.3511980928979
 11
179.74480671912121
 21
186.0620901203892
  0
LINE
  8
_0-2_0-10
  6
CONTINUOUS
 62
    4
 10
179.76187187376029
 20
185.86666201042359
 11
179.76187187376029
 21
185.2374317698738
  0
INSERT
  2
-008-BLKF025_8
  8
_0-2_0-10
 10
-74.680566408026606
 20
-208.18860273184441
 41
1.993127147766323
 42
1.993127147766323
 50
0
  0
LINE
  8
_0-2_0-10
  6
CONTINUOUS
 62
    4
 10
172.24461943389792
 20
190.28630386609358
 11
172.26750451980842
 21
190.3511980928979
  0
INSERT
  2
-009-BLKF026_9
  8
_0-2_0-10
 10
-74.680566408026606
 20
-208.18860273184441
 41
1.993127147766323
 42
1.993127147766323
 50
0
  0
INSERT
  2
-010-BLKF027_10
  8
_0-2_0-10
 10
-74.680566408026606
 20
-208.18860273184441
 41
1.993127147766323
 42
1.993127147766323
 50
0
  0
LINE
  8
_0-2_0-10
  6
CONTINUOUS
 62
    4
 10
185.4534696744476
 20
168.00340743997679
 11
187.4895646572655
 21
172.41305376300098
  0
LINE
  8
_0-2_0-10
  6
CONTINUOUS
 62
    4
 10
185.4534696744476
 20
167.35611946746828
 11
187.4895646572655
 21
171.76576778361939
  0
LINE
  8
_0-2_0-10
  6
CONTINUOUS
 62
    4
 10
187.4895646572655
 20
172.41305376300098
 11
187.4895646572655
 21
171.76576778361939
  0
INSERT
  2
-011-BLKF028_11
  8
_0-2_0-10
 10
-74.680566408026606
 20
-208.18860273184441
 41
1.993127147766323
 42
1.993127147766323
 50
0
  0
LINE
  8
_0-2_0-10
  6
CONTINUOUS
 62
    4
 10
180.71611537891502
 20
172.35810922691828
 11
180.7627605335542
 21
172.41305376300098
  0
INSERT
  2
-012-BLKF029_12
  8
_0-2_0-10
 10
-74.680566408026606
 20
-208.18860273184441
 41
1.993127147766323
 42
1.993127147766323
 50
0
  0
INSERT
  2
-013-BLKF030_13
  8
_0-2_0-10
 10
-74.680566408026606
 20
-208.18860273184441
 41
1.993127147766323
 42
1.993127147766323
 50
0
  0
LINE
  8
_0-2_0-10
  6
CONTINUOUS
 62
    4
 10
186.97745455417282
 20
150.0250119073307
 11
190.7551938668875
 21
154.47490943310398
  0
LINE
  8
_0-2_0-10
  6
CONTINUOUS
 62
    4
 10
186.97745455417282
 20
149.3777259279492
 11
190.7551938668875
 21
153.82762345372248
  0
LINE
  8
_0-2_0-10
  6
CONTINUOUS
 62
    4
 10
190.7551938668875
 20
154.47490943310398
 11
190.7551938668875
 21
153.82762345372248
  0
INSERT
  2
-014-BLKF031_14
  8
_0-2_0-10
 10
-74.680566408026606
 20
-208.18860273184441
 41
1.993127147766323
 42
1.993127147766323
 50
0
  0
LINE
  8
_0-2_0-10
  6
CONTINUOUS
 62
    4
 10
183.8492873376779
 20
154.36818743997679
 11
184.0283897431762
 21
154.47490943310398
  0
INSERT
  2
-015-BLKF032_15
  8
_0-2_0-10
 10
-74.680566408026606
 20
-208.18860273184441
 41
1.993127147766323
 42
1.993127147766323
 50
0
  0
INSERT
  2
-016-BLKF033_16
  8
_0-2_0-10
 10
-74.680566408026606
 20
-208.18860273184441
 41
1.993127147766323
 42
1.993127147766323
 50
0
  0
LINE
  8
_0-2_0-10
  6
CONTINUOUS
 62
    4
 10
184.76115098028961
 20
132.26940414100769
 11
190.0942370283995
 21
136.5367651032071
  0
LINE
  8
_0-2_0-10
  6
CONTINUOUS
 62
    4
 10
184.76115098028961
 20
131.62211816162619
 11
190.0942370283995
 21
135.88947912382548
  0
LINE
  8
_0-2_0-10
  6
CONTINUOUS
 62
    4
 10
190.0942370283995
 20
136.5367651032071
 11
190.0942370283995
 21
135.88947912382548
  0
INSERT
  2
-017-BLKF034_17
  8
_0-2_0-10
 10
-74.680566408026606
 20
-208.18860273184441
 41
1.993127147766323
 42
1.993127147766323
 50
0
  0
LINE
  8
_0-2_0-10
  6
CONTINUOUS
 62
    4
 10
182.9768357912861
 20
136.37289018911769
 11
183.3674329046882
 21
136.5367651032071
  0
INSERT
  2
-018-BLKF035_18
  8
_0-2_0-10
 10
-74.680566408026606
 20
-208.18860273184441
 41
1.993127147766323
 42
1.993127147766323
 50
0
  0
INSERT
  2
-019-BLKF036_19
  8
_0-2_0-10
 10
-74.680566408026606
 20
-208.18860273184441
 41
1.993127147766323
 42
1.993127147766323
 50
0
  0
LINE
  8
_0-2_0-10
  6
CONTINUOUS
 62
    4
 10
176.49523214867451
 20
114.15400902073278
 11
185.07945537891501
 21
118.59862077331017
  0
LINE
  8
_0-2_0-10
  6
CONTINUOUS
 62
    4
 10
176.49523214867451
 20
113.50672304135129
 11
185.07945537891501
 21
117.95133479392859
  0
LINE
  8
_0-2_0-10
  6
CONTINUOUS
 62
    4
 10
185.07945537891501
 20
118.59862077331017
 11
185.07945537891501
 21
117.95133479392859
  0
INSERT
  2
-020-BLKF037_20
  8
_0-2_0-10
 10
-74.680566408026606
 20
-208.18860273184441
 41
1.993127147766323
 42
1.993127147766323
 50
0
  0
LINE
  8
_0-2_0-10
  6
CONTINUOUS
 62
    4
 10
177.86434706276381
 20
118.42766427846477
 11
178.35265125520362
 21
118.59862077331017
  0
INSERT
  2
-021-BLKF038_21
  8
_0-2_0-10
 10
-74.680566408026606
 20
-208.18860273184441
 41
1.993127147766323
 42
1.993127147766323
 50
0
  0
INSERT
  2
-022-BLKF039_22
  8
_0-2_0-10
 10
-74.680566408026606
 20
-208.18860273184441
 41
1.993127147766323
 42
1.993127147766323
 50
0
  0
LINE
  8
_0-2_0-10
  6
CONTINUOUS
 62
    4
 10
164.26533421053011
 20
97.128202697708786
 11
174.7389582655129
 21
100.6604764434131
  0
LINE
  8
_0-2_0-10
  6
CONTINUOUS
 62
    4
 10
164.26533421053011
 20
96.480916718327392
 11
174.7389582655129
 21
100.01319046403169
  0
LINE
  8
_0-2_0-10
  6
CONTINUOUS
 62
    4
 10
174.7389582655129
 20
100.6604764434131
 11
174.7389582655129
 21
100.01319046403169
  0
INSERT
  2
-023-BLKF040_23
  8
_0-2_0-10
 10
-74.680566408026606
 20
-208.18860273184441
 41
1.993127147766323
 42
1.993127147766323
 50
0
  0
LINE
  8
_0-2_0-10
  6
CONTINUOUS
 62
    4
 10
167.47034046482571
 20
100.49119616849918
 11
168.0121541418016
 21
100.6604764434131
  0
ARC
  8
_0-2_0-10
  6
CONTINUOUS
 62
    4
 10
112.1317412208393
 20
148.49552798980508
 40
79.226804123711346
 50
303.88187499999787
 51
304.43955700000384
  0
INSERT
  2
-024-BLKF041_24
  8
_0-2_0-10
 10
-74.680566408026606
 20
-208.18860273184441
 41
1.993127147766323
 42
1.993127147766323
 50
0
  0
INSERT
  2
-025-BLKF042_25
  8
_0-2_0-10
 10
-74.680566408026606
 20
-208.18860273184441
 41
1.993127147766323
 42
1.993127147766323
 50
0
  0
LINE
  8
_0-2_0-10
  6
CONTINUOUS
 62
    4
 10
156.29929730331372
 20
82.075048127261993
 11
156.29929730331372
 21
82.722332113516188
  0
INSERT
  2
-026-BLKF043_26
  8
_0-2_0-10
 10
-74.680566408026606
 20
-208.18860273184441
 41
1.993127147766323
 42
1.993127147766323
 50
0
  0
LINE
  8
_0-2_0-10
  6
CONTINUOUS
 62
    4
 10
148.66042025864001
 20
82.499909089461297
 11
149.5724951727293
 21
82.722332113516188
  0
ARC
  8
_0-2_0-10
  6
CONTINUOUS
 62
    4
 10
112.1317412208393
 20
148.49552798980508
 40
90.886597938144333
 50
262.15180955009088
 51
58.112391695611847
  0
INSERT
  2
-027-BLKF044_27
  8
_0-2_0-10
 10
-74.680566408026606
 20
-208.18860273184441
 41
1.993127147766323
 42
1.993127147766323
 50
0
  0
ARC
  8
_0-2_0-10
  6
CONTINUOUS
 62
    7
 10
112.1317412208393
 20
148.49552798980508
 40
88.195876288659803
 50
261.9194565566338
 51
61.795693811064637
  0
LINE
  8
_0-2_0-10
  6
CONTINUOUS
 62
    4
 10
149.4149424579528
 20
222.31450977674657
 11
143.18035902152661
 21
223.80622592794927
  0
LINE
  8
_0-2_0-10
  6
CONTINUOUS
 62
    4
 10
143.18035902152661
 20
223.80622592794927
 11
131.98171927433972
 21
225.90780651643277
  0
ARC
  8
_0-2_0-10
  6
CONTINUOUS
 62
    4
 10
182.38311111774672
 20
189.454290876403
 40
1.6443298969072159
 50
30.243533000007452
 51
90.000000000006508
  0
LINE
  8
_0-2_0-10
  6
CONTINUOUS
 62
    4
 10
182.38311111774672
 20
191.09862077331018
 11
179.58145400434452
 21
191.09862077331018
  0
LINE
  8
_0-2_0-10
  6
CONTINUOUS
 62
    4
 10
180.7627605335542
 20
172.41305376300098
 11
182.21040409883499
 21
175.82348703374228
  0
ARC
  8
_0-2_0-10
  6
CONTINUOUS
 62
    4
 10
184.96242891843391
 20
174.65532180423809
 40
2.9896907216494841
 50
89.999999999993505
 51
156.99999999999531
  0
LINE
  8
_0-2_0-10
  6
CONTINUOUS
 62
    4
 10
184.96242891843391
 20
177.6450125258876
 11
188.28087001809021
 21
177.6450125258876
  0
ARC
  8
_0-2_0-10
  6
CONTINUOUS
 62
    4
 10
188.28089454707361
 20
178.6913888104288
 40
1.046376284830377
 50
269.99865688161617
 51
21.63133019468476
  0
ARC
  8
_0-2_0-10
  6
CONTINUOUS
 62
    4
 10
112.1317412208393
 20
148.49552798980508
 40
82.963917525773183
 50
21.630110999999445
 51
30.243532999998741
  0
ARC
  8
_0-2_0-10
  6
CONTINUOUS
 62
    4
 10
110.42418394294782
 20
148.49552705126538
 40
84.667833923230844
 50
356.29570313359101
 51
3.7042983683277475
  0
ARC
  8
_0-2_0-10
  6
CONTINUOUS
 62
    4
 10
193.5726943479872
 20
153.876971288774
 40
1.3453608247422679
 50
3.7804860000062321
 51
90.000000000006494
  0
LINE
  8
_0-2_0-10
  6
CONTINUOUS
 62
    4
 10
193.5726943479872
 20
155.22233211351638
 11
191.66610678784971
 21
155.22233211351638
  0
ARC
  8
_0-2_0-10
  6
CONTINUOUS
 62
    4
 10
111.18609719525491
 20
148.70734200685268
 40
83.930777361991943
 50
343.52176565353448
 51
351.22744482619719
  0
ARC
  8
_0-2_0-10
  6
CONTINUOUS
 62
    4
 10
192.95298527582221
 20
136.08831149495958
 40
1.1958762886597928
 50
351.27241299999849
 51
89.999999999993477
  0
LINE
  8
_0-2_0-10
  6
CONTINUOUS
 62
    4
 10
192.95298527582221
 20
137.2841877836195
 11
191.14130245795291
 21
137.2841877836195
  0
LINE
  8
_0-2_0-10
  6
CONTINUOUS
 62
    4
 10
112.12419012624259
 20
75.348077167248291
 11
105.22666981190471
 21
75.498982216609192
  0
LINE
  8
_0-2_0-10
  6
CONTINUOUS
 62
    4
 10
105.22666981190471
 20
75.498982216609192
 11
99.805869168786699
 21
75.855813398065393
  0
LINE
  8
_0-2_0-10
  6
CONTINUOUS
 62
    4
 10
112.1317412208393
 20
75.995527989804898
 11
105.22666981190471
 21
76.1462701891177
  0
LINE
  8
_0-2_0-10
  6
CONTINUOUS
 62
    4
 10
105.22666981190471
 20
76.1462701891177
 11
99.809015597210105
 21
76.5028933698662
  0
LINE
  8
_0-2_0-10
  6
CONTINUOUS
 62
    3
 10
-43.757690207107032
 20
148.49552798980508
 11
-41.257690207107032
 21
148.49552798980508
  0
LINE
  8
_0-2_0-10
  6
CONTINUOUS
 62
    3
 10
463.74230979289319
 20
148.49552798980508
 11
461.24230979289308
 21
148.49552798980508
  0
ARC
  8
_0-2_0-10
  6
CONTINUOUS
 62
    4
 10
393.13118814736958
 20
148.49552798980508
 40
45.299999999999997
 50
303.49583592537669
 51
351.75027576908792
  0
ARC
  8
_0-2_0-10
  6
CONTINUOUS
 62
    4
 10
393.13118814736958
 20
148.49552798980508
 40
45.299999999999997
 50
303.49583592537669
 51
351.75027600000009
  0
ARC
  8
_0-2_0-10
  6
CONTINUOUS
 62
    4
 10
393.13118814736958
 20
148.49552798980508
 40
45.299999999999997
 50
8.2497242309121752
 51
56.504164074623332
  0
LINE
  8
_0-2_0-10
  6
CONTINUOUS
 62
    3
 10
209.99230979289313
 20
323.49552798980505
 11
209.99230979289313
 21
325.99552798980505
  0
ARC
  8
_0-2_0-10
  6
CONTINUOUS
 62
    4
 10
357.63118814736958
 20
98.354284048568302
 40
0.5
 50
297.00000000000181
 51
0.0000000000000127
  0
LINE
  8
_0-2_0-10
  6
CONTINUOUS
 62
    4
 10
349.87380814736962
 20
93.815126715230292
 11
350.1461281473696
 21
93.395792048563606
  0
LINE
  8
_0-2_0-10
  6
CONTINUOUS
 62
    4
 10
357.63118814736958
 20
98.354284048563584
 11
354.0671614807029
 21
96.538322715230293
  0
LINE
  8
_0-2_0-10
  6
CONTINUOUS
 62
    4
 10
357.85818281403624
 20
97.908781381897
 11
354.29415748070289
 21
96.092818715230293
  0
LINE
  8
_0-2_0-10
  6
CONTINUOUS
 62
    4
 10
354.0671614807029
 20
96.538322715230293
 11
349.87380814736962
 21
93.815126715230292
  0
LINE
  8
_0-2_0-10
  6
CONTINUOUS
 62
    4
 10
354.339481480703
 20
96.118986715230306
 11
350.1461281473696
 21
93.395792048563606
  0
LINE
  8
_0-2_0-10
  6
CONTINUOUS
 62
    4
 10
357.1405348140363
 20
98.104284048563584
 11
357.36753081403622
 21
97.658781381897
  0
ARC
  8
_0-2_0-10
  6
CONTINUOUS
 62
    4
 10
357.63118814736958
 20
98.354284048563584
 40
0.5
 50
297.00000000000181
 51
0.0000000000000127
  0
ARC
  8
_0-2_0-10
  6
CONTINUOUS
 62
    4
 10
357.63118814736958
 20
116.29242837846517
 40
0.5
 50
297.0000000000017
 51
0
  0
LINE
  8
_0-2_0-10
  6
CONTINUOUS
 62
    4
 10
349.87380814736962
 20
111.7532710451272
 11
350.1461281473696
 21
111.33393637846049
  0
LINE
  8
_0-2_0-10
  6
CONTINUOUS
 62
    4
 10
357.63118814736958
 20
116.29242837846048
 11
354.0671614807029
 21
114.47646704512729
  0
LINE
  8
_0-2_0-10
  6
CONTINUOUS
 62
    4
 10
357.85818281403624
 20
115.84692571179388
 11
354.29415748070289
 21
114.03096304512729
  0
LINE
  8
_0-2_0-10
  6
CONTINUOUS
 62
    4
 10
354.0671614807029
 20
114.47646704512729
 11
349.87380814736962
 21
111.7532710451272
  0
LINE
  8
_0-2_0-10
  6
CONTINUOUS
 62
    4
 10
354.339481480703
 20
114.05713104512719
 11
350.1461281473696
 21
111.33393637846049
  0
LINE
  8
_0-2_0-10
  6
CONTINUOUS
 62
    4
 10
357.1405348140363
 20
116.04242837846048
 11
357.36753081403622
 21
115.59692571179388
  0
ARC
  8
_0-2_0-10
  6
CONTINUOUS
 62
    4
 10
357.63118814736958
 20
116.29242837846048
 40
0.5
 50
297.0000000000017
 51
0
  0
ARC
  8
_0-2_0-10
  6
CONTINUOUS
 62
    4
 10
357.63118814736958
 20
134.2305727083621
 40
0.5
 50
297.0000000000017
 51
0
  0
LINE
  8
_0-2_0-10
  6
CONTINUOUS
 62
    4
 10
349.87380814736962
 20
129.69141537502409
 11
350.1461281473696
 21
129.2720807083574
  0
LINE
  8
_0-2_0-10
  6
CONTINUOUS
 62
    4
 10
357.63118814736958
 20
134.23057270835738
 11
354.0671614807029
 21
132.4146113750242
  0
LINE
  8
_0-2_0-10
  6
CONTINUOUS
 62
    4
 10
357.85818281403624
 20
133.7850700416908
 11
354.29415748070289
 21
131.96910737502409
  0
LINE
  8
_0-2_0-10
  6
CONTINUOUS
 62
    4
 10
354.0671614807029
 20
132.4146113750242
 11
349.87380814736962
 21
129.69141537502409
  0
LINE
  8
_0-2_0-10
  6
CONTINUOUS
 62
    4
 10
354.339481480703
 20
131.9952753750241
 11
350.1461281473696
 21
129.2720807083574
  0
LINE
  8
_0-2_0-10
  6
CONTINUOUS
 62
    4
 10
357.1405348140363
 20
133.98057270835738
 11
357.36753081403622
 21
133.5350700416908
  0
ARC
  8
_0-2_0-10
  6
CONTINUOUS
 62
    4
 10
357.63118814736958
 20
134.23057270835738
 40
0.5
 50
297.0000000000017
 51
0
  0
ARC
  8
_0-2_0-10
  6
CONTINUOUS
 62
    4
 10
357.63118814736958
 20
152.16871703825898
 40
0.5
 50
297.0000000000017
 51
0
  0
LINE
  8
_0-2_0-10
  6
CONTINUOUS
 62
    4
 10
349.87380814736962
 20
147.629559704921
 11
350.1461281473696
 21
147.21022503825429
  0
LINE
  8
_0-2_0-10
  6
CONTINUOUS
 62
    4
 10
357.63118814736958
 20
152.1687170382543
 11
354.0671614807029
 21
150.35275570492109
  0
LINE
  8
_0-2_0-10
  6
CONTINUOUS
 62
    4
 10
357.85818281403624
 20
151.72321437158768
 11
354.29415748070289
 21
149.90725170492109
  0
LINE
  8
_0-2_0-10
  6
CONTINUOUS
 62
    4
 10
354.0671614807029
 20
150.35275570492109
 11
349.87380814736962
 21
147.629559704921
  0
LINE
  8
_0-2_0-10
  6
CONTINUOUS
 62
    4
 10
354.339481480703
 20
149.93341970492099
 11
350.1461281473696
 21
147.21022503825429
  0
LINE
  8
_0-2_0-10
  6
CONTINUOUS
 62
    4
 10
357.1405348140363
 20
151.9187170382543
 11
357.36753081403622
 21
151.47321437158768
  0
ARC
  8
_0-2_0-10
  6
CONTINUOUS
 62
    4
 10
357.63118814736958
 20
152.1687170382543
 40
0.5
 50
297.0000000000017
 51
0
  0
ARC
  8
_0-2_0-10
  6
CONTINUOUS
 62
    4
 10
357.63118814736958
 20
170.1068613681559
 40
0.5
 50
297.0000000000017
 51
0
  0
LINE
  8
_0-2_0-10
  6
CONTINUOUS
 62
    4
 10
349.87380814736962
 20
165.56770403481789
 11
350.1461281473696
 21
165.1483693681512
  0
LINE
  8
_0-2_0-10
  6
CONTINUOUS
 62
    4
 10
357.63118814736958
 20
170.10686136815118
 11
354.0671614807029
 21
168.290900034818
  0
LINE
  8
_0-2_0-10
  6
CONTINUOUS
 62
    4
 10
357.85818281403624
 20
169.6613587014846
 11
354.29415748070289
 21
167.845396034818
  0
LINE
  8
_0-2_0-10
  6
CONTINUOUS
 62
    4
 10
354.0671614807029
 20
168.290900034818
 11
349.87380814736962
 21
165.56770403481789
  0
LINE
  8
_0-2_0-10
  6
CONTINUOUS
 62
    4
 10
354.339481480703
 20
167.87156403481799
 11
350.1461281473696
 21
165.1483693681512
  0
LINE
  8
_0-2_0-10
  6
CONTINUOUS
 62
    4
 10
357.1405348140363
 20
169.85686136815118
 11
357.36753081403622
 21
169.4113587014846
  0
ARC
  8
_0-2_0-10
  6
CONTINUOUS
 62
    4
 10
357.63118814736958
 20
170.10686136815118
 40
0.5
 50
297.0000000000017
 51
0
  0
ARC
  8
_0-2_0-10
  6
CONTINUOUS
 62
    4
 10
357.63118814736958
 20
188.04500569805279
 40
0.5
 50
297.0000000000017
 51
0
  0
LINE
  8
_0-2_0-10
  6
CONTINUOUS
 62
    4
 10
349.87380814736962
 20
183.5058483647148
 11
350.1461281473696
 21
183.08651369804809
  0
LINE
  8
_0-2_0-10
  6
CONTINUOUS
 62
    4
 10
357.63118814736958
 20
188.0450056980481
 11
354.0671614807029
 21
186.22904436471489
  0
LINE
  8
_0-2_0-10
  6
CONTINUOUS
 62
    4
 10
357.85818281403624
 20
187.59950303138148
 11
354.29415748070289
 21
185.78354036471478
  0
LINE
  8
_0-2_0-10
  6
CONTINUOUS
 62
    4
 10
354.0671614807029
 20
186.22904436471489
 11
349.87380814736962
 21
183.5058483647148
  0
LINE
  8
_0-2_0-10
  6
CONTINUOUS
 62
    4
 10
354.339481480703
 20
185.80970836471479
 11
350.1461281473696
 21
183.08651369804809
  0
LINE
  8
_0-2_0-10
  6
CONTINUOUS
 62
    4
 10
357.1405348140363
 20
187.7950056980481
 11
357.36753081403622
 21
187.34950303138148
  0
ARC
  8
_0-2_0-10
  6
CONTINUOUS
 62
    4
 10
357.63118814736958
 20
188.0450056980481
 40
0.5
 50
297.0000000000017
 51
0
  0
ARC
  8
_0-2_0-10
  6
CONTINUOUS
 62
    4
 10
357.63118814736958
 20
205.9831500279499
 40
0.5
 50
297.0000000000017
 51
0
  0
LINE
  8
_0-2_0-10
  6
CONTINUOUS
 62
    4
 10
349.87380814736962
 20
201.44399269461189
 11
350.1461281473696
 21
201.0246580279452
  0
LINE
  8
_0-2_0-10
  6
CONTINUOUS
 62
    4
 10
357.63118814736958
 20
205.98315002794518
 11
354.0671614807029
 21
204.167188694612
  0
LINE
  8
_0-2_0-10
  6
CONTINUOUS
 62
    4
 10
357.85818281403624
 20
205.5376473612786
 11
354.29415748070289
 21
203.721684694612
  0
LINE
  8
_0-2_0-10
  6
CONTINUOUS
 62
    4
 10
354.0671614807029
 20
204.167188694612
 11
349.87380814736962
 21
201.44399269461189
  0
LINE
  8
_0-2_0-10
  6
CONTINUOUS
 62
    4
 10
354.339481480703
 20
203.7478526946119
 11
350.1461281473696
 21
201.0246580279452
  0
LINE
  8
_0-2_0-10
  6
CONTINUOUS
 62
    4
 10
357.1405348140363
 20
205.73315002794518
 11
357.36753081403622
 21
205.2876473612786
  0
ARC
  8
_0-2_0-10
  6
CONTINUOUS
 62
    4
 10
357.63118814736958
 20
205.98315002794518
 40
0.5
 50
297.0000000000017
 51
0
  0
ARC
  8
_0-2_0-10
  6
CONTINUOUS
 62
    4
 10
357.63118814736958
 20
223.9212943578469
 40
0.5
 50
297.0000000000017
 51
0
  0
LINE
  8
_0-2_0-10
  6
CONTINUOUS
 62
    4
 10
349.87380814736962
 20
219.38213702450889
 11
350.1461281473696
 21
218.9628023578422
  0
LINE
  8
_0-2_0-10
  6
CONTINUOUS
 62
    4
 10
357.63118814736958
 20
223.92129435784218
 11
354.0671614807029
 21
222.105333024509
  0
LINE
  8
_0-2_0-10
  6
CONTINUOUS
 62
    4
 10
357.85818281403624
 20
223.4757916911756
 11
354.29415748070289
 21
221.65982902450892
  0
LINE
  8
_0-2_0-10
  6
CONTINUOUS
 62
    4
 10
354.0671614807029
 20
222.105333024509
 11
349.87380814736962
 21
219.38213702450889
  0
LINE
  8
_0-2_0-10
  6
CONTINUOUS
 62
    4
 10
354.339481480703
 20
221.6859970245089
 11
350.1461281473696
 21
218.9628023578422
  0
LINE
  8
_0-2_0-10
  6
CONTINUOUS
 62
    4
 10
357.1405348140363
 20
223.67129435784218
 11
357.36753081403622
 21
223.2257916911756
  0
ARC
  8
_0-2_0-10
  6
CONTINUOUS
 62
    4
 10
357.63118814736958
 20
223.92129435784218
 40
0.5
 50
297.0000000000017
 51
0
  0
LINE
  8
_0-2_0-10
  6
CONTINUOUS
 62
    4
 10
357.63118814736958
 20
223.92129435784218
 11
357.63118814736958
 21
235.79552798980486
  0
LINE
  8
_0-2_0-10
  6
CONTINUOUS
 62
    4
 10
357.63118814736958
 20
205.98315002794529
 11
357.63118814736958
 21
223.36013206430831
  0
LINE
  8
_0-2_0-10
  6
CONTINUOUS
 62
    4
 10
357.63118814736952
 20
188.0450056980481
 11
357.63118814736958
 21
205.42198773441128
  0
LINE
  8
_0-2_0-10
  6
CONTINUOUS
 62
    4
 10
357.63118814736958
 20
170.10686136815129
 11
357.63118814736958
 21
187.4838434045142
  0
LINE
  8
_0-2_0-10
  6
CONTINUOUS
 62
    4
 10
357.63118814736958
 20
152.1687170382543
 11
357.63118814736958
 21
169.54569907461728
  0
LINE
  8
_0-2_0-10
  6
CONTINUOUS
 62
    4
 10
357.63118814736958
 20
134.23057270835749
 11
357.63118814736958
 21
151.6075547447204
  0
LINE
  8
_0-2_0-10
  6
CONTINUOUS
 62
    4
 10
357.63118814736958
 20
116.29242837846048
 11
357.63118814736958
 21
133.66941041482348
  0
LINE
  8
_0-2_0-10
  6
CONTINUOUS
 62
    4
 10
357.63118814736958
 20
98.354284048563584
 11
357.63118814736958
 21
115.7312660849266
  0
LINE
  8
_0-2_0-10
  6
CONTINUOUS
 62
    7
 10
132.005411684404
 20
226.3208587975038
 11
133.66696960795411
 21
227.9824167210539
  0
LINE
  8
_0-2_0-10
  6
CONTINUOUS
 62
    7
 10
133.88654312898802
 20
225.55033981263827
 11
136.10529418562691
 21
227.76909086927722
  0
LINE
  8
_0-2_0-10
  6
CONTINUOUS
 62
    7
 10
136.1192037274925
 20
225.13134998169331
 11
138.2341135915357
 21
227.24625984573637
  0
LINE
  8
_0-2_0-10
  6
CONTINUOUS
 62
    7
 10
131.18803590894211
 20
217.54853173369318
 11
132.4929008248479
 21
218.853396649599
  0
LINE
  8
_0-2_0-10
  6
CONTINUOUS
 62
    7
 10
138.35186432599701
 20
224.71236015074819
 11
140.20492404122251
 21
226.5654198659736
  0
LINE
  8
_0-2_0-10
  6
CONTINUOUS
 62
    7
 10
131.15783247248199
 20
214.8666778677836
 11
135.14455125429742
 21
218.85339664959909
  0
LINE
  8
_0-2_0-10
  6
CONTINUOUS
 62
    7
 10
140.5845249245014
 20
224.29337031980301
 11
142.13525089648712
 21
225.84409629178858
  0
LINE
  8
_0-2_0-10
  6
CONTINUOUS
 62
    7
 10
131.12762903602191
 20
212.184824001874
 11
137.796201683747
 21
218.85339664959909
  0
LINE
  8
_0-2_0-10
  6
CONTINUOUS
 62
    7
 10
142.81718552300591
 20
223.87438048885789
 11
144.0264477009226
 21
225.08364266677457
  0
LINE
  8
_0-2_0-10
  6
CONTINUOUS
 62
    7
 10
131.09742559956191
 20
209.5029701359644
 11
140.44785211319651
 21
218.853396649599
  0
LINE
  8
_0-2_0-10
  6
CONTINUOUS
 62
    7
 10
144.97200389817882
 20
223.3775484345812
 11
145.8797262706343
 21
224.28527080703671
  0
LINE
  8
_0-2_0-10
  6
CONTINUOUS
 62
    7
 10
132.1617369756357
 20
207.91563108258858
 11
143.09950254264612
 21
218.853396649599
  0
LINE
  8
_0-2_0-10
  6
CONTINUOUS
 62
    7
 10
147.11170035430751
 20
222.86559446126037
 11
147.69617240817711
 21
223.45006651512997
  0
LINE
  8
_0-2_0-10
  6
CONTINUOUS
 62
    7
 10
134.81338740508522
 20
207.91563108258858
 11
145.75115297209561
 21
218.853396649599
  0
LINE
  8
_0-2_0-10
  6
CONTINUOUS
 62
    7
 10
149.25139681043631
 20
222.35364048793971
 11
149.47675916375811
 21
222.57900284126148
  0
LINE
  8
_0-2_0-10
  6
CONTINUOUS
 62
    7
 10
137.46503783453482
 20
207.91563108258858
 11
148.41834911444601
 21
218.8689423624998
  0
LINE
  8
_0-2_0-10
  6
CONTINUOUS
 62
    7
 10
150.9069012147323
 20
221.35749446278597
 11
151.22235807273321
 21
221.672951320787
  0
LINE
  8
_0-2_0-10
  6
CONTINUOUS
 62
    7
 10
140.1166882639844
 20
207.91563108258858
 11
152.93374870976361
 21
220.73269152836778
  0
LINE
  8
_0-2_0-10
  6
CONTINUOUS
 62
    7
 10
142.76833869343391
 20
207.91563108258858
 11
154.61162683153241
 21
219.758919220687
  0
LINE
  8
_0-2_0-10
  6
CONTINUOUS
 62
    7
 10
145.41998912288352
 20
207.91563108258858
 11
156.25661132653522
 21
218.7522532862404
  0
LINE
  8
_0-2_0-10
  6
CONTINUOUS
 62
    7
 10
148.07163955233301
 20
207.91563108258858
 11
157.86925014845621
 21
217.71324167871179
  0
LINE
  8
_0-2_0-10
  6
CONTINUOUS
 62
    7
 10
150.72328998178261
 20
207.91563108258858
 11
159.45002537626581
 21
216.64236647707178
  0
LINE
  8
_0-2_0-10
  6
CONTINUOUS
 62
    7
 10
153.3749404112321
 20
207.91563108258858
 11
157.3692013863835
 21
211.90989205773999
  0
LINE
  8
_0-2_0-10
  6
CONTINUOUS
 62
    7
 10
158.64395399139252
 20
213.184644662749
 11
160.9993575174337
 21
215.54004818879019
  0
LINE
  8
_0-2_0-10
  6
CONTINUOUS
 62
    7
 10
156.0265908406817
 20
207.91563108258858
 11
157.0325448634511
 21
208.92158510535799
  0
LINE
  8
_0-2_0-10
  6
CONTINUOUS
 62
    7
 10
161.6587096433397
 20
213.54774988524658
 11
162.1826121089029
 21
214.07165235080989
  0
LINE
  8
_0-2_0-10
  6
CONTINUOUS
 62
    7
 10
133.22521119180052
 20
207.9156310825885
 11
131.1034444040622
 21
210.03739787032688
  0
LINE
  8
_0-2_0-10
  6
CONTINUOUS
 62
    7
 10
135.8768616212501
 20
207.91563108258858
 11
131.1329751057882
 21
212.65951759805039
  0
LINE
  8
_0-2_0-10
  6
CONTINUOUS
 62
    7
 10
138.5285120506997
 20
207.91563108258858
 11
131.16250580751432
 21
215.28163732577399
  0
LINE
  8
_0-2_0-10
  6
CONTINUOUS
 62
    7
 10
141.18016248014922
 20
207.9156310825885
 11
131.19203650924032
 21
217.90375705349748
  0
LINE
  8
_0-2_0-10
  6
CONTINUOUS
 62
    7
 10
143.83181290959882
 20
207.9156310825885
 11
132.8940473425884
 21
218.85339664959889
  0
LINE
  8
_0-2_0-10
  6
CONTINUOUS
 62
    7
 10
146.48346333904831
 20
207.91563108258858
 11
135.54569777203801
 21
218.85339664959889
  0
LINE
  8
_0-2_0-10
  6
CONTINUOUS
 62
    7
 10
149.13511376849791
 20
207.9156310825885
 11
138.1973482014875
 21
218.85339664959889
  0
LINE
  8
_0-2_0-10
  6
CONTINUOUS
 62
    7
 10
151.7867641979474
 20
207.9156310825885
 11
140.8489986309371
 21
218.85339664959889
  0
LINE
  8
_0-2_0-10
  6
CONTINUOUS
 62
    7
 10
134.2133934857913
 20
225.48900179474466
 11
132.07209235154252
 21
227.63030292899358
  0
LINE
  8
_0-2_0-10
  6
CONTINUOUS
 62
    7
 10
154.438414627397
 20
207.91563108258858
 11
143.50064906038662
 21
218.85339664959889
  0
LINE
  8
_0-2_0-10
  6
CONTINUOUS
 62
    7
 10
137.47762177944471
 20
224.87642393054076
 11
134.4391895052187
 21
227.91485620476677
  0
LINE
  8
_0-2_0-10
  6
CONTINUOUS
 62
    7
 10
156.91604876932851
 20
208.0896473701066
 11
146.15229948983611
 21
218.85339664959889
  0
LINE
  8
_0-2_0-10
  6
CONTINUOUS
 62
    7
 10
140.74185007309822
 20
224.26384606633681
 11
137.52931786365491
 21
227.4763782757802
  0
LINE
  8
_0-2_0-10
  6
CONTINUOUS
 62
    7
 10
157.03395402849051
 20
210.62339254039409
 11
148.75588953364481
 21
218.9014570352399
  0
LINE
  8
_0-2_0-10
  6
CONTINUOUS
 62
    7
 10
144.0620871051239
 20
223.59525946376081
 11
141.61250352674761
 21
226.0448430421371
  0
LINE
  8
_0-2_0-10
  6
CONTINUOUS
 62
    7
 10
157.78932828527771
 20
212.51966871305648
 11
150.65379607416301
 21
219.65520092417119
  0
LINE
  8
_0-2_0-10
  6
CONTINUOUS
 62
    7
 10
147.54772877554211
 20
222.76126822279209
 11
146.1402876010606
 21
224.1687093972736
  0
LINE
  8
_0-2_0-10
  6
CONTINUOUS
 62
    7
 10
159.48754764420939
 20
213.47309978357429
 11
151.36299882640531
 21
221.59764860137849
  0
LINE
  8
_0-2_0-10
  6
CONTINUOUS
 62
    7
 10
161.92780654178611
 20
213.68449131544718
 11
157.9573535389984
 21
217.65494431823489
  0
LINE
  8
_0-2_0-10
  6
CONTINUOUS
 62
    7
 10
130.9766118537216
 20
198.77555467232588
 11
133.11630950109781
 21
200.915252319702
  0
LINE
  8
_0-2_0-10
  6
CONTINUOUS
 62
    7
 10
130.94640841726152
 20
196.09370080641619
 11
135.76795993054741
 21
200.915252319702
  0
LINE
  8
_0-2_0-10
  6
CONTINUOUS
 62
    7
 10
130.91620498080141
 20
193.41184694050659
 11
138.4196103599969
 21
200.91525231970209
  0
LINE
  8
_0-2_0-10
  6
CONTINUOUS
 62
    7
 10
130.88600154434132
 20
190.7299930745969
 11
141.07126078944651
 21
200.91525231970209
  0
LINE
  8
_0-2_0-10
  6
CONTINUOUS
 62
    7
 10
132.78514565188561
 20
189.9774867526917
 11
143.722911218896
 21
200.91525231970209
  0
LINE
  8
_0-2_0-10
  6
CONTINUOUS
 62
    7
 10
135.43679608133521
 20
189.9774867526917
 11
146.3745616483456
 21
200.91525231970209
  0
LINE
  8
_0-2_0-10
  6
CONTINUOUS
 62
    7
 10
138.0884465107847
 20
189.9774867526917
 11
149.02621207779512
 21
200.91525231970209
  0
LINE
  8
_0-2_0-10
  6
CONTINUOUS
 62
    7
 10
140.7400969402343
 20
189.9774867526917
 11
151.67786250724472
 21
200.91525231970209
  0
LINE
  8
_0-2_0-10
  6
CONTINUOUS
 62
    7
 10
143.39174736968391
 20
189.9774867526917
 11
154.32951293669421
 21
200.915252319702
  0
LINE
  8
_0-2_0-10
  6
CONTINUOUS
 62
    7
 10
146.0433977991334
 20
189.9774867526917
 11
156.98116336614381
 21
200.915252319702
  0
LINE
  8
_0-2_0-10
  6
CONTINUOUS
 62
    7
 10
164.1070028505261
 20
208.04109180408428
 11
165.10267614964891
 21
209.0367651032071
  0
LINE
  8
_0-2_0-10
  6
CONTINUOUS
 62
    7
 10
148.695048228583
 20
189.9774867526917
 11
159.63281379559342
 21
200.91525231970209
  0
LINE
  8
_0-2_0-10
  6
CONTINUOUS
 62
    7
 10
165.65398989932171
 20
206.93642842343038
 11
167.75432657909851
 21
209.03676510320718
  0
LINE
  8
_0-2_0-10
  6
CONTINUOUS
 62
    7
 10
151.34669865803252
 20
189.9774867526917
 11
162.28446422504291
 21
200.91525231970209
  0
LINE
  8
_0-2_0-10
  6
CONTINUOUS
 62
    7
 10
167.20097694811741
 20
205.83176504277648
 11
169.651637576912
 21
208.2824256715711
  0
LINE
  8
_0-2_0-10
  6
CONTINUOUS
 62
    7
 10
153.99834908748212
 20
189.9774867526917
 11
164.93611465449251
 21
200.91525231970209
  0
LINE
  8
_0-2_0-10
  6
CONTINUOUS
 62
    7
 10
168.74796399691311
 20
204.7271016621226
 11
170.98809919080412
 21
206.96723685601369
  0
LINE
  8
_0-2_0-10
  6
CONTINUOUS
 62
    7
 10
156.6499995169317
 20
189.9774867526917
 11
167.82712864185091
 21
201.15461587761089
  0
LINE
  8
_0-2_0-10
  6
CONTINUOUS
 62
    7
 10
169.73785146138922
 20
203.06533869714928
 11
172.2945925972024
 21
205.62207983296238
  0
LINE
  8
_0-2_0-10
  6
CONTINUOUS
 62
    7
 10
159.3016499463813
 20
189.9774867526917
 11
173.5710881347457
 21
204.2469249410561
  0
LINE
  8
_0-2_0-10
  6
CONTINUOUS
 62
    7
 10
161.95330037583082
 20
189.9774867526917
 11
174.817509937772
 21
202.84169631463299
  0
LINE
  8
_0-2_0-10
  6
CONTINUOUS
 62
    7
 10
164.60495080528042
 20
189.9774867526917
 11
176.0337353507559
 21
201.40627129816729
  0
LINE
  8
_0-2_0-10
  6
CONTINUOUS
 62
    7
 10
167.25660123472991
 20
189.9774867526917
 11
177.21959397463029
 21
199.94047949259208
  0
LINE
  8
_0-2_0-10
  6
CONTINUOUS
 62
    7
 10
169.9082516641794
 20
189.9774867526917
 11
172.69255782434362
 21
192.76179291285578
  0
LINE
  8
_0-2_0-10
  6
CONTINUOUS
 62
    7
 10
175.50782298000311
 20
195.57705806851538
 11
178.37486632755761
 21
198.44410141606979
  0
LINE
  8
_0-2_0-10
  6
CONTINUOUS
 62
    7
 10
178.16557219672171
 20
195.58315685578438
 11
179.49456819714131
 21
196.91215285620398
  0
LINE
  8
_0-2_0-10
  6
CONTINUOUS
 62
    7
 10
132.60180251555061
 20
189.9774867526917
 11
130.89672949197992
 21
191.68255977626239
  0
LINE
  8
_0-2_0-10
  6
CONTINUOUS
 62
    7
 10
135.2534529450001
 20
189.9774867526917
 11
130.9262601937059
 21
194.30467950398588
  0
LINE
  8
_0-2_0-10
  6
CONTINUOUS
 62
    7
 10
137.9051033744497
 20
189.9774867526917
 11
130.95579089543201
 21
196.92679923170939
  0
LINE
  8
_0-2_0-10
  6
CONTINUOUS
 62
    7
 10
140.55675380389931
 20
189.97748675269158
 11
130.98532159715801
 21
199.54891895943288
  0
LINE
  8
_0-2_0-10
  6
CONTINUOUS
 62
    7
 10
143.2084042333488
 20
189.9774867526917
 11
132.27063866633841
 21
200.915252319702
  0
LINE
  8
_0-2_0-10
  6
CONTINUOUS
 62
    7
 10
145.86005466279831
 20
189.97748675269158
 11
134.92228909578801
 21
200.915252319702
  0
LINE
  8
_0-2_0-10
  6
CONTINUOUS
 62
    7
 10
148.51170509224792
 20
189.97748675269158
 11
137.5739395252375
 21
200.915252319702
  0
LINE
  8
_0-2_0-10
  6
CONTINUOUS
 62
    7
 10
151.16335552169741
 20
189.9774867526917
 11
140.2255899546871
 21
200.915252319702
  0
LINE
  8
_0-2_0-10
  6
CONTINUOUS
 62
    7
 10
153.81500595114701
 20
189.9774867526917
 11
142.87724038413671
 21
200.915252319702
  0
LINE
  8
_0-2_0-10
  6
CONTINUOUS
 62
    7
 10
156.46665638059661
 20
189.9774867526917
 11
145.5288908135862
 21
200.915252319702
  0
LINE
  8
_0-2_0-10
  6
CONTINUOUS
 62
    7
 10
159.11830681004622
 20
189.9774867526917
 11
148.1805412430358
 21
200.915252319702
  0
LINE
  8
_0-2_0-10
  6
CONTINUOUS
 62
    7
 10
161.76995723949571
 20
189.9774867526917
 11
150.83219167248532
 21
200.915252319702
  0
LINE
  8
_0-2_0-10
  6
CONTINUOUS
 62
    7
 10
164.42160766894531
 20
189.9774867526917
 11
153.48384210193492
 21
200.915252319702
  0
LINE
  8
_0-2_0-10
  6
CONTINUOUS
 62
    7
 10
167.0732580983948
 20
189.9774867526917
 11
156.13549253138441
 21
200.915252319702
  0
LINE
  8
_0-2_0-10
  6
CONTINUOUS
 62
    7
 10
169.72490852784432
 20
189.9774867526917
 11
158.78714296083401
 21
200.915252319702
  0
LINE
  8
_0-2_0-10
  6
CONTINUOUS
 62
    7
 10
172.17311275357391
 20
190.18093295641168
 11
161.43879339028362
 21
200.915252319702
  0
LINE
  8
_0-2_0-10
  6
CONTINUOUS
 62
    7
 10
172.6253061376031
 20
192.38039000183198
 11
164.09044381973311
 21
200.915252319702
  0
LINE
  8
_0-2_0-10
  6
CONTINUOUS
 62
    7
 10
173.29121768764591
 20
194.36612888123869
 11
166.7073176884335
 21
200.9500288804511
  0
LINE
  8
_0-2_0-10
  6
CONTINUOUS
 62
    7
 10
174.84909683824082
 20
195.45990016009349
 11
168.77473013170981
 21
201.5342668666245
  0
LINE
  8
_0-2_0-10
  6
CONTINUOUS
 62
    7
 10
177.37749057199931
 20
195.58315685578438
 11
169.73785146138922
 21
203.2227959663945
  0
LINE
  8
_0-2_0-10
  6
CONTINUOUS
 62
    7
 10
166.94883273008721
 20
206.01181469769659
 11
163.94912746156711
 21
209.01151996621658
  0
LINE
  8
_0-2_0-10
  6
CONTINUOUS
 62
    7
 10
179.51821035917052
 20
196.0940874980628
 11
166.57553275402619
 21
209.0367651032071
  0
LINE
  8
_0-2_0-10
  6
CONTINUOUS
 62
    7
 10
117.7862229280778
 20
161.72031188163609
 11
121.1048747063498
 21
165.038963659908
  0
LINE
  8
_0-2_0-10
  6
CONTINUOUS
 62
    7
 10
115.93313108589481
 20
157.21556961000348
 11
123.75652513579929
 21
165.038963659908
  0
LINE
  8
_0-2_0-10
  6
CONTINUOUS
 62
    7
 10
115.76833915898362
 20
154.3991272536428
 11
126.40817556524891
 21
165.03896365990809
  0
LINE
  8
_0-2_0-10
  6
CONTINUOUS
 62
    7
 10
118.12206042768821
 20
154.10119809289778
 11
129.05982599469851
 21
165.03896365990809
  0
LINE
  8
_0-2_0-10
  6
CONTINUOUS
 62
    7
 10
120.77371085713781
 20
154.10119809289778
 11
131.711476424148
 21
165.03896365990809
  0
LINE
  8
_0-2_0-10
  6
CONTINUOUS
 62
    7
 10
123.4253612865873
 20
154.10119809289778
 11
134.3631268535976
 21
165.03896365990809
  0
LINE
  8
_0-2_0-10
  6
CONTINUOUS
 62
    7
 10
126.0770117160369
 20
154.10119809289778
 11
137.01477728304712
 21
165.03896365990809
  0
LINE
  8
_0-2_0-10
  6
CONTINUOUS
 62
    7
 10
128.72866214548642
 20
154.10119809289778
 11
139.66642771249669
 21
165.03896365990809
  0
LINE
  8
_0-2_0-10
  6
CONTINUOUS
 62
    7
 10
131.38031257493599
 20
154.10119809289778
 11
142.31807814194621
 21
165.038963659908
  0
LINE
  8
_0-2_0-10
  6
CONTINUOUS
 62
    7
 10
134.03196300438551
 20
154.10119809289778
 11
144.96972857139581
 21
165.038963659908
  0
LINE
  8
_0-2_0-10
  6
CONTINUOUS
 62
    7
 10
136.68361343383512
 20
154.10119809289778
 11
147.6213790008453
 21
165.03896365990809
  0
LINE
  8
_0-2_0-10
  6
CONTINUOUS
 62
    7
 10
139.33526386328472
 20
154.10119809289778
 11
150.27302943029502
 21
165.03896365990809
  0
LINE
  8
_0-2_0-10
  6
CONTINUOUS
 62
    7
 10
141.98691429273421
 20
154.10119809289778
 11
152.92467985974451
 21
165.03896365990809
  0
LINE
  8
_0-2_0-10
  6
CONTINUOUS
 62
    7
 10
144.63856472218381
 20
154.10119809289778
 11
155.576330289194
 21
165.03896365990809
  0
LINE
  8
_0-2_0-10
  6
CONTINUOUS
 62
    7
 10
147.2902151516333
 20
154.10119809289778
 11
158.2279807186436
 21
165.03896365990809
  0
LINE
  8
_0-2_0-10
  6
CONTINUOUS
 62
    7
 10
149.9418655810829
 20
154.1011980928979
 11
160.87963114809321
 21
165.03896365990809
  0
LINE
  8
_0-2_0-10
  6
CONTINUOUS
 62
    7
 10
152.59351601053251
 20
154.1011980928979
 11
163.53128157754269
 21
165.03896365990809
  0
LINE
  8
_0-2_0-10
  6
CONTINUOUS
 62
    7
 10
155.245166439982
 20
154.1011980928979
 11
166.18293200699221
 21
165.03896365990809
  0
LINE
  8
_0-2_0-10
  6
CONTINUOUS
 62
    7
 10
157.8968168694316
 20
154.1011980928979
 11
168.83458243644182
 21
165.03896365990809
  0
LINE
  8
_0-2_0-10
  6
CONTINUOUS
 62
    7
 10
160.5484672988812
 20
154.1011980928979
 11
171.48623286589142
 21
165.03896365990809
  0
LINE
  8
_0-2_0-10
  6
CONTINUOUS
 62
    7
 10
163.20011772833072
 20
154.1011980928979
 11
174.13788329534091
 21
165.03896365990809
  0
LINE
  8
_0-2_0-10
  6
CONTINUOUS
 62
    7
 10
165.85176815778029
 20
154.1011980928979
 11
176.78953372479051
 21
165.03896365990809
  0
LINE
  8
_0-2_0-10
  6
CONTINUOUS
 62
    7
 10
168.50341858722981
 20
154.1011980928979
 11
179.44118415424
 21
165.03896365990809
  0
LINE
  8
_0-2_0-10
  6
CONTINUOUS
 62
    7
 10
171.15506901667941
 20
154.1011980928979
 11
182.4498672032069
 21
165.39599627942538
  0
LINE
  8
_0-2_0-10
  6
CONTINUOUS
 62
    7
 10
186.34859299160942
 20
169.29472206782799
 11
190.2143473671949
 21
173.16047644341338
  0
LINE
  8
_0-2_0-10
  6
CONTINUOUS
 62
    7
 10
173.8067194461289
 20
154.1011980928979
 11
191.6985591146776
 21
171.9930377614466
  0
LINE
  8
_0-2_0-10
  6
CONTINUOUS
 62
    7
 10
176.45836987557851
 20
154.1011980928979
 11
192.28068382560562
 21
169.92351204292498
  0
LINE
  8
_0-2_0-10
  6
CONTINUOUS
 62
    7
 10
179.11002030502811
 20
154.1011980928979
 11
192.8166104966103
 21
167.80778828448009
  0
LINE
  8
_0-2_0-10
  6
CONTINUOUS
 62
    7
 10
181.7616707344776
 20
154.1011980928979
 11
193.3041122710845
 21
165.6436396295048
  0
LINE
  8
_0-2_0-10
  6
CONTINUOUS
 62
    7
 10
189.98861452970081
 20
159.6764914586715
 11
193.7406662250361
 21
163.4285431540068
  0
LINE
  8
_0-2_0-10
  6
CONTINUOUS
 62
    7
 10
192.6706416964694
 20
159.7068681959906
 11
194.123400580369
 21
161.15962707989018
  0
LINE
  8
_0-2_0-10
  6
CONTINUOUS
 62
    7
 10
118.09673301580301
 20
154.1011980928977
 11
115.76833915898362
 21
156.42959194971709
  0
LINE
  8
_0-2_0-10
  6
CONTINUOUS
 62
    7
 10
120.7483834452525
 20
154.1011980928977
 11
116.3868293871685
 21
158.46275215098179
  0
LINE
  8
_0-2_0-10
  6
CONTINUOUS
 62
    7
 10
123.400033874702
 20
154.10119809289778
 11
117.1605887283885
 21
160.34064323921128
  0
LINE
  8
_0-2_0-10
  6
CONTINUOUS
 62
    7
 10
126.05168430415162
 20
154.10119809289778
 11
117.99197962678978
 21
162.16090277025949
  0
LINE
  8
_0-2_0-10
  6
CONTINUOUS
 62
    7
 10
128.70333473360122
 20
154.10119809289778
 11
118.87586909422822
 21
163.9286637322707
  0
LINE
  8
_0-2_0-10
  6
CONTINUOUS
 62
    7
 10
131.35498516305071
 20
154.10119809289778
 11
120.41721959604052
 21
165.038963659908
  0
LINE
  8
_0-2_0-10
  6
CONTINUOUS
 62
    7
 10
134.0066355925002
 20
154.10119809289778
 11
123.06887002549001
 21
165.038963659908
  0
LINE
  8
_0-2_0-10
  6
CONTINUOUS
 62
    7
 10
136.6582860219498
 20
154.10119809289778
 11
125.7205204549396
 21
165.038963659908
  0
LINE
  8
_0-2_0-10
  6
CONTINUOUS
 62
    7
 10
139.30993645139932
 20
154.10119809289778
 11
128.3721708843891
 21
165.038963659908
  0
LINE
  8
_0-2_0-10
  6
CONTINUOUS
 62
    7
 10
141.96158688084889
 20
154.10119809289778
 11
131.0238213138387
 21
165.038963659908
  0
LINE
  8
_0-2_0-10
  6
CONTINUOUS
 62
    7
 10
144.61323731029841
 20
154.10119809289778
 11
133.67547174328819
 21
165.038963659908
  0
LINE
  8
_0-2_0-10
  6
CONTINUOUS
 62
    7
 10
147.26488773974801
 20
154.10119809289778
 11
136.3271221727378
 21
165.038963659908
  0
LINE
  8
_0-2_0-10
  6
CONTINUOUS
 62
    7
 10
149.91653816919762
 20
154.10119809289778
 11
138.9787726021874
 21
165.038963659908
  0
LINE
  8
_0-2_0-10
  6
CONTINUOUS
 62
    7
 10
152.56818859864711
 20
154.10119809289778
 11
141.63042303163692
 21
165.038963659908
  0
LINE
  8
_0-2_0-10
  6
CONTINUOUS
 62
    7
 10
155.21983902809671
 20
154.10119809289778
 11
144.28207346108652
 21
165.038963659908
  0
LINE
  8
_0-2_0-10
  6
CONTINUOUS
 62
    7
 10
157.8714894575462
 20
154.10119809289778
 11
146.93372389053601
 21
165.038963659908
  0
LINE
  8
_0-2_0-10
  6
CONTINUOUS
 62
    7
 10
160.5231398869958
 20
154.10119809289778
 11
149.58537431998561
 21
165.038963659908
  0
LINE
  8
_0-2_0-10
  6
CONTINUOUS
 62
    7
 10
163.17479031644532
 20
154.10119809289778
 11
152.2370247494351
 21
165.038963659908
  0
LINE
  8
_0-2_0-10
  6
CONTINUOUS
 62
    7
 10
165.82644074589489
 20
154.10119809289778
 11
154.88867517888471
 21
165.038963659908
  0
LINE
  8
_0-2_0-10
  6
CONTINUOUS
 62
    7
 10
168.47809117534441
 20
154.10119809289778
 11
157.5403256083342
 21
165.03896365990809
  0
LINE
  8
_0-2_0-10
  6
CONTINUOUS
 62
    7
 10
171.12974160479402
 20
154.10119809289778
 11
160.1919760377838
 21
165.03896365990809
  0
LINE
  8
_0-2_0-10
  6
CONTINUOUS
 62
    7
 10
173.7813920342435
 20
154.10119809289778
 11
162.84362646723332
 21
165.038963659908
  0
LINE
  8
_0-2_0-10
  6
CONTINUOUS
 62
    7
 10
176.43304246369311
 20
154.10119809289778
 11
165.49527689668281
 21
165.038963659908
  0
LINE
  8
_0-2_0-10
  6
CONTINUOUS
 62
    7
 10
179.0846928931426
 20
154.10119809289778
 11
168.14692732613241
 21
165.038963659908
  0
LINE
  8
_0-2_0-10
  6
CONTINUOUS
 62
    7
 10
181.73634332259211
 20
154.10119809289778
 11
170.7985777555819
 21
165.038963659908
  0
LINE
  8
_0-2_0-10
  6
CONTINUOUS
 62
    7
 10
184.0195498506043
 20
154.4696419943352
 11
173.4502281850315
 21
165.038963659908
  0
LINE
  8
_0-2_0-10
  6
CONTINUOUS
 62
    7
 10
185.2317838759977
 20
155.9090583983914
 11
176.10187861448102
 21
165.038963659908
  0
LINE
  8
_0-2_0-10
  6
CONTINUOUS
 62
    7
 10
186.44161455947781
 20
157.3508781443609
 11
178.75352904393059
 21
165.03896365990809
  0
LINE
  8
_0-2_0-10
  6
CONTINUOUS
 62
    7
 10
187.71476187692101
 20
158.72938125636719
 11
181.28582429574382
 21
165.15831883754449
  0
LINE
  8
_0-2_0-10
  6
CONTINUOUS
 62
    7
 10
189.5033079012301
 20
159.5924856615077
 11
183.38882956398779
 21
165.70696399874998
  0
LINE
  8
_0-2_0-10
  6
CONTINUOUS
 62
    7
 10
192.0405757961968
 20
159.70686819599049
 11
185.0137476475777
 21
166.73369634460959
  0
LINE
  8
_0-2_0-10
  6
CONTINUOUS
 62
    7
 10
194.02544793317801
 20
160.37364648845888
 11
185.95556595335472
 21
168.44352846828218
  0
LINE
  8
_0-2_0-10
  6
CONTINUOUS
 62
    7
 10
193.76703552999532
 20
163.28370932109109
 11
186.79317488147512
 21
170.25756996961129
  0
LINE
  8
_0-2_0-10
  6
CONTINUOUS
 62
    7
 10
193.09438372928201
 20
166.608011551254
 11
187.50274315321561
 21
172.1996521273204
  0
LINE
  8
_0-2_0-10
  6
CONTINUOUS
 62
    7
 10
192.22561843492411
 20
170.12842727506148
 11
189.19356926657221
 21
173.1604764434133
  0
LINE
  8
_0-2_0-10
  6
CONTINUOUS
 62
    7
 10
114.53585316937412
 20
126.65013696953768
 11
115.76833915898362
 21
127.88262295914728
  0
LINE
  8
_0-2_0-10
  6
CONTINUOUS
 62
    7
 10
114.39203318832821
 20
123.85466655904218
 11
115.76833915898362
 21
125.23097252969768
  0
LINE
  8
_0-2_0-10
  6
CONTINUOUS
 62
    7
 10
114.04346179378619
 20
120.85444473505069
 11
115.76833915898362
 21
122.57932210024819
  0
LINE
  8
_0-2_0-10
  6
CONTINUOUS
 62
    7
 10
114.06557692128909
 20
118.22490943310397
 11
115.76833915898362
 21
119.92767167079857
  0
LINE
  8
_0-2_0-10
  6
CONTINUOUS
 62
    7
 10
114.1982652338534
 20
118.22490943310397
 11
113.66213312360611
 21
118.76104154335129
  0
LINE
  8
_0-2_0-10
  6
CONTINUOUS
 62
    7
 10
115.76833915898362
 20
119.3064859374233
 11
114.0683311213929
 21
121.00649397501399
  0
LINE
  8
_0-2_0-10
  6
CONTINUOUS
 62
    7
 10
115.76833915898362
 20
121.9581363668729
 11
114.35267397002259
 21
123.37380155583389
  0
LINE
  8
_0-2_0-10
  6
CONTINUOUS
 62
    7
 10
115.76833915898362
 20
124.60978679632239
 11
114.5129747342612
 21
125.86515122104489
  0
LINE
  8
_0-2_0-10
  6
CONTINUOUS
 62
    7
 10
115.76833915898362
 20
127.26143722577198
 11
114.5573516684916
 21
128.47242471626398
  0
LINE
  8
_0-2_0-10
  6
CONTINUOUS
 62
    7
 10
115.76833915898362
 20
127.88262295914728
 11
117.0483911999506
 21
129.1626750001142
  0
LINE
  8
_0-2_0-10
  6
CONTINUOUS
 62
    7
 10
115.76833915898362
 20
125.23097252969768
 11
119.7000416294002
 21
129.1626750001142
  0
LINE
  8
_0-2_0-10
  6
CONTINUOUS
 62
    7
 10
115.76833915898362
 20
122.57932210024819
 11
122.35169205884972
 21
129.1626750001142
  0
LINE
  8
_0-2_0-10
  6
CONTINUOUS
 62
    7
 10
115.76833915898362
 20
119.92767167079857
 11
125.00334248829932
 21
129.1626750001142
  0
LINE
  8
_0-2_0-10
  6
CONTINUOUS
 62
    7
 10
116.71722735073862
 20
118.22490943310397
 11
127.65499291774881
 21
129.1626750001142
  0
LINE
  8
_0-2_0-10
  6
CONTINUOUS
 62
    7
 10
119.36887778018818
 20
118.22490943310397
 11
130.30664334719841
 21
129.1626750001142
  0
LINE
  8
_0-2_0-10
  6
CONTINUOUS
 62
    7
 10
122.0205282096378
 20
118.22490943310397
 11
132.95829377664801
 21
129.1626750001142
  0
LINE
  8
_0-2_0-10
  6
CONTINUOUS
 62
    7
 10
124.67217863908732
 20
118.22490943310397
 11
135.6099442060975
 21
129.1626750001142
  0
LINE
  8
_0-2_0-10
  6
CONTINUOUS
 62
    7
 10
127.32382906853692
 20
118.22490943310397
 11
138.26159463554699
 21
129.1626750001142
  0
LINE
  8
_0-2_0-10
  6
CONTINUOUS
 62
    7
 10
129.97547949798641
 20
118.22490943310397
 11
140.9132450649966
 21
129.1626750001142
  0
LINE
  8
_0-2_0-10
  6
CONTINUOUS
 62
    7
 10
132.6271299274359
 20
118.22490943310397
 11
143.5648954944462
 21
129.1626750001142
  0
LINE
  8
_0-2_0-10
  6
CONTINUOUS
 62
    7
 10
135.2787803568855
 20
118.22490943310397
 11
146.21654592389572
 21
129.1626750001142
  0
LINE
  8
_0-2_0-10
  6
CONTINUOUS
 62
    7
 10
137.9304307863351
 20
118.22490943310397
 11
148.86819635334532
 21
129.1626750001142
  0
LINE
  8
_0-2_0-10
  6
CONTINUOUS
 62
    7
 10
140.58208121578462
 20
118.22490943310397
 11
151.51984678279481
 21
129.1626750001142
  0
LINE
  8
_0-2_0-10
  6
CONTINUOUS
 62
    7
 10
143.2337316452342
 20
118.22490943310397
 11
154.17149721224441
 21
129.1626750001142
  0
LINE
  8
_0-2_0-10
  6
CONTINUOUS
 62
    7
 10
145.88538207468371
 20
118.22490943310397
 11
156.82314764169402
 21
129.1626750001142
  0
LINE
  8
_0-2_0-10
  6
CONTINUOUS
 62
    7
 10
148.53703250413332
 20
118.22490943310397
 11
159.47479807114351
 21
129.1626750001142
  0
LINE
  8
_0-2_0-10
  6
CONTINUOUS
 62
    7
 10
151.18868293358281
 20
118.22490943310397
 11
162.12644850059311
 21
129.1626750001142
  0
LINE
  8
_0-2_0-10
  6
CONTINUOUS
 62
    7
 10
153.84033336303241
 20
118.22490943310397
 11
164.7780989300426
 21
129.1626750001142
  0
LINE
  8
_0-2_0-10
  6
CONTINUOUS
 62
    7
 10
156.49198379248201
 20
118.22490943310397
 11
167.4297493594922
 21
129.1626750001142
  0
LINE
  8
_0-2_0-10
  6
CONTINUOUS
 62
    7
 10
159.1436342219315
 20
118.22490943310397
 11
170.08139978894172
 21
129.1626750001142
  0
LINE
  8
_0-2_0-10
  6
CONTINUOUS
 62
    7
 10
161.79528465138102
 20
118.22490943310397
 11
172.73305021839129
 21
129.1626750001142
  0
LINE
  8
_0-2_0-10
  6
CONTINUOUS
 62
    7
 10
164.44693508083059
 20
118.22490943310397
 11
175.38470064784081
 21
129.1626750001142
  0
LINE
  8
_0-2_0-10
  6
CONTINUOUS
 62
    7
 10
167.0985855102802
 20
118.22490943310397
 11
178.16714133023401
 21
129.29346525305788
  0
LINE
  8
_0-2_0-10
  6
CONTINUOUS
 62
    7
 10
169.75023593972971
 20
118.22490943310397
 11
181.5150382903929
 21
129.9897117837672
  0
LINE
  8
_0-2_0-10
  6
CONTINUOUS
 62
    7
 10
172.40188636917932
 20
118.22490943310397
 11
189.95521590797912
 21
135.7782389719039
  0
LINE
  8
_0-2_0-10
  6
CONTINUOUS
 62
    7
 10
190.0942370283995
 20
135.91726009232428
 11
191.46116471969472
 21
137.2841877836195
  0
LINE
  8
_0-2_0-10
  6
CONTINUOUS
 62
    7
 10
175.05353679862881
 20
118.22490943310397
 11
193.78038220800971
 21
136.9517548424848
  0
LINE
  8
_0-2_0-10
  6
CONTINUOUS
 62
    7
 10
177.93142688292201
 20
118.45114908794768
 11
193.89013096325982
 21
134.4098531682855
  0
LINE
  8
_0-2_0-10
  6
CONTINUOUS
 62
    7
 10
185.44273744032301
 20
123.31080921589908
 11
193.25394563424691
 21
131.122017409823
  0
LINE
  8
_0-2_0-10
  6
CONTINUOUS
 62
    7
 10
188.61415819007021
 20
123.83057953619679
 11
192.43200437499402
 21
127.6484257211205
  0
LINE
  8
_0-2_0-10
  6
CONTINUOUS
 62
    7
 10
116.84991566330302
 20
118.22490943310397
 11
115.76833915898362
 21
119.3064859374233
  0
LINE
  8
_0-2_0-10
  6
CONTINUOUS
 62
    7
 10
119.50156609275251
 20
118.22490943310397
 11
115.76833915898362
 21
121.9581363668729
  0
LINE
  8
_0-2_0-10
  6
CONTINUOUS
 62
    7
 10
122.15321652220211
 20
118.22490943310397
 11
115.76833915898362
 21
124.60978679632239
  0
LINE
  8
_0-2_0-10
  6
CONTINUOUS
 62
    7
 10
124.8048669516516
 20
118.22490943310397
 11
115.76833915898362
 21
127.26143722577198
  0
LINE
  8
_0-2_0-10
  6
CONTINUOUS
 62
    7
 10
127.45651738110119
 20
118.22490943310397
 11
116.518751814091
 21
129.1626750001142
  0
LINE
  8
_0-2_0-10
  6
CONTINUOUS
 62
    7
 10
130.10816781055072
 20
118.22490943310397
 11
119.17040224354049
 21
129.1626750001142
  0
LINE
  8
_0-2_0-10
  6
CONTINUOUS
 62
    7
 10
132.75981824000029
 20
118.22490943310397
 11
121.82205267299011
 21
129.1626750001142
  0
LINE
  8
_0-2_0-10
  6
CONTINUOUS
 62
    7
 10
135.41146866944981
 20
118.22490943310397
 11
124.4737031024396
 21
129.1626750001142
  0
LINE
  8
_0-2_0-10
  6
CONTINUOUS
 62
    7
 10
138.06311909889942
 20
118.22490943310397
 11
127.1253535318892
 21
129.1626750001142
  0
LINE
  8
_0-2_0-10
  6
CONTINUOUS
 62
    7
 10
140.71476952834902
 20
118.22490943310397
 11
129.77700396133872
 21
129.1626750001142
  0
LINE
  8
_0-2_0-10
  6
CONTINUOUS
 62
    7
 10
143.36641995779851
 20
118.22490943310397
 11
132.42865439078832
 21
129.1626750001142
  0
LINE
  8
_0-2_0-10
  6
CONTINUOUS
 62
    7
 10
146.01807038724811
 20
118.22490943310397
 11
135.08030482023789
 21
129.1626750001142
  0
LINE
  8
_0-2_0-10
  6
CONTINUOUS
 62
    7
 10
148.6697208166976
 20
118.22490943310397
 11
137.73195524968741
 21
129.1626750001142
  0
LINE
  8
_0-2_0-10
  6
CONTINUOUS
 62
    7
 10
151.3213712461472
 20
118.22490943310397
 11
140.38360567913701
 21
129.1626750001142
  0
LINE
  8
_0-2_0-10
  6
CONTINUOUS
 62
    7
 10
153.97302167559681
 20
118.22490943310397
 11
143.0352561085865
 21
129.1626750001142
  0
LINE
  8
_0-2_0-10
  6
CONTINUOUS
 62
    7
 10
156.6246721050463
 20
118.22490943310397
 11
145.68690653803611
 21
129.1626750001142
  0
LINE
  8
_0-2_0-10
  6
CONTINUOUS
 62
    7
 10
159.2763225344959
 20
118.22490943310397
 11
148.3385569674856
 21
129.1626750001142
  0
LINE
  8
_0-2_0-10
  6
CONTINUOUS
 62
    7
 10
161.92797296394542
 20
118.22490943310397
 11
150.9902073969352
 21
129.1626750001142
  0
LINE
  8
_0-2_0-10
  6
CONTINUOUS
 62
    7
 10
164.57962339339491
 20
118.22490943310397
 11
153.64185782638472
 21
129.1626750001142
  0
LINE
  8
_0-2_0-10
  6
CONTINUOUS
 62
    7
 10
167.23127382284451
 20
118.22490943310397
 11
156.29350825583432
 21
129.1626750001142
  0
LINE
  8
_0-2_0-10
  6
CONTINUOUS
 62
    7
 10
169.88292425229411
 20
118.22490943310397
 11
158.94515868528381
 21
129.1626750001142
  0
LINE
  8
_0-2_0-10
  6
CONTINUOUS
 62
    7
 10
172.5345746817436
 20
118.22490943310397
 11
161.59680911473341
 21
129.1626750001142
  0
LINE
  8
_0-2_0-10
  6
CONTINUOUS
 62
    7
 10
175.1862251111932
 20
118.22490943310397
 11
164.2484595441829
 21
129.1626750001142
  0
LINE
  8
_0-2_0-10
  6
CONTINUOUS
 62
    7
 10
177.6900875666075
 20
118.37269740713908
 11
166.90010997363251
 21
129.1626750001142
  0
LINE
  8
_0-2_0-10
  6
CONTINUOUS
 62
    7
 10
179.3896795834091
 20
119.32475581978718
 11
169.55176040308199
 21
129.1626750001142
  0
LINE
  8
_0-2_0-10
  6
CONTINUOUS
 62
    7
 10
180.94928356073921
 20
120.4168022719067
 11
172.2034108325316
 21
129.1626750001142
  0
LINE
  8
_0-2_0-10
  6
CONTINUOUS
 62
    7
 10
182.50888753806921
 20
121.50884872402619
 11
174.85506126198112
 21
129.1626750001142
  0
LINE
  8
_0-2_0-10
  6
CONTINUOUS
 62
    7
 10
184.0706765206032
 20
122.59871017094178
 11
177.44433865879591
 21
129.2250480327491
  0
LINE
  8
_0-2_0-10
  6
CONTINUOUS
 62
    7
 10
185.86004259020862
 20
123.46099453078588
 11
179.77820123588682
 21
129.5428358851077
  0
LINE
  8
_0-2_0-10
  6
CONTINUOUS
 62
    7
 10
188.14221011619801
 20
123.830477434246
 11
181.86992985459741
 21
130.10275769584669
  0
LINE
  8
_0-2_0-10
  6
CONTINUOUS
 62
    7
 10
190.7150829460574
 20
123.90925503383617
 11
183.70229666065421
 21
130.92204131923929
  0
LINE
  8
_0-2_0-10
  6
CONTINUOUS
 62
    7
 10
191.82925776958532
 20
125.44673063975777
 11
185.2570600421159
 21
132.0189283672272
  0
LINE
  8
_0-2_0-10
  6
CONTINUOUS
 62
    7
 10
192.40047636308821
 20
127.5271624757045
 11
186.73006227780112
 21
133.19757656099159
  0
LINE
  8
_0-2_0-10
  6
CONTINUOUS
 62
    7
 10
192.92553743191191
 20
129.65375183633028
 11
188.20306451348622
 21
134.37622475475609
  0
LINE
  8
_0-2_0-10
  6
CONTINUOUS
 62
    7
 10
193.4022030893528
 20
131.82873660833899
 11
189.67606674917121
 21
135.55487294852048
  0
LINE
  8
_0-2_0-10
  6
CONTINUOUS
 62
    7
 10
193.82793911147271
 20
134.05465101566858
 11
190.6972811518253
 21
137.18530897531599
  0
LINE
  8
_0-2_0-10
  6
CONTINUOUS
 62
    7
 10
194.09674769465561
 20
136.43749286193519
 11
193.30216664279791
 21
137.23207391379298
  0
LINE
  8
_0-2_0-10
  6
CONTINUOUS
 62
    7
 10
110.88850207138999
 20
109.74453372430579
 11
112.3684990173015
 21
111.2245306702174
  0
LINE
  8
_0-2_0-10
  6
CONTINUOUS
 62
    7
 10
108.97747242690752
 20
105.18185365037379
 11
115.0201494467511
 21
111.2245306702174
  0
LINE
  8
_0-2_0-10
  6
CONTINUOUS
 62
    7
 10
106.75470594250559
 20
100.3074367365223
 11
115.76833915898362
 21
109.3210699530004
  0
LINE
  8
_0-2_0-10
  6
CONTINUOUS
 62
    7
 10
109.38568473863981
 20
100.28676510320697
 11
115.76833915898369
 21
106.6694195235508
  0
LINE
  8
_0-2_0-10
  6
CONTINUOUS
 62
    7
 10
112.03733516808928
 20
100.28676510320697
 11
115.76833915898362
 21
104.01776909410128
  0
LINE
  8
_0-2_0-10
  6
CONTINUOUS
 62
    7
 10
114.6889855975389
 20
100.28676510320697
 11
115.76833915898362
 21
101.36611866465169
  0
LINE
  8
_0-2_0-10
  6
CONTINUOUS
 62
    7
 10
108.2715556987045
 20
100.2867651032069
 11
107.22765660974272
 21
101.33066419216868
  0
LINE
  8
_0-2_0-10
  6
CONTINUOUS
 62
    7
 10
110.92320612815402
 20
100.2867651032069
 11
108.0617690670457
 21
103.14820216431529
  0
LINE
  8
_0-2_0-10
  6
CONTINUOUS
 62
    7
 10
113.57485655760362
 20
100.28676510320697
 11
108.885319448426
 21
104.97630221238449
  0
LINE
  8
_0-2_0-10
  6
CONTINUOUS
 62
    7
 10
115.76833915898362
 20
100.74493293127639
 11
109.69145670655572
 21
106.82181538370429
  0
LINE
  8
_0-2_0-10
  6
CONTINUOUS
 62
    7
 10
115.76833915898362
 20
103.39658336072598
 11
110.47290045629901
 21
108.6920220634106
  0
LINE
  8
_0-2_0-10
  6
CONTINUOUS
 62
    7
 10
115.76833915898362
 20
106.0482337901756
 11
111.2216014223336
 21
110.59497152682557
  0
LINE
  8
_0-2_0-10
  6
CONTINUOUS
 62
    7
 10
115.76833915898362
 20
108.69988421962509
 11
113.24369270839142
 21
111.22453067021729
  0
LINE
  8
_0-2_0-10
  6
CONTINUOUS
 62
    7
 10
115.76833915898362
 20
109.3210699530004
 11
117.67179987620062
 21
111.2245306702174
  0
LINE
  8
_0-2_0-10
  6
CONTINUOUS
 62
    7
 10
115.76833915898369
 20
106.6694195235508
 11
120.32345030565022
 21
111.2245306702174
  0
LINE
  8
_0-2_0-10
  6
CONTINUOUS
 62
    7
 10
115.76833915898362
 20
104.01776909410128
 11
122.97510073509971
 21
111.2245306702174
  0
LINE
  8
_0-2_0-10
  6
CONTINUOUS
 62
    7
 10
115.76833915898362
 20
101.36611866465169
 11
125.6267511645493
 21
111.2245306702174
  0
LINE
  8
_0-2_0-10
  6
CONTINUOUS
 62
    7
 10
117.34063602698842
 20
100.28676510320697
 11
128.27840159399892
 21
111.2245306702174
  0
LINE
  8
_0-2_0-10
  6
CONTINUOUS
 62
    7
 10
119.99228645643802
 20
100.28676510320697
 11
130.93005202344841
 21
111.2245306702174
  0
LINE
  8
_0-2_0-10
  6
CONTINUOUS
 62
    7
 10
122.64393688588751
 20
100.28676510320697
 11
133.5817024528979
 21
111.2245306702174
  0
LINE
  8
_0-2_0-10
  6
CONTINUOUS
 62
    7
 10
125.29558731533711
 20
100.28676510320697
 11
136.2333528823475
 21
111.2245306702174
  0
LINE
  8
_0-2_0-10
  6
CONTINUOUS
 62
    7
 10
127.9472377447867
 20
100.28676510320697
 11
138.8850033117971
 21
111.2245306702174
  0
LINE
  8
_0-2_0-10
  6
CONTINUOUS
 62
    7
 10
130.5988881742362
 20
100.28676510320697
 11
141.53665374124662
 21
111.2245306702174
  0
LINE
  8
_0-2_0-10
  6
CONTINUOUS
 62
    7
 10
133.25053860368581
 20
100.28676510320697
 11
144.18830417069611
 21
111.2245306702174
  0
LINE
  8
_0-2_0-10
  6
CONTINUOUS
 62
    7
 10
135.9021890331353
 20
100.28676510320697
 11
146.83995460014571
 21
111.2245306702174
  0
LINE
  8
_0-2_0-10
  6
CONTINUOUS
 62
    7
 10
138.5538394625849
 20
100.28676510320697
 11
149.49160502959531
 21
111.2245306702174
  0
LINE
  8
_0-2_0-10
  6
CONTINUOUS
 62
    7
 10
141.20548989203442
 20
100.28676510320697
 11
152.1432554590448
 21
111.2245306702174
  0
LINE
  8
_0-2_0-10
  6
CONTINUOUS
 62
    7
 10
143.85714032148402
 20
100.28676510320697
 11
154.79490588849441
 21
111.2245306702174
  0
LINE
  8
_0-2_0-10
  6
CONTINUOUS
 62
    7
 10
146.50879075093359
 20
100.28676510320697
 11
157.4465563179439
 21
111.2245306702174
  0
LINE
  8
_0-2_0-10
  6
CONTINUOUS
 62
    7
 10
149.16044118038311
 20
100.28676510320697
 11
160.0982067473935
 21
111.2245306702174
  0
LINE
  8
_0-2_0-10
  6
CONTINUOUS
 62
    7
 10
151.81209160983271
 20
100.28676510320697
 11
162.7498571768431
 21
111.2245306702174
  0
LINE
  8
_0-2_0-10
  6
CONTINUOUS
 62
    7
 10
154.4637420392822
 20
100.28676510320697
 11
165.40150760629262
 21
111.2245306702174
  0
LINE
  8
_0-2_0-10
  6
CONTINUOUS
 62
    7
 10
157.11539246873181
 20
100.28676510320697
 11
168.1546394550906
 21
111.32601208956579
  0
LINE
  8
_0-2_0-10
  6
CONTINUOUS
 62
    7
 10
159.7670428981813
 20
100.28676510320697
 11
171.2340956602494
 21
111.75381786527498
  0
LINE
  8
_0-2_0-10
  6
CONTINUOUS
 62
    7
 10
162.41869332763081
 20
100.28676510320697
 11
174.95208785151601
 21
112.82015962709209
  0
LINE
  8
_0-2_0-10
  6
CONTINUOUS
 62
    7
 10
165.07034375708042
 20
100.28676510320697
 11
180.21762923461912
 21
115.4340505807456
  0
LINE
  8
_0-2_0-10
  6
CONTINUOUS
 62
    7
 10
168.23488028306451
 20
100.7996511997415
 11
186.78127253704511
 21
119.3460434537221
  0
LINE
  8
_0-2_0-10
  6
CONTINUOUS
 62
    7
 10
175.1146642687199
 20
105.02778475594729
 11
189.07172282288792
 21
118.98484331011529
  0
LINE
  8
_0-2_0-10
  6
CONTINUOUS
 62
    7
 10
178.6248160879773
 20
105.88628614575519
 11
188.26244591585512
 21
115.52391597363288
  0
LINE
  8
_0-2_0-10
  6
CONTINUOUS
 62
    7
 10
181.28261557797151
 20
105.89243520629979
 11
185.8768099081717
 21
110.4866295365
  0
LINE
  8
_0-2_0-10
  6
CONTINUOUS
 62
    7
 10
116.22650698705318
 20
100.2867651032069
 11
115.76833915898362
 21
100.74493293127639
  0
LINE
  8
_0-2_0-10
  6
CONTINUOUS
 62
    7
 10
118.87815741650271
 20
100.2867651032069
 11
115.76833915898362
 21
103.39658336072598
  0
LINE
  8
_0-2_0-10
  6
CONTINUOUS
 62
    7
 10
121.5298078459523
 20
100.2867651032069
 11
115.76833915898362
 21
106.0482337901756
  0
LINE
  8
_0-2_0-10
  6
CONTINUOUS
 62
    7
 10
124.18145827540179
 20
100.28676510320697
 11
115.76833915898362
 21
108.69988421962509
  0
LINE
  8
_0-2_0-10
  6
CONTINUOUS
 62
    7
 10
126.83310870485141
 20
100.2867651032069
 11
115.89534313784102
 21
111.22453067021729
  0
LINE
  8
_0-2_0-10
  6
CONTINUOUS
 62
    7
 10
129.4847591343009
 20
100.28676510320697
 11
118.54699356729058
 21
111.22453067021729
  0
LINE
  8
_0-2_0-10
  6
CONTINUOUS
 62
    7
 10
132.1364095637505
 20
100.2867651032069
 11
121.19864399674011
 21
111.22453067021729
  0
LINE
  8
_0-2_0-10
  6
CONTINUOUS
 62
    7
 10
134.78805999320002
 20
100.2867651032069
 11
123.8502944261897
 21
111.22453067021729
  0
LINE
  8
_0-2_0-10
  6
CONTINUOUS
 62
    7
 10
137.43971042264962
 20
100.28676510320697
 11
126.50194485563919
 21
111.22453067021729
  0
LINE
  8
_0-2_0-10
  6
CONTINUOUS
 62
    7
 10
140.09136085209911
 20
100.28676510320697
 11
129.15359528508869
 21
111.22453067021729
  0
LINE
  8
_0-2_0-10
  6
CONTINUOUS
 62
    7
 10
142.74301128154871
 20
100.2867651032069
 11
131.8052457145383
 21
111.22453067021729
  0
LINE
  8
_0-2_0-10
  6
CONTINUOUS
 62
    7
 10
145.3946617109982
 20
100.2867651032069
 11
134.45689614398781
 21
111.22453067021729
  0
LINE
  8
_0-2_0-10
  6
CONTINUOUS
 62
    7
 10
148.04631214044781
 20
100.28676510320697
 11
137.10854657343742
 21
111.22453067021729
  0
LINE
  8
_0-2_0-10
  6
CONTINUOUS
 62
    7
 10
150.69796256989729
 20
100.28676510320697
 11
139.76019700288691
 21
111.22453067021729
  0
LINE
  8
_0-2_0-10
  6
CONTINUOUS
 62
    7
 10
153.3496129993469
 20
100.28676510320697
 11
142.41184743233651
 21
111.22453067021729
  0
LINE
  8
_0-2_0-10
  6
CONTINUOUS
 62
    7
 10
156.0012634287965
 20
100.2867651032069
 11
145.06349786178611
 21
111.22453067021729
  0
LINE
  8
_0-2_0-10
  6
CONTINUOUS
 62
    7
 10
158.65291385824602
 20
100.28676510320697
 11
147.7151482912356
 21
111.22453067021729
  0
LINE
  8
_0-2_0-10
  6
CONTINUOUS
 62
    7
 10
161.30456428769559
 20
100.28676510320697
 11
150.36679872068521
 21
111.22453067021729
  0
LINE
  8
_0-2_0-10
  6
CONTINUOUS
 62
    7
 10
163.95621471714511
 20
100.28676510320697
 11
153.01844915013469
 21
111.22453067021729
  0
LINE
  8
_0-2_0-10
  6
CONTINUOUS
 62
    7
 10
166.5798708325573
 20
100.31475941724427
 11
155.6700995795843
 21
111.22453067021729
  0
LINE
  8
_0-2_0-10
  6
CONTINUOUS
 62
    7
 10
168.54982817232721
 20
100.99645250692398
 11
158.32175000903382
 21
111.22453067021729
  0
LINE
  8
_0-2_0-10
  6
CONTINUOUS
 62
    7
 10
170.18174418043972
 20
102.01618692826099
 11
160.97340043848342
 21
111.22453067021729
  0
LINE
  8
_0-2_0-10
  6
CONTINUOUS
 62
    7
 10
171.8136601885522
 20
103.03592134959808
 11
163.62505086793299
 21
111.22453067021729
  0
LINE
  8
_0-2_0-10
  6
CONTINUOUS
 62
    7
 10
173.44557619666471
 20
104.0556557709352
 11
166.2652823624858
 21
111.235949605114
  0
LINE
  8
_0-2_0-10
  6
CONTINUOUS
 62
    7
 10
175.1217446839035
 20
105.03113771314588
 11
168.76722181376982
 21
111.38566058327957
  0
LINE
  8
_0-2_0-10
  6
CONTINUOUS
 62
    7
 10
177.10529882488421
 20
105.69923400161468
 11
171.08217829204539
 21
111.7223545344535
  0
LINE
  8
_0-2_0-10
  6
CONTINUOUS
 62
    7
 10
179.56374804964872
 20
105.89243520629969
 11
173.22694836742732
 21
112.2292348885212
  0
LINE
  8
_0-2_0-10
  6
CONTINUOUS
 62
    7
 10
182.21539847909832
 20
105.89243520629979
 11
175.19462247102711
 21
112.9132112143709
  0
LINE
  8
_0-2_0-10
  6
CONTINUOUS
 62
    7
 10
183.89457000568052
 20
106.8649141091671
 11
176.99434027327711
 21
113.76514384157039
  0
LINE
  8
_0-2_0-10
  6
CONTINUOUS
 62
    7
 10
184.85137866853051
 20
108.55975587576658
 11
178.74141583643969
 21
114.66971870785738
  0
LINE
  8
_0-2_0-10
  6
CONTINUOUS
 62
    7
 10
185.77433094608321
 20
110.2884540276635
 11
180.48849139960231
 21
115.5742935741444
  0
LINE
  8
_0-2_0-10
  6
CONTINUOUS
 62
    7
 10
186.66268938768391
 20
112.0517460155124
 11
182.2355669627648
 21
116.47886844043138
  0
LINE
  8
_0-2_0-10
  6
CONTINUOUS
 62
    7
 10
187.5156287447235
 20
113.85045708792229
 11
183.98264252592741
 21
117.38344330671839
  0
LINE
  8
_0-2_0-10
  6
CONTINUOUS
 62
    7
 10
188.33222714036961
 20
115.6855091217258
 11
185.24632095658751
 21
118.7714153055079
  0
LINE
  8
_0-2_0-10
  6
CONTINUOUS
 62
    7
 10
189.11145569707721
 20
117.55793099446768
 11
187.32334323782342
 21
119.3460434537215
  0
LINE
  8
_0-2_0-10
  6
CONTINUOUS
 62
    7
 10
102.59102999185452
 20
90.840459926972101
 11
105.0369564052028
 21
93.286386340320404
  0
LINE
  8
_0-2_0-10
  6
CONTINUOUS
 62
    7
 10
101.09080233206178
 20
86.688581837729799
 11
107.6886068346523
 21
93.286386340320404
  0
LINE
  8
_0-2_0-10
  6
CONTINUOUS
 62
    7
 10
100.01328251596838
 20
82.959411592186896
 11
110.34025726410192
 21
93.286386340320404
  0
LINE
  8
_0-2_0-10
  6
CONTINUOUS
 62
    7
 10
102.05414212654109
 20
82.348620773310088
 11
112.99190769355141
 21
93.286386340320404
  0
LINE
  8
_0-2_0-10
  6
CONTINUOUS
 62
    7
 10
104.70579255599071
 20
82.348620773310088
 11
115.64355812300101
 21
93.286386340320404
  0
LINE
  8
_0-2_0-10
  6
CONTINUOUS
 62
    7
 10
107.35744298544031
 20
82.348620773310088
 11
115.76833915898362
 21
90.759516946853494
  0
LINE
  8
_0-2_0-10
  6
CONTINUOUS
 62
    7
 10
110.0090934148898
 20
82.348620773310088
 11
115.76833915898362
 21
88.107866517403991
  0
LINE
  8
_0-2_0-10
  6
CONTINUOUS
 62
    7
 10
112.66074384433932
 20
82.348620773310088
 11
115.76833915898369
 21
85.456216087954388
  0
LINE
  8
_0-2_0-10
  6
CONTINUOUS
 62
    7
 10
115.31239427378892
 20
82.348620773310088
 11
115.76833915898369
 21
82.804565658504799
  0
LINE
  8
_0-2_0-10
  6
CONTINUOUS
 62
    7
 10
102.34484616355541
 20
82.348620773310088
 11
100.37255518644562
 21
84.320911750419796
  0
LINE
  8
_0-2_0-10
  6
CONTINUOUS
 62
    7
 10
104.996496593005
 20
82.348620773310088
 11
100.98340878118821
 21
86.361708585126791
  0
LINE
  8
_0-2_0-10
  6
CONTINUOUS
 62
    7
 10
107.64814702245449
 20
82.348620773309988
 11
101.65336470510911
 21
88.343403090655399
  0
LINE
  8
_0-2_0-10
  6
CONTINUOUS
 62
    7
 10
110.29979745190411
 20
82.348620773309988
 11
102.37168857894332
 21
90.276729646270794
  0
LINE
  8
_0-2_0-10
  6
CONTINUOUS
 62
    7
 10
112.9514478813536
 20
82.348620773310088
 11
103.12896418065328
 21
92.171104474010391
  0
LINE
  8
_0-2_0-10
  6
CONTINUOUS
 62
    7
 10
115.6030983108031
 20
82.348620773310088
 11
104.66533274379281
 21
93.286386340320404
  0
LINE
  8
_0-2_0-10
  6
CONTINUOUS
 62
    7
 10
115.76833915898362
 20
84.835030354579089
 11
107.3169831732424
 21
93.286386340320404
  0
LINE
  8
_0-2_0-10
  6
CONTINUOUS
 62
    7
 10
115.76833915898362
 20
87.486680784028692
 11
109.96863360269189
 21
93.286386340320404
  0
LINE
  8
_0-2_0-10
  6
CONTINUOUS
 62
    7
 10
115.76833915898362
 20
90.138331213478195
 11
112.62028403214151
 21
93.286386340320404
  0
LINE
  8
_0-2_0-10
  6
CONTINUOUS
 62
    7
 10
115.76833915898362
 20
92.789981642927784
 11
115.271934461591
 21
93.286386340320404
  0
LINE
  8
_0-2_0-10
  6
CONTINUOUS
 62
    7
 10
115.76833915898362
 20
90.759516946853494
 11
118.2952085524505
 21
93.286386340320404
  0
LINE
  8
_0-2_0-10
  6
CONTINUOUS
 62
    7
 10
115.76833915898362
 20
88.107866517403991
 11
120.9468589819001
 21
93.286386340320404
  0
LINE
  8
_0-2_0-10
  6
CONTINUOUS
 62
    7
 10
115.76833915898369
 20
85.456216087954388
 11
123.59850941134969
 21
93.286386340320404
  0
LINE
  8
_0-2_0-10
  6
CONTINUOUS
 62
    7
 10
115.76833915898369
 20
82.804565658504799
 11
126.25015984079918
 21
93.286386340320404
  0
LINE
  8
_0-2_0-10
  6
CONTINUOUS
 62
    7
 10
117.96404470323841
 20
82.348620773310088
 11
128.9018102702488
 21
93.286386340320404
  0
LINE
  8
_0-2_0-10
  6
CONTINUOUS
 62
    7
 10
120.615695132688
 20
82.348620773310088
 11
131.55346069969832
 21
93.286386340320404
  0
LINE
  8
_0-2_0-10
  6
CONTINUOUS
 62
    7
 10
123.2673455621375
 20
82.348620773310088
 11
134.20511112914792
 21
93.286386340320404
  0
LINE
  8
_0-2_0-10
  6
CONTINUOUS
 62
    7
 10
125.91899599158709
 20
82.348620773310088
 11
136.85676155859741
 21
93.286386340320404
  0
LINE
  8
_0-2_0-10
  6
CONTINUOUS
 62
    7
 10
128.57064642103671
 20
82.348620773310088
 11
139.50841198804701
 21
93.286386340320404
  0
LINE
  8
_0-2_0-10
  6
CONTINUOUS
 62
    7
 10
131.2222968504862
 20
82.348620773310088
 11
142.1600624174965
 21
93.286386340320404
  0
LINE
  8
_0-2_0-10
  6
CONTINUOUS
 62
    7
 10
133.8739472799358
 20
82.348620773310088
 11
144.84394007814461
 21
93.318613571518881
  0
LINE
  8
_0-2_0-10
  6
CONTINUOUS
 62
    7
 10
136.52559770938532
 20
82.348620773310088
 11
147.59856776588222
 21
93.421590829806888
  0
LINE
  8
_0-2_0-10
  6
CONTINUOUS
 62
    7
 10
139.17724813883481
 20
82.348620773310088
 11
150.46643263980121
 21
93.637805274276388
  0
LINE
  8
_0-2_0-10
  6
CONTINUOUS
 62
    7
 10
141.82889856828441
 20
82.348620773310088
 11
153.47135843470101
 21
93.991080639726703
  0
LINE
  8
_0-2_0-10
  6
CONTINUOUS
 62
    7
 10
144.48054899773401
 20
82.348620773310088
 11
156.6485879718262
 21
94.516659747402286
  0
LINE
  8
_0-2_0-10
  6
CONTINUOUS
 62
    7
 10
147.1321994271835
 20
82.348620773310088
 11
160.05263371550461
 21
95.269055061631206
  0
LINE
  8
_0-2_0-10
  6
CONTINUOUS
 62
    7
 10
150.71460593258902
 20
83.279376849266
 11
163.75747201078601
 21
96.322242927462895
  0
LINE
  8
_0-2_0-10
  6
CONTINUOUS
 62
    7
 10
155.89090802852422
 20
85.804028515751596
 11
167.73945963711912
 21
97.652580124346485
  0
LINE
  8
_0-2_0-10
  6
CONTINUOUS
 62
    7
 10
160.39108334426811
 20
87.652553402045896
 11
171.7404664277092
 21
99.001936485487107
  0
LINE
  8
_0-2_0-10
  6
CONTINUOUS
 62
    7
 10
163.34447124807462
 20
87.954290876402794
 11
176.79807949549731
 21
101.40789912382558
  0
LINE
  8
_0-2_0-10
  6
CONTINUOUS
 62
    7
 10
165.99612167752411
 20
87.954290876402794
 11
179.26012032367469
 21
101.21828952255339
  0
LINE
  8
_0-2_0-10
  6
CONTINUOUS
 62
    7
 10
168.7552975406167
 20
88.061816310045898
 11
174.64845501026002
 21
93.954973779689197
  0
LINE
  8
_0-2_0-10
  6
CONTINUOUS
 62
    7
 10
118.25474874025272
 20
82.348620773309988
 11
115.76833915898362
 21
84.835030354579089
  0
LINE
  8
_0-2_0-10
  6
CONTINUOUS
 62
    7
 10
120.90639916970232
 20
82.348620773310088
 11
115.76833915898362
 21
87.486680784028692
  0
LINE
  8
_0-2_0-10
  6
CONTINUOUS
 62
    7
 10
123.55804959915181
 20
82.348620773310088
 11
115.76833915898362
 21
90.138331213478195
  0
LINE
  8
_0-2_0-10
  6
CONTINUOUS
 62
    7
 10
126.2097000286014
 20
82.348620773310088
 11
115.76833915898362
 21
92.789981642927784
  0
LINE
  8
_0-2_0-10
  6
CONTINUOUS
 62
    7
 10
128.8613504580509
 20
82.348620773309988
 11
117.9235848910406
 21
93.286386340320404
  0
LINE
  8
_0-2_0-10
  6
CONTINUOUS
 62
    7
 10
131.51300088750051
 20
82.348620773309988
 11
120.57523532049019
 21
93.286386340320404
  0
LINE
  8
_0-2_0-10
  6
CONTINUOUS
 62
    7
 10
134.16465131694999
 20
82.348620773309988
 11
123.22688574993972
 21
93.286386340320404
  0
LINE
  8
_0-2_0-10
  6
CONTINUOUS
 62
    7
 10
136.8163017463996
 20
82.348620773310088
 11
125.8785361793893
 21
93.286386340320404
  0
LINE
  8
_0-2_0-10
  6
CONTINUOUS
 62
    7
 10
139.46795217584912
 20
82.348620773309988
 11
128.53018660883881
 21
93.286386340320404
  0
LINE
  8
_0-2_0-10
  6
CONTINUOUS
 62
    7
 10
142.11960260529872
 20
82.348620773309988
 11
131.18183703828842
 21
93.286386340320404
  0
LINE
  8
_0-2_0-10
  6
CONTINUOUS
 62
    7
 10
144.77125303474829
 20
82.348620773310088
 11
133.83348746773791
 21
93.286386340320404
  0
LINE
  8
_0-2_0-10
  6
CONTINUOUS
 62
    7
 10
147.42134221344892
 20
82.350182024058895
 11
136.48513789718751
 21
93.286386340320404
  0
LINE
  8
_0-2_0-10
  6
CONTINUOUS
 62
    7
 10
149.65876563172471
 20
82.764409035232688
 11
139.136788326637
 21
93.286386340320404
  0
LINE
  8
_0-2_0-10
  6
CONTINUOUS
 62
    7
 10
151.44110897504231
 20
83.633716121364599
 11
141.7884387560866
 21
93.286386340320404
  0
LINE
  8
_0-2_0-10
  6
CONTINUOUS
 62
    7
 10
153.2234523183599
 20
84.503023207496596
 11
144.41717818446971
 21
93.30929734138678
  0
LINE
  8
_0-2_0-10
  6
CONTINUOUS
 62
    7
 10
155.00579566167741
 20
85.372330293628593
 11
146.99618767160382
 21
93.381938283702197
  0
LINE
  8
_0-2_0-10
  6
CONTINUOUS
 62
    7
 10
156.788139004995
 20
86.241637379760589
 11
149.48406965020882
 21
93.545706734546797
  0
LINE
  8
_0-2_0-10
  6
CONTINUOUS
 62
    7
 10
158.59296537393311
 20
87.088461440272098
 11
151.8862396973154
 21
93.795187116889792
  0
LINE
  8
_0-2_0-10
  6
CONTINUOUS
 62
    7
 10
160.6286567509075
 20
87.704420492747189
 11
154.22343272406442
 21
94.109644519590403
  0
LINE
  8
_0-2_0-10
  6
CONTINUOUS
 62
    7
 10
163.03047448213482
 20
87.954253190969396
 11
156.4990402793588
 21
94.485687393745394
  0
LINE
  8
_0-2_0-10
  6
CONTINUOUS
 62
    7
 10
165.68208722615102
 20
87.954290876402794
 11
158.69573926912892
 21
94.940638833424884
  0
LINE
  8
_0-2_0-10
  6
CONTINUOUS
 62
    7
 10
168.32458229638692
 20
87.963446235616501
 11
160.819397151505
 21
95.468631380498294
  0
LINE
  8
_0-2_0-10
  6
CONTINUOUS
 62
    7
 10
169.94622609646481
 20
88.993452864988199
 11
162.88882997626612
 21
96.050848985186888
  0
LINE
  8
_0-2_0-10
  6
CONTINUOUS
 62
    7
 10
171.2761395128995
 20
90.315189878002996
 11
164.89728470983962
 21
96.694044681062905
  0
LINE
  8
_0-2_0-10
  6
CONTINUOUS
 62
    7
 10
172.57608216848362
 20
91.666897651868495
 11
166.88019149086201
 21
97.362788329490086
  0
LINE
  8
_0-2_0-10
  6
CONTINUOUS
 62
    7
 10
173.84601433744632
 20
93.048615912355302
 11
168.86309827188432
 21
98.031531977917296
  0
LINE
  8
_0-2_0-10
  6
CONTINUOUS
 62
    7
 10
175.0858499925556
 20
94.460430686695588
 11
170.8460050529066
 21
98.700275626344506
  0
LINE
  8
_0-2_0-10
  6
CONTINUOUS
 62
    7
 10
176.29545614025209
 20
95.902474968448586
 11
172.82891183392899
 21
99.369019274771687
  0
LINE
  8
_0-2_0-10
  6
CONTINUOUS
 62
    7
 10
177.47465178445992
 20
97.374929753690395
 11
174.7389582655129
 21
100.11062327263738
  0
LINE
  8
_0-2_0-10
  6
CONTINUOUS
 62
    7
 10
178.6232065000722
 20
98.878025467527606
 11
176.10645368312941
 21
101.3947782844705
  0
LINE
  8
_0-2_0-10
  6
CONTINUOUS
 62
    7
 10
179.60473929755852
 20
100.54814309949098
 11
178.74575303155631
 21
101.40712936549309
  0
LINE
  8
_0-2_0-10
  6
CONTINUOUS
 62
    7
 10
99.800695757866805
 20
74.791873545736592
 11
100.7992453444872
 21
75.790423132356991
  0
LINE
  8
_0-2_0-10
  6
CONTINUOUS
 62
    7
 10
99.787739097407126
 20
72.127266455827296
 11
103.28712771389442
 21
75.62665507231469
  0
LINE
  8
_0-2_0-10
  6
CONTINUOUS
 62
    7
 10
99.774782436947305
 20
69.462659365918
 11
105.7985926681861
 21
75.486469597156897
  0
LINE
  8
_0-2_0-10
  6
CONTINUOUS
 62
    7
 10
99.761825776487626
 20
66.798052276008789
 11
108.39347191566301
 21
75.429698415184091
  0
LINE
  8
_0-2_0-10
  6
CONTINUOUS
 62
    7
 10
101.79366464681112
 20
66.178240716882697
 11
110.98835116313981
 21
75.372927233211399
  0
LINE
  8
_0-2_0-10
  6
CONTINUOUS
 62
    7
 10
104.18057872321651
 20
65.913504363838598
 11
113.6484261601162
 21
75.3813518007383
  0
LINE
  8
_0-2_0-10
  6
CONTINUOUS
 62
    7
 10
106.63277546153412
 20
65.714050672706591
 11
115.76833915898362
 21
74.849614370156189
  0
LINE
  8
_0-2_0-10
  6
CONTINUOUS
 62
    7
 10
109.1553914891338
 20
65.585016270856698
 11
115.76833915898369
 21
72.1979639407066
  0
LINE
  8
_0-2_0-10
  6
CONTINUOUS
 62
    7
 10
111.75449381199362
 20
65.532468164267001
 11
115.76833915898362
 21
69.546313511257096
  0
LINE
  8
_0-2_0-10
  6
CONTINUOUS
 62
    7
 10
114.43732916067651
 20
65.563653083500398
 11
115.76833915898362
 21
66.894663081807493
  0
LINE
  8
_0-2_0-10
  6
CONTINUOUS
 62
    7
 10
102.71590577152301
 20
66.067658588645088
 11
99.772586135957425
 21
69.010978224210688
  0
LINE
  8
_0-2_0-10
  6
CONTINUOUS
 62
    7
 10
105.6500179217291
 20
65.7851968678886
 11
99.78541740253982
 21
71.649797387077896
  0
LINE
  8
_0-2_0-10
  6
CONTINUOUS
 62
    7
 10
108.47461061386511
 20
65.612254605202195
 11
99.798248669122216
 21
74.288616549945089
  0
LINE
  8
_0-2_0-10
  6
CONTINUOUS
 62
    7
 10
111.20169196150628
 20
65.536823687010496
 11
100.95858099017732
 21
75.779934658339399
  0
LINE
  8
_0-2_0-10
  6
CONTINUOUS
 62
    7
 10
113.84094738231181
 20
65.549218695654587
 11
103.79707922009508
 21
75.593086857871298
  0
LINE
  8
_0-2_0-10
  6
CONTINUOUS
 62
    7
 10
115.76833915898369
 20
66.273477348432194
 11
106.572273625622
 21
75.469542881793898
  0
LINE
  8
_0-2_0-10
  6
CONTINUOUS
 62
    7
 10
115.76833915898369
 20
68.925127777881797
 11
109.28323489809848
 21
75.410232038766991
  0
LINE
  8
_0-2_0-10
  6
CONTINUOUS
 62
    7
 10
115.76833915898362
 20
71.576778207331301
 11
111.99419617057492
 21
75.350921195740099
  0
LINE
  8
_0-2_0-10
  6
CONTINUOUS
 62
    7
 10
115.76833915898362
 20
74.22842863678089
 11
114.59475723934788
 21
75.402010556416598
  0
LINE
  8
_0-2_0-10
  6
CONTINUOUS
 62
    7
 10
115.76833915898362
 20
74.849614370156189
 11
116.35925498020408
 21
75.440530191376595
  0
LINE
  8
_0-2_0-10
  6
CONTINUOUS
 62
    7
 10
115.76833915898369
 20
72.1979639407066
 11
119.07165083896488
 21
75.501275620687891
  0
LINE
  8
_0-2_0-10
  6
CONTINUOUS
 62
    7
 10
115.76833915898362
 20
69.546313511257096
 11
121.91014932226642
 21
75.688123674539795
  0
LINE
  8
_0-2_0-10
  6
CONTINUOUS
 62
    7
 10
115.76833915898362
 20
66.894663081807493
 11
124.74864780556791
 21
75.874971728391699
  0
LINE
  8
_0-2_0-10
  6
CONTINUOUS
 62
    7
 10
117.2126677204299
 20
65.687341213804188
 11
127.67311252431122
 21
76.14778601768549
  0
LINE
  8
_0-2_0-10
  6
CONTINUOUS
 62
    7
 10
120.09128908993578
 20
65.914312153860592
 11
130.65533398336572
 21
76.478357047290501
  0
LINE
  8
_0-2_0-10
  6
CONTINUOUS
 62
    7
 10
123.086689997193
 20
66.258062631668195
 11
133.69313956091372
 21
76.864512195388897
  0
LINE
  8
_0-2_0-10
  6
CONTINUOUS
 62
    7
 10
126.2161520205381
 20
66.735874225563691
 11
136.84105748108191
 21
77.360779686107591
  0
LINE
  8
_0-2_0-10
  6
CONTINUOUS
 62
    7
 10
129.50242290792252
 20
67.370494683498591
 11
140.0363856208981
 21
77.904457396474199
  0
LINE
  8
_0-2_0-10
  6
CONTINUOUS
 62
    7
 10
132.9765083345398
 20
68.192929680666395
 11
143.38065776644131
 21
78.597079112567797
  0
LINE
  8
_0-2_0-10
  6
CONTINUOUS
 62
    7
 10
136.68263158346272
 20
69.247402500139699
 11
146.80476082925829
 21
79.36953174593529
  0
LINE
  8
_0-2_0-10
  6
CONTINUOUS
 62
    7
 10
140.68786850389571
 20
70.600988991123088
 11
150.38944512554581
 21
80.302565612773193
  0
LINE
  8
_0-2_0-10
  6
CONTINUOUS
 62
    7
 10
145.10335074716979
 20
72.364820804947598
 11
154.1407015854148
 21
81.402171643192588
  0
LINE
  8
_0-2_0-10
  6
CONTINUOUS
 62
    7
 10
150.14063836048552
 20
74.750457988813693
 11
158.85993516559901
 21
83.469754793927293
  0
LINE
  8
_0-2_0-10
  6
CONTINUOUS
 62
    7
 10
156.32130779982952
 20
78.27947699870819
 11
161.51001815286682
 21
83.468187351745498
  0
LINE
  8
_0-2_0-10
  6
CONTINUOUS
 62
    7
 10
116.40032179944481
 20
65.641494707971091
 11
115.76833915898369
 21
66.273477348432194
  0
LINE
  8
_0-2_0-10
  6
CONTINUOUS
 62
    7
 10
118.88642574091538
 20
65.807041195949992
 11
115.76833915898369
 21
68.925127777881797
  0
LINE
  8
_0-2_0-10
  6
CONTINUOUS
 62
    7
 10
121.30482643775701
 20
66.040290928557993
 11
115.76833915898362
 21
71.576778207331301
  0
LINE
  8
_0-2_0-10
  6
CONTINUOUS
 62
    7
 10
123.6602614235461
 20
66.336506372218394
 11
115.76833915898362
 21
74.22842863678089
  0
LINE
  8
_0-2_0-10
  6
CONTINUOUS
 62
    7
 10
125.95679847432579
 20
66.691619750888293
 11
117.18975785057952
 21
75.45866037463459
  0
LINE
  8
_0-2_0-10
  6
CONTINUOUS
 62
    7
 10
128.19795750818522
 20
67.102111146478492
 11
119.7538840946715
 21
75.546184559992099
  0
LINE
  8
_0-2_0-10
  6
CONTINUOUS
 62
    7
 10
130.38680495205912
 20
67.564914132054099
 11
122.24176626942571
 21
75.709952814687497
  0
LINE
  8
_0-2_0-10
  6
CONTINUOUS
 62
    7
 10
132.5260278108615
 20
68.07734170270119
 11
124.7296484441799
 21
75.873721069382796
  0
LINE
  8
_0-2_0-10
  6
CONTINUOUS
 62
    7
 10
134.6179925246796
 20
68.637027418332792
 11
127.16370080990782
 21
76.091319133104491
  0
LINE
  8
_0-2_0-10
  6
CONTINUOUS
 62
    7
 10
136.6647922554365
 20
69.241878117025393
 11
129.55075307463181
 21
76.355917297829989
  0
LINE
  8
_0-2_0-10
  6
CONTINUOUS
 62
    7
 10
138.66828525384221
 20
69.890035548069192
 11
131.9378053393558
 21
76.620515462555488
  0
LINE
  8
_0-2_0-10
  6
CONTINUOUS
 62
    7
 10
140.63012626541461
 20
70.579844965946293
 11
134.2566257543099
 21
76.953345477051001
  0
LINE
  8
_0-2_0-10
  6
CONTINUOUS
 62
    7
 10
142.55179244273671
 20
71.309829218073801
 11
136.54717273908991
 21
77.314448921720597
  0
LINE
  8
_0-2_0-10
  6
CONTINUOUS
 62
    7
 10
144.43460487650762
 20
72.078667213752396
 11
138.83771972386992
 21
77.675552366390192
  0
LINE
  8
_0-2_0-10
  6
CONTINUOUS
 62
    7
 10
146.27974659856201
 20
72.885175921147592
 11
141.05044621399412
 21
78.114476305715498
  0
LINE
  8
_0-2_0-10
  6
CONTINUOUS
 62
    7
 10
148.08827771784712
 20
73.728295231312088
 11
143.2471452045716
 21
78.569427744587599
  0
LINE
  8
_0-2_0-10
  6
CONTINUOUS
 62
    7
 10
149.86114820623461
 20
74.607075172374194
 11
145.44384419514901
 21
79.0243791834597
  0
LINE
  8
_0-2_0-10
  6
CONTINUOUS
 62
    7
 10
151.5992087417768
 20
75.520665066281495
 11
147.55505336055901
 21
79.5648204474993
  0
LINE
  8
_0-2_0-10
  6
CONTINUOUS
 62
    7
 10
153.30321993328962
 20
76.468304304218193
 11
149.65906456942022
 21
80.112459668087595
  0
LINE
  8
_0-2_0-10
  6
CONTINUOUS
 62
    7
 10
154.97386018535712
 20
77.449314481600296
 11
151.7623726070964
 21
80.660802059860998
  0
LINE
  8
_0-2_0-10
  6
CONTINUOUS
 62
    7
 10
156.61173241223062
 20
78.463092684176388
 11
153.78388107405382
 21
81.290944022353087
  0
LINE
  8
_0-2_0-10
  6
CONTINUOUS
 62
    7
 10
158.2173697691808
 20
79.509105756675694
 11
155.8053895410112
 21
81.921085984845291
  0
LINE
  8
_0-2_0-10
  6
CONTINUOUS
 62
    7
 10
159.7912405380928
 20
80.586885417213295
 11
157.11535494806821
 21
83.262771007237788
  0
LINE
  8
_0-2_0-10
  6
CONTINUOUS
 62
    7
 10
161.33375227857251
 20
81.696024106183088
 11
159.560021590828
 21
83.469754793927592
  0
LINE
  8
_0-2_0-10
  6
CONTINUOUS
 62
    7
 10
127.09006823978882
 20
178.9791084816957
 11
131.088067747898
 21
182.977107989805
  0
LINE
  8
_0-2_0-10
  6
CONTINUOUS
 62
    7
 10
124.1777558049026
 20
173.41514561735999
 11
133.73971817734749
 21
182.977107989805
  0
LINE
  8
_0-2_0-10
  6
CONTINUOUS
 62
    7
 10
125.45360303978702
 20
172.03934242279478
 11
136.3913686067971
 21
182.977107989805
  0
LINE
  8
_0-2_0-10
  6
CONTINUOUS
 62
    7
 10
128.10525346923651
 20
172.03934242279478
 11
139.0430190362467
 21
182.977107989805
  0
LINE
  8
_0-2_0-10
  6
CONTINUOUS
 62
    7
 10
130.756903898686
 20
172.03934242279478
 11
141.69466946569622
 21
182.977107989805
  0
LINE
  8
_0-2_0-10
  6
CONTINUOUS
 62
    7
 10
133.4085543281356
 20
172.03934242279478
 11
144.34631989514582
 21
182.977107989805
  0
LINE
  8
_0-2_0-10
  6
CONTINUOUS
 62
    7
 10
136.06020475758521
 20
172.03934242279478
 11
146.99797032459531
 21
182.977107989805
  0
LINE
  8
_0-2_0-10
  6
CONTINUOUS
 62
    7
 10
138.7118551870347
 20
172.03934242279478
 11
149.64962075404491
 21
182.977107989805
  0
LINE
  8
_0-2_0-10
  6
CONTINUOUS
 62
    7
 10
141.3635056164843
 20
172.03934242279478
 11
152.30127118349452
 21
182.977107989805
  0
LINE
  8
_0-2_0-10
  6
CONTINUOUS
 62
    7
 10
144.0151560459339
 20
172.03934242279478
 11
154.95292161294412
 21
182.977107989805
  0
LINE
  8
_0-2_0-10
  6
CONTINUOUS
 62
    7
 10
146.66680647538342
 20
172.03934242279478
 11
157.60457204239361
 21
182.977107989805
  0
LINE
  8
_0-2_0-10
  6
CONTINUOUS
 62
    7
 10
149.31845690483291
 20
172.03934242279478
 11
160.25622247184321
 21
182.977107989805
  0
LINE
  8
_0-2_0-10
  6
CONTINUOUS
 62
    7
 10
151.97010733428251
 20
172.03934242279478
 11
162.9078729012927
 21
182.977107989805
  0
LINE
  8
_0-2_0-10
  6
CONTINUOUS
 62
    7
 10
154.621757763732
 20
172.03934242279478
 11
165.55952333074222
 21
182.977107989805
  0
LINE
  8
_0-2_0-10
  6
CONTINUOUS
 62
    7
 10
157.2734081931816
 20
172.03934242279478
 11
168.21117376019182
 21
182.977107989805
  0
LINE
  8
_0-2_0-10
  6
CONTINUOUS
 62
    7
 10
159.92505862263121
 20
172.03934242279478
 11
170.8628241896414
 21
182.977107989805
  0
LINE
  8
_0-2_0-10
  6
CONTINUOUS
 62
    7
 10
162.5767090520807
 20
172.03934242279478
 11
173.514474619091
 21
182.977107989805
  0
LINE
  8
_0-2_0-10
  6
CONTINUOUS
 62
    7
 10
179.27640123729841
 20
188.7390346080125
 11
181.63598740259621
 21
191.09862077331018
  0
LINE
  8
_0-2_0-10
  6
CONTINUOUS
 62
    7
 10
165.2283594815303
 20
172.03934242279478
 11
176.21815665069271
 21
183.02913959195709
  0
LINE
  8
_0-2_0-10
  6
CONTINUOUS
 62
    7
 10
179.67128498921701
 20
186.48226793048149
 11
183.6686249534585
 21
190.47960789472298
  0
LINE
  8
_0-2_0-10
  6
CONTINUOUS
 62
    7
 10
167.88000991097982
 20
172.03934242279478
 11
184.64517328155611
 21
188.80450579337099
  0
LINE
  8
_0-2_0-10
  6
CONTINUOUS
 62
    7
 10
170.53166034042942
 20
172.03934242279478
 11
185.57558383879862
 21
187.08326592116409
  0
LINE
  8
_0-2_0-10
  6
CONTINUOUS
 62
    7
 10
173.183310769879
 20
172.03934242279478
 11
186.47156892253312
 21
185.32760057544899
  0
LINE
  8
_0-2_0-10
  6
CONTINUOUS
 62
    7
 10
175.83496119932851
 20
172.03934242279478
 11
187.3323231750524
 21
183.5367043985187
  0
LINE
  8
_0-2_0-10
  6
CONTINUOUS
 62
    7
 10
178.48661162877812
 20
172.03934242279478
 11
182.16589174574292
 21
175.71862253975959
  0
LINE
  8
_0-2_0-10
  6
CONTINUOUS
 62
    7
 10
183.89537619737882
 20
177.44810699139549
 11
188.15694666237649
 21
181.70967745639319
  0
LINE
  8
_0-2_0-10
  6
CONTINUOUS
 62
    7
 10
186.7439321613204
 20
177.6450125258876
 11
188.94443486243491
 21
179.84551522700209
  0
LINE
  8
_0-2_0-10
  6
CONTINUOUS
 62
    7
 10
124.02344255095201
 20
172.0393424227947
 11
123.62617009706629
 21
172.4366148766804
  0
LINE
  8
_0-2_0-10
  6
CONTINUOUS
 62
    7
 10
126.6750929804015
 20
172.03934242279478
 11
124.57981783409741
 21
174.1346175690989
  0
LINE
  8
_0-2_0-10
  6
CONTINUOUS
 62
    7
 10
129.3267434098511
 20
172.03934242279478
 11
125.51253631496318
 21
175.85354951768269
  0
LINE
  8
_0-2_0-10
  6
CONTINUOUS
 62
    7
 10
131.97839383930062
 20
172.03934242279478
 11
126.41730531324921
 21
177.60043094884619
  0
LINE
  8
_0-2_0-10
  6
CONTINUOUS
 62
    7
 10
134.63004426875022
 20
172.03934242279478
 11
127.28252170604511
 21
179.38686498549978
  0
LINE
  8
_0-2_0-10
  6
CONTINUOUS
 62
    7
 10
137.28169469819971
 20
172.0393424227947
 11
128.09116488028371
 21
181.22987224071079
  0
LINE
  8
_0-2_0-10
  6
CONTINUOUS
 62
    7
 10
139.93334512764931
 20
172.0393424227947
 11
128.9955795606391
 21
182.97710798980489
  0
LINE
  8
_0-2_0-10
  6
CONTINUOUS
 62
    7
 10
142.5849955570988
 20
172.0393424227947
 11
131.6472299900887
 21
182.97710798980489
  0
LINE
  8
_0-2_0-10
  6
CONTINUOUS
 62
    7
 10
145.23664598654841
 20
172.0393424227947
 11
134.29888041953822
 21
182.97710798980489
  0
LINE
  8
_0-2_0-10
  6
CONTINUOUS
 62
    7
 10
147.88829641599789
 20
172.0393424227947
 11
136.95053084898782
 21
182.97710798980489
  0
LINE
  8
_0-2_0-10
  6
CONTINUOUS
 62
    7
 10
150.5399468454475
 20
172.0393424227947
 11
139.60218127843731
 21
182.97710798980489
  0
LINE
  8
_0-2_0-10
  6
CONTINUOUS
 62
    7
 10
153.19159727489702
 20
172.03934242279478
 11
142.25383170788691
 21
182.97710798980489
  0
LINE
  8
_0-2_0-10
  6
CONTINUOUS
 62
    7
 10
155.84324770434662
 20
172.03934242279478
 11
144.9054821373364
 21
182.97710798980489
  0
LINE
  8
_0-2_0-10
  6
CONTINUOUS
 62
    7
 10
158.49489813379619
 20
172.03934242279478
 11
147.557132566786
 21
182.97710798980489
  0
LINE
  8
_0-2_0-10
  6
CONTINUOUS
 62
    7
 10
161.14654856324571
 20
172.03934242279478
 11
150.20878299623561
 21
182.97710798980489
  0
LINE
  8
_0-2_0-10
  6
CONTINUOUS
 62
    7
 10
163.7981989926952
 20
172.03934242279478
 11
152.8604334256851
 21
182.97710798980489
  0
LINE
  8
_0-2_0-10
  6
CONTINUOUS
 62
    7
 10
166.4498494221448
 20
172.03934242279478
 11
155.51208385513461
 21
182.97710798980489
  0
LINE
  8
_0-2_0-10
  6
CONTINUOUS
 62
    7
 10
169.10149985159432
 20
172.03934242279478
 11
158.16373428458422
 21
182.97710798980489
  0
LINE
  8
_0-2_0-10
  6
CONTINUOUS
 62
    7
 10
171.7531502810439
 20
172.03934242279478
 11
160.81538471403382
 21
182.97710798980489
  0
LINE
  8
_0-2_0-10
  6
CONTINUOUS
 62
    7
 10
174.4048007104935
 20
172.03934242279478
 11
163.4670351434834
 21
182.97710798980489
  0
LINE
  8
_0-2_0-10
  6
CONTINUOUS
 62
    7
 10
177.05645113994302
 20
172.03934242279478
 11
166.11868557293291
 21
182.97710798980489
  0
LINE
  8
_0-2_0-10
  6
CONTINUOUS
 62
    7
 10
179.70810156939262
 20
172.03934242279478
 11
168.7703360023824
 21
182.97710798980489
  0
LINE
  8
_0-2_0-10
  6
CONTINUOUS
 62
    7
 10
181.12728206365412
 20
173.27181235798289
 11
171.42198643183201
 21
182.97710798980489
  0
LINE
  8
_0-2_0-10
  6
CONTINUOUS
 62
    7
 10
181.91743932364252
 20
175.13330552744389
 11
174.07363686128149
 21
182.97710798980489
  0
LINE
  8
_0-2_0-10
  6
CONTINUOUS
 62
    7
 10
182.89114429676581
 20
176.8112509837702
 11
176.62016837831112
 21
183.0822269022249
  0
LINE
  8
_0-2_0-10
  6
CONTINUOUS
 62
    7
 10
184.7189630151623
 20
177.63508269482329
 11
178.62423644824221
 21
183.72980926174338
  0
LINE
  8
_0-2_0-10
  6
CONTINUOUS
 62
    7
 10
187.3606836135475
 20
177.64501252588749
 11
179.76187187376029
 21
185.24382426567478
  0
LINE
  8
_0-2_0-10
  6
CONTINUOUS
 62
    7
 10
189.2792643672453
 20
178.37808220163938
 11
179.35234781538432
 21
188.30499875350039
  0
LINE
  8
_0-2_0-10
  6
CONTINUOUS
 62
    7
 10
187.80492225249579
 20
182.5040747458384
 11
179.28757766109831
 21
191.02141933723589
  0
LINE
  8
_0-2_0-10
  6
CONTINUOUS
 62
    7
 10
185.23386064895692
 20
187.72678677882689
 11
181.86202665447362
 21
191.0986207733101
  0
LINE
  8
_0-2_0-10
  6
CONTINUOUS
 62
    7
 10
114.13141449069431
 20
144.80725129700479
 11
116.42498252370072
 21
147.1008193300112
  0
LINE
  8
_0-2_0-10
  6
CONTINUOUS
 62
    7
 10
114.18050224921178
 20
142.20468862607279
 11
119.07663295315032
 21
147.1008193300112
  0
LINE
  8
_0-2_0-10
  6
CONTINUOUS
 62
    7
 10
114.22959000772938
 20
139.60212595514079
 11
121.72828338259981
 21
147.1008193300112
  0
LINE
  8
_0-2_0-10
  6
CONTINUOUS
 62
    7
 10
114.278677766247
 20
136.99956328420879
 11
124.3799338120493
 21
147.1008193300112
  0
LINE
  8
_0-2_0-10
  6
CONTINUOUS
 62
    7
 10
116.09381867448871
 20
136.1630537630009
 11
127.0315842414989
 21
147.1008193300112
  0
LINE
  8
_0-2_0-10
  6
CONTINUOUS
 62
    7
 10
118.7454691039382
 20
136.1630537630009
 11
129.68323467094842
 21
147.1008193300112
  0
LINE
  8
_0-2_0-10
  6
CONTINUOUS
 62
    7
 10
121.39711953338779
 20
136.16305376300098
 11
132.33488510039802
 21
147.1008193300112
  0
LINE
  8
_0-2_0-10
  6
CONTINUOUS
 62
    7
 10
124.04876996283732
 20
136.16305376300098
 11
134.98653552984751
 21
147.1008193300112
  0
LINE
  8
_0-2_0-10
  6
CONTINUOUS
 62
    7
 10
126.7004203922869
 20
136.1630537630009
 11
137.63818595929711
 21
147.1008193300112
  0
LINE
  8
_0-2_0-10
  6
CONTINUOUS
 62
    7
 10
129.35207082173641
 20
136.1630537630009
 11
140.28983638874672
 21
147.1008193300112
  0
LINE
  8
_0-2_0-10
  6
CONTINUOUS
 62
    7
 10
132.00372125118602
 20
136.16305376300098
 11
142.94148681819621
 21
147.1008193300112
  0
LINE
  8
_0-2_0-10
  6
CONTINUOUS
 62
    7
 10
134.65537168063562
 20
136.16305376300098
 11
145.59313724764581
 21
147.1008193300112
  0
LINE
  8
_0-2_0-10
  6
CONTINUOUS
 62
    7
 10
137.30702211008511
 20
136.1630537630009
 11
148.2447876770953
 21
147.1008193300112
  0
LINE
  8
_0-2_0-10
  6
CONTINUOUS
 62
    7
 10
139.95867253953471
 20
136.1630537630009
 11
150.8964381065449
 21
147.1008193300112
  0
LINE
  8
_0-2_0-10
  6
CONTINUOUS
 62
    7
 10
142.6103229689842
 20
136.1630537630009
 11
153.5480885359945
 21
147.1008193300112
  0
LINE
  8
_0-2_0-10
  6
CONTINUOUS
 62
    7
 10
145.2619733984338
 20
136.1630537630009
 11
156.19973896544399
 21
147.1008193300112
  0
LINE
  8
_0-2_0-10
  6
CONTINUOUS
 62
    7
 10
147.91362382788329
 20
136.16305376300098
 11
158.8513893948936
 21
147.1008193300112
  0
LINE
  8
_0-2_0-10
  6
CONTINUOUS
 62
    7
 10
150.5652742573329
 20
136.16305376300098
 11
161.50303982434311
 21
147.1008193300112
  0
LINE
  8
_0-2_0-10
  6
CONTINUOUS
 62
    7
 10
153.2169246867825
 20
136.16305376300098
 11
164.15469025379272
 21
147.1008193300112
  0
LINE
  8
_0-2_0-10
  6
CONTINUOUS
 62
    7
 10
155.86857511623202
 20
136.1630537630009
 11
166.80634068324221
 21
147.1008193300112
  0
LINE
  8
_0-2_0-10
  6
CONTINUOUS
 62
    7
 10
158.52022554568162
 20
136.1630537630009
 11
169.45799111269181
 21
147.1008193300112
  0
LINE
  8
_0-2_0-10
  6
CONTINUOUS
 62
    7
 10
161.17187597513111
 20
136.1630537630009
 11
172.1096415421413
 21
147.1008193300112
  0
LINE
  8
_0-2_0-10
  6
CONTINUOUS
 62
    7
 10
163.8235264045806
 20
136.1630537630009
 11
174.7612919715909
 21
147.1008193300112
  0
LINE
  8
_0-2_0-10
  6
CONTINUOUS
 62
    7
 10
166.47517683403032
 20
136.16305376300098
 11
177.41294240104051
 21
147.1008193300112
  0
LINE
  8
_0-2_0-10
  6
CONTINUOUS
 62
    7
 10
169.12682726347981
 20
136.16305376300098
 11
180.06459283048999
 21
147.1008193300112
  0
LINE
  8
_0-2_0-10
  6
CONTINUOUS
 62
    7
 10
171.77847769292941
 20
136.16305376300098
 11
183.01681625130461
 21
147.40139232137619
  0
LINE
  8
_0-2_0-10
  6
CONTINUOUS
 62
    7
 10
174.4301281223789
 20
136.1630537630009
 11
186.76260234918311
 21
148.49552798980508
  0
LINE
  8
_0-2_0-10
  6
CONTINUOUS
 62
    7
 10
177.0817785518285
 20
136.1630537630009
 11
189.4142527786326
 21
148.49552798980508
  0
LINE
  8
_0-2_0-10
  6
CONTINUOUS
 62
    7
 10
179.73342898127802
 20
136.1630537630009
 11
192.0659032080822
 21
148.49552798980508
  0
LINE
  8
_0-2_0-10
  6
CONTINUOUS
 62
    7
 10
182.43965585529511
 20
136.21763020756839
 11
194.71755363753172
 21
148.49552798980508
  0
LINE
  8
_0-2_0-10
  6
CONTINUOUS
 62
    7
 10
190.50514136849662
 20
141.63146529132038
 11
195.06053641186971
 21
146.18686033469359
  0
LINE
  8
_0-2_0-10
  6
CONTINUOUS
 62
    7
 10
193.29405037271942
 20
141.76872386609369
 11
194.93939487510451
 21
143.4140683684788
  0
LINE
  8
_0-2_0-10
  6
CONTINUOUS
 62
    7
 10
114.82167391010341
 20
136.1630537630009
 11
114.28432023945831
 21
136.700407433646
  0
LINE
  8
_0-2_0-10
  6
CONTINUOUS
 62
    7
 10
117.4733243395529
 20
136.1630537630009
 11
114.2333451641517
 21
139.4030329384021
  0
LINE
  8
_0-2_0-10
  6
CONTINUOUS
 62
    7
 10
120.1249747690025
 20
136.1630537630009
 11
114.1823700888451
 21
142.10565844315829
  0
LINE
  8
_0-2_0-10
  6
CONTINUOUS
 62
    7
 10
122.77662519845202
 20
136.1630537630009
 11
114.13139501353849
 21
144.80828394791438
  0
LINE
  8
_0-2_0-10
  6
CONTINUOUS
 62
    7
 10
125.42827562790158
 20
136.1630537630009
 11
114.49051006089139
 21
147.10081933001109
  0
LINE
  8
_0-2_0-10
  6
CONTINUOUS
 62
    7
 10
128.0799260573512
 20
136.1630537630009
 11
117.14216049034088
 21
147.10081933001109
  0
LINE
  8
_0-2_0-10
  6
CONTINUOUS
 62
    7
 10
130.73157648680071
 20
136.1630537630009
 11
119.7938109197905
 21
147.10081933001109
  0
LINE
  8
_0-2_0-10
  6
CONTINUOUS
 62
    7
 10
133.3832269162502
 20
136.1630537630009
 11
122.44546134924
 21
147.10081933001109
  0
LINE
  8
_0-2_0-10
  6
CONTINUOUS
 62
    7
 10
136.03487734569981
 20
136.1630537630009
 11
125.09711177868962
 21
147.10081933001109
  0
LINE
  8
_0-2_0-10
  6
CONTINUOUS
 62
    7
 10
138.68652777514941
 20
136.1630537630009
 11
127.74876220813911
 21
147.10081933001109
  0
LINE
  8
_0-2_0-10
  6
CONTINUOUS
 62
    7
 10
141.3381782045989
 20
136.1630537630009
 11
130.40041263758871
 21
147.10081933001109
  0
LINE
  8
_0-2_0-10
  6
CONTINUOUS
 62
    7
 10
143.98982863404842
 20
136.1630537630009
 11
133.0520630670382
 21
147.1008193300112
  0
LINE
  8
_0-2_0-10
  6
CONTINUOUS
 62
    7
 10
146.64147906349802
 20
136.1630537630009
 11
135.7037134964878
 21
147.10081933001109
  0
LINE
  8
_0-2_0-10
  6
CONTINUOUS
 62
    7
 10
149.29312949294751
 20
136.1630537630009
 11
138.35536392593732
 21
147.10081933001109
  0
LINE
  8
_0-2_0-10
  6
CONTINUOUS
 62
    7
 10
151.94477992239711
 20
136.1630537630009
 11
141.0070143553869
 21
147.10081933001109
  0
LINE
  8
_0-2_0-10
  6
CONTINUOUS
 62
    7
 10
154.5964303518466
 20
136.1630537630009
 11
143.65866478483641
 21
147.10081933001109
  0
LINE
  8
_0-2_0-10
  6
CONTINUOUS
 62
    7
 10
157.2480807812962
 20
136.1630537630009
 11
146.3103152142859
 21
147.10081933001109
  0
LINE
  8
_0-2_0-10
  6
CONTINUOUS
 62
    7
 10
159.89973121074569
 20
136.1630537630009
 11
148.96196564373551
 21
147.10081933001109
  0
LINE
  8
_0-2_0-10
  6
CONTINUOUS
 62
    7
 10
162.5513816401953
 20
136.1630537630009
 11
151.61361607318511
 21
147.10081933001109
  0
LINE
  8
_0-2_0-10
  6
CONTINUOUS
 62
    7
 10
165.2030320696449
 20
136.1630537630009
 11
154.26526650263471
 21
147.10081933001109
  0
LINE
  8
_0-2_0-10
  6
CONTINUOUS
 62
    7
 10
167.8546824990945
 20
136.1630537630009
 11
156.91691693208431
 21
147.10081933001109
  0
LINE
  8
_0-2_0-10
  6
CONTINUOUS
 62
    7
 10
170.50633292854402
 20
136.1630537630009
 11
159.5685673615338
 21
147.10081933001109
  0
LINE
  8
_0-2_0-10
  6
CONTINUOUS
 62
    7
 10
173.1579833579936
 20
136.1630537630009
 11
162.22021779098341
 21
147.10081933001109
  0
LINE
  8
_0-2_0-10
  6
CONTINUOUS
 62
    7
 10
175.80963378744311
 20
136.1630537630009
 11
164.8718682204329
 21
147.10081933001109
  0
LINE
  8
_0-2_0-10
  6
CONTINUOUS
 62
    7
 10
178.46128421689272
 20
136.1630537630009
 11
167.52351864988241
 21
147.10081933001109
  0
LINE
  8
_0-2_0-10
  6
CONTINUOUS
 62
    7
 10
181.11293464634221
 20
136.1630537630009
 11
170.17516907933202
 21
147.10081933001109
  0
LINE
  8
_0-2_0-10
  6
CONTINUOUS
 62
    7
 10
183.3801787239164
 20
136.5474601148762
 11
172.82681950878151
 21
147.10081933001109
  0
LINE
  8
_0-2_0-10
  6
CONTINUOUS
 62
    7
 10
184.82199864822581
 20
137.7572906200165
 11
175.47846993823111
 21
147.10081933001109
  0
LINE
  8
_0-2_0-10
  6
CONTINUOUS
 62
    7
 10
186.2638185725352
 20
138.96712112515658
 11
178.1301203676806
 21
147.10081933001109
  0
LINE
  8
_0-2_0-10
  6
CONTINUOUS
 62
    7
 10
187.70563849684461
 20
140.17695163029679
 11
180.7663927616069
 21
147.11619736553438
  0
LINE
  8
_0-2_0-10
  6
CONTINUOUS
 62
    7
 10
189.30247017304699
 20
141.2317703835439
 11
183.11294018210432
 21
147.4213003744866
  0
LINE
  8
_0-2_0-10
  6
CONTINUOUS
 62
    7
 10
191.4275046976133
 20
141.75838628842708
 11
185.1136577405262
 21
148.07223324551429
  0
LINE
  8
_0-2_0-10
  6
CONTINUOUS
 62
    7
 10
193.9993667550899
 20
141.83817466040008
 11
187.34201342568491
 21
148.49552798980508
  0
LINE
  8
_0-2_0-10
  6
CONTINUOUS
 62
    7
 10
194.94700076764192
 20
143.54219107729758
 11
189.9936638551344
 21
148.49552798980508
  0
LINE
  8
_0-2_0-10
  6
CONTINUOUS
 62
    7
 10
195.0576452056608
 20
146.08319706872819
 11
192.645314284584
 21
148.49552798980499
  0
LINE
  8
_0-2_0-10
  6
CONTINUOUS
 62
    7
 10
186.76260234918311
 20
148.49552798980508
 11
193.48940647289421
 21
155.2223321135163
  0
LINE
  8
_0-2_0-10
  6
CONTINUOUS
 62
    7
 10
189.4142527786326
 20
148.49552798980508
 11
194.9129369823641
 21
153.99421219353658
  0
LINE
  8
_0-2_0-10
  6
CONTINUOUS
 62
    7
 10
192.0659032080822
 20
148.49552798980508
 11
195.03977461354111
 21
151.4693993952641
  0
LINE
  8
_0-2_0-10
  6
CONTINUOUS
 62
    7
 10
194.71755363753172
 20
148.49552798980508
 11
195.0911934204478
 21
148.86916777272108
  0
LINE
  8
_0-2_0-10
  6
CONTINUOUS
 62
    7
 10
187.34201342568491
 20
148.49552798980508
 11
186.72221568465911
 21
149.1153257308309
  0
LINE
  8
_0-2_0-10
  6
CONTINUOUS
 62
    7
 10
189.99366385513451
 20
148.49552798980499
 11
187.95729102208591
 21
150.53190082285368
  0
LINE
  8
_0-2_0-10
  6
CONTINUOUS
 62
    7
 10
192.645314284584
 20
148.49552798980499
 11
189.17480271682291
 21
151.96603955756609
  0
LINE
  8
_0-2_0-10
  6
CONTINUOUS
 62
    7
 10
195.09176921425159
 20
148.70072348958709
 11
190.39231441156002
 21
153.40017829227869
  0
LINE
  8
_0-2_0-10
  6
CONTINUOUS
 62
    7
 10
195.0421155894889
 20
151.4020275437993
 11
191.29995407749029
 21
155.14418905579788
  0
LINE
  8
_0-2_0-10
  6
CONTINUOUS
 62
    7
 10
194.8727945645302
 20
154.2229989982076
 11
193.91872205742072
 21
155.177071505317
  0
TEXT
  8
_0-1_0-00
 62
    7
 10
-34.572688984745752
 20
-19.47697114581112
 40
4.3874999999999992
 41
1
 50
0
  1
型番：VC150JKAP-FD□　　※)□はカラーを示します。
  0
TEXT
  8
_0-1_0-00
 62
    7
 10
381.98556058890142
 20
-25.805775764439488
 40
4.875
 41
1
 50
0
  1
耐外風フード付換気口(網・FD付)
  0
ENDSEC
  0
EOF
