  0
SECTION
  2
HEADER
  9
$ACADVER
  1
AC1009
  9
$INSBASE
 10
0
 20
0
 30
0
  9
$EXTMIN
 10
0
 20
0
  9
$EXTMAX
 10
420
 20
297
  9
$LIMMIN
 10
0
 20
0
  9
$LIMMAX
 10
420
 20
297
  9
$LTSCALE
 40
1
  0
ENDSEC
  0
SECTION
  2
TABLES
  0
TABLE
  2
LTYPE
 70
     9
  0
LTYPE
  2
CONTINUOUS
 70
    64
  3
実線
 72
    65
 73
     0
 40
0.0
  0
LTYPE
  2
DASHED1
 70
    64
  3
--  --  --  --  --  --  --  --  
 72
    65
 73
     2
 40
2.5
 49
1.25
 49
-1.25
  0
LTYPE
  2
DASHED2
 70
    64
  3
----    ----    ----    ----    
 72
    65
 73
     2
 40
5.0
 49
2.5
 49
-2.5
  0
LTYPE
  2
DASHED3
 70
    64
  3
------  ------  ------  ------  
 72
    65
 73
     2
 40
5.0
 49
3.75
 49
-1.25
  0
LTYPE
  2
CENTER1
 70
    64
  3
----- - ----- - ----- - ----- - 
 72
    65
 73
     4
 40
10.0
 49
6.25
 49
-1.25
 49
1.25
 49
-1.25
  0
LTYPE
  2
CENTER2
 70
    64
  3
----------  --  ----------  --  
 72
    65
 73
     4
 40
20.0
 49
12.5
 49
-2.5
 49
2.5
 49
-2.5
  0
LTYPE
  2
PHANTOM1
 70
    64
  3
--- - - --- - - --- - - --- - - 
 72
    65
 73
     6
 40
10.0
 49
3.25
 49
-1.25
 49
1.25
 49
-1.25
 49
1.25
 49
-1.25
  0
LTYPE
  2
PHANTOM2
 70
    64
  3
--------  -  -  --------  -  -  
 72
    65
 73
     6
 40
20.0
 49
10.0
 49
-2.5
 49
1.25
 49
-2.5
 49
1.25
 49
-2.5
  0
LTYPE
  2
DOT
 70
    64
  3
-   -   -   -   -   -   -   -   
 72
    65
 73
     2
 40
2.5
 49
0.625
 49
-1.875
  0
LTYPE
  2
DUMMY
 70
    64
  3
ダミー
 72
    65
 73
     0
 40
0.0
  0
LTYPE
  2
RAND1
 70
    64
  3
ランダム線1
 72
    65
 73
     4
 40
10.0
 49
1.0
 49
-2.0
 49
3.0
 49
-4.0
  0
LTYPE
  2
RAND2
 70
    64
  3
ランダム線2
 72
    65
 73
     4
 40
14.0
 49
2.0
 49
-3.0
 49
4.0
 49
-5.0
  0
LTYPE
  2
RAND3
 70
    64
  3
ランダム線3
 72
    65
 73
     4
 40
18.0
 49
3.0
 49
-4.0
 49
5.0
 49
-6.0
  0
LTYPE
  2
RAND4
 70
    64
  3
ランダム線4
 72
    65
 73
     4
 40
22.0
 49
4.0
 49
-5.0
 49
6.0
 49
-7.0
  0
LTYPE
  2
RAND5
 70
    64
  3
ランダム線5
 72
    65
 73
     4
 40
26.0
 49
5.0
 49
-6.0
 49
7.0
 49
-8.0
  0
LTYPE
  2
LONG1
 70
    64
  3
----------  --  ----------  --  
 72
    65
 73
     4
 40
40.0
 49
32.5
 49
-2.5
 49
2.5
 49
-2.5
  0
LTYPE
  2
LONG2
 70
    64
  3
--------  -  -  --------  -  -  
 72
    65
 73
     6
 40
40.0
 49
30.0
 49
-2.5
 49
1.25
 49
-2.5
 49
1.25
 49
-2.5
  0
LTYPE
  2
LONG3
 70
    64
  3
+++++++++++++++..+++++++++++++++
 72
    65
 73
     2
 40
40.0
 49
37.5
 49
-2.5
  0
LTYPE
  2
LONG4
 70
    64
  3
+++++++++++++++..+++++++++++++++
 72
    65
 73
     2
 40
80.0
 49
75.0
 49
-5.0
  0
LTYPE
  2
LONG5
 70
    64
  3
----------  --  ----------  --  
 72
    65
 73
     4
 40
60.0
 49
37.5
 49
-7.5
 49
7.5
 49
-7.5
  0
LTYPE
  2
dashed
 70
   64
  3
-------   -------------   ------
 72
   65
 73
    2
 40
7.5
 49
6
 49
-1.5
  0
LTYPE
  2
dashed_spaced
 70
   64
  3
----        --------        ----
 72
   65
 73
    2
 40
12
 49
6
 49
-6
  0
LTYPE
  2
long_dashed_dotted
 70
   64
  3
------------- --- --------------
 72
   65
 73
    4
 40
15.25
 49
12
 49
-1.5
 49
0.25
 49
-1.5
  0
LTYPE
  2
long_dashed_double-dotted
 70
   64
  3
----------- --- --- ------------
 72
   65
 73
    6
 40
17
 49
12
 49
-1.5
 49
0.25
 49
-1.5
 49
0.25
 49
-1.5
  0
LTYPE
  2
long_dashed_triplicate-dotted
 70
   64
  3
--------- --- --- --- ----------
 72
   65
 73
    8
 40
18.75
 49
12
 49
-1.5
 49
0.25
 49
-1.5
 49
0.25
 49
-1.5
 49
0.25
 49
-1.5
  0
LTYPE
  2
dotted
 70
   64
  3
   -       -       -       -    
 72
   65
 73
    2
 40
1.75
 49
0.25
 49
-1.5
  0
LTYPE
  2
chain
 70
   64
  3
-------------- -- --------------
 72
   65
 73
    4
 40
18.5
 49
12
 49
-1.5
 49
3.5
 49
-1.5
  0
LTYPE
  2
chain_double_dash
 70
   64
  3
------------ -- -- -------------
 72
   65
 73
    6
 40
23.5
 49
12
 49
-1.5
 49
3.5
 49
-1.5
 49
3.5
 49
-1.5
  0
LTYPE
  2
dashed_dotted
 70
   64
  3
-----------     -     ----------
 72
   65
 73
    4
 40
9.25
 49
6
 49
-1.5
 49
0.25
 49
-1.5
  0
LTYPE
  2
double-dashed_dotted
 70
   64
  3
------   -----------   -   -----
 72
   65
 73
    6
 40
16.75
 49
6
 49
-1.5
 49
6
 49
-1.5
 49
0.25
 49
-1.5
  0
LTYPE
  2
dashed_double-dotted
 70
   64
  3
---------    -    -    ---------
 72
   65
 73
    6
 40
11
 49
6
 49
-1.5
 49
0.25
 49
-1.5
 49
0.25
 49
-1.5
  0
LTYPE
  2
double-dashed_double-dotted
 70
   64
  3
-----   ---------   -   -   ----
 72
   65
 73
    8
 40
18.5
 49
6
 49
-1.5
 49
6
 49
-1.5
 49
0.25
 49
-1.5
 49
0.25
 49
-1.5
  0
LTYPE
  2
dashed_triplicate-dotted
 70
   64
  3
-------    -    -    -    ------
 72
   65
 73
    8
 40
12.75
 49
6
 49
-1.5
 49
0.25
 49
-1.5
 49
0.25
 49
-1.5
 49
0.25
 49
-1.5
  0
LTYPE
  2
double-dashed_triplicate-dotted
 70
   64
  3
-----  ---------  -  -  -  -----
 72
   65
 73
   10
 40
20.25
 49
6
 49
-1.5
 49
6
 49
-1.5
 49
0.25
 49
-1.5
 49
0.25
 49
-1.5
 49
0.25
 49
-1.5
  0
LTYPE
  2
undefined
 70
   64
  3
--------------------------------
 72
   65
 73
    0
 40
0
  0
LTYPE
  2
_
 70
   64
  3
                                
 72
   65
 73
    0
 40
0
  0
LTYPE
  2
__18
 70
   64
  3
                                
 72
   65
 73
    0
 40
0
  0
LTYPE
  2
__19
 70
   64
  3
                                
 72
   65
 73
    0
 40
0
  0
LTYPE
  2
__20
 70
   64
  3
                                
 72
   65
 73
    0
 40
0
  0
LTYPE
  2
__21
 70
   64
  3
                                
 72
   65
 73
    0
 40
0
  0
LTYPE
  2
__22
 70
   64
  3
                                
 72
   65
 73
    0
 40
0
  0
LTYPE
  2
__23
 70
   64
  3
                                
 72
   65
 73
    0
 40
0
  0
LTYPE
  2
__24
 70
   64
  3
                                
 72
   65
 73
    0
 40
0
  0
LTYPE
  2
__25
 70
   64
  3
                                
 72
   65
 73
    0
 40
0
  0
LTYPE
  2
__26
 70
   64
  3
                                
 72
   65
 73
    0
 40
0
  0
LTYPE
  2
__27
 70
   64
  3
                                
 72
   65
 73
    0
 40
0
  0
LTYPE
  2
__28
 70
   64
  3
                                
 72
   65
 73
    0
 40
0
  0
LTYPE
  2
__29
 70
   64
  3
                                
 72
   65
 73
    0
 40
0
  0
LTYPE
  2
__30
 70
   64
  3
                                
 72
   65
 73
    0
 40
0
  0
LTYPE
  2
__31
 70
   64
  3
                                
 72
   65
 73
    0
 40
0
  0
LTYPE
  2
__32
 70
   64
  3
                                
 72
   65
 73
    0
 40
0
  0
ENDTAB
  0
TABLE
  2
STYLE
  5
3
100
AcDbSymbolTable
 70
     1
  0
STYLE
  5
10
100
AcDbSymbolTableRecord
100
AcDbTextStyleTableRecord
  2
STANDARD
 70
     0
 40
0.0
 41
1.0
 50
0.0
 71
     0
 42
0.2
  3
txt
  4
bigfont.shx
  0
STYLE
  5
26
100
AcDbSymbolTableRecord
100
AcDbTextStyleTableRecord
  2
TATEGAKI
 70
    68
 40
0.0
 41
1.0
 50
0.0
 71
     0
 42
1.0
  3
txt
  4
bigfont.shx
  0
ENDTAB
  0
TABLE
  2
LAYER
 70
    5
  0
LAYER
  2
_0-0_0
 70
   64
 62
    7
  6
CONTINUOUS
  0
LAYER
  2
_0-1_0-00
 70
   64
 62
    7
  6
CONTINUOUS
  0
LAYER
  2
_0-2_0-30
 70
   64
 62
    7
  6
CONTINUOUS
  0
LAYER
  2
_0-4_0-10
 70
   64
 62
    7
  6
CONTINUOUS
  0
LAYER
  2
ADD_LINE
 70
   64
 62
    7
  6
CONTINUOUS
  0
ENDTAB
  0
ENDSEC
  0
SECTION
  2
BLOCKS
  0
BLOCK
  2
-000-A$C89e5b149_3
 70
   64
 10
0
 20
0
 30
0
  0
LINE
  8
_0-0_0
  6
CONTINUOUS
 62
    3
 10
-195
 20
10
 11
0
 21
10
  0
TEXT
  8
_0-0_0
 62
    7
 10
-188.5
 20
2.689999999999999
 40
3.8999999999999999
 41
1
 50
0
  1
マックス株式会社
  0
LINE
  8
_0-0_0
  6
CONTINUOUS
 62
    3
 10
-195
 20
10
 11
-195
 21
0
  0
LINE
  8
_0-0_0
  6
CONTINUOUS
 62
    3
 10
-135
 20
10
 11
-135
 21
0
  0
LINE
  8
_0-0_0
  6
CONTINUOUS
 62
    3
 10
-75
 20
10
 11
-75
 21
0
  0
TEXT
  8
_0-0_0
 62
    7
 10
-124.167
 20
2.689999999999999
 40
3.8999999999999999
 41
1
 50
0
  1
2024/1/9
  0
TEXT
  8
_0-0_0
 62
    7
 10
-73.5
 20
5.6139999999999989
 40
2.3399999999999989
 41
1
 50
0
  1
名称
  0
TEXT
  8
_0-0_0
 62
    7
 10
-133.5
 20
5.6139999999999989
 40
2.3399999999999989
 41
1
 50
0
  1
日付
  0
ENDBLK
  0
BLOCK
  2
-001-EDTIP_ARROW_S
 70
   64
 10
0
 20
0
 30
0
  0
LINE
  8
_0-0_0
  6
CONTINUOUS
 62
    7
 10
0
 20
0
 11
-1
 21
0
  0
LINE
  8
_0-0_0
  6
CONTINUOUS
 62
    7
 10
0
 20
0
 11
-0.9659259999999999
 21
0.258819
  0
LINE
  8
_0-0_0
  6
CONTINUOUS
 62
    7
 10
0
 20
0
 11
-0.9659259999999999
 21
-0.258819
  0
ENDBLK
  0
BLOCK
  2
-002-EDTIP_ARROW_E
 70
   64
 10
0
 20
0
 30
0
  0
LINE
  8
_0-0_0
  6
CONTINUOUS
 62
    7
 10
0
 20
0
 11
-1
 21
0
  0
LINE
  8
_0-0_0
  6
CONTINUOUS
 62
    7
 10
0
 20
0
 11
-0.9659259999999999
 21
-0.258819
  0
LINE
  8
_0-0_0
  6
CONTINUOUS
 62
    7
 10
0
 20
0
 11
-0.9659259999999999
 21
0.258819
  0
ENDBLK
  0
BLOCK
  2
-003-_D3
 70
   64
 10
0
 20
0
 30
0
  0
LINE
  8
_0-0_0
  6
CONTINUOUS
 62
    7
 10
40.924971522110439
 20
236.04474490109708
 11
16.99376085544376
 21
236.04474490109708
  0
LINE
  8
_0-0_0
  6
CONTINUOUS
 62
    7
 10
34.92497152211046
 20
74.295770234430335
 11
16.993760855443788
 21
74.295770234430321
  0
LINE
  8
_0-0_0
  6
CONTINUOUS
 62
    7
 10
17.99376085544376
 20
233.04474490109708
 11
17.993760855443788
 21
77.295770234430321
  0
INSERT
  2
-001-EDTIP_ARROW_S
  8
_0-0_0
 10
17.99376085544376
 20
236.04474490109708
 41
3
 42
3
 50
90
  0
INSERT
  2
-002-EDTIP_ARROW_E
  8
_0-0_0
 10
17.993760855443788
 20
74.295770234430321
 41
3
 42
3
 50
270
  0
TEXT
  8
_0-0_0
 62
    7
 10
17.49376085544382
 20
152.92025756776359
 40
3
 41
1
 50
90
  1
162
  0
POINT
  8
_0-3_Defpoints
 62
    7
 10
41.924971522110439
 20
236.04474490109708
  0
POINT
  8
_0-3_Defpoints
 62
    7
 10
35.924971522110446
 20
74.295770234430335
  0
POINT
  8
_0-3_Defpoints
 62
    7
 10
17.993760855443788
 20
74.295770234430321
  0
ENDBLK
  0
BLOCK
  2
-004-_D4
 70
   64
 10
0
 20
0
 30
0
  0
LINE
  8
_0-0_0
  6
CONTINUOUS
 62
    7
 10
35.924971522110439
 20
77.567710234430307
 11
35.924971522110439
 21
60.509867567763642
  0
LINE
  8
_0-0_0
  6
CONTINUOUS
 62
    7
 10
191.9250076520226
 20
77.567710800033268
 11
191.9250076520226
 21
60.509867567763642
  0
LINE
  8
_0-0_0
  6
CONTINUOUS
 62
    7
 10
38.924971522110439
 20
61.509867567763642
 11
188.9250076520226
 21
61.509867567763642
  0
INSERT
  2
-001-EDTIP_ARROW_S
  8
_0-0_0
 10
35.924971522110439
 20
61.509867567763642
 41
3
 42
3
 50
180
  0
INSERT
  2
-002-EDTIP_ARROW_E
  8
_0-0_0
 10
191.9250076520226
 20
61.509867567763642
 41
3
 42
3
 50
0
  0
TEXT
  8
_0-0_0
 62
    7
 10
111.6749895870665
 20
62.009867567763642
 40
3
 41
1
 50
0
  1
156
  0
POINT
  8
_0-3_Defpoints
 62
    7
 10
35.924971522110439
 20
78.567710234430293
  0
POINT
  8
_0-3_Defpoints
 62
    7
 10
191.9250076520226
 20
78.567710800033253
  0
POINT
  8
_0-3_Defpoints
 62
    7
 10
191.9250076520226
 20
61.509867567763642
  0
ENDBLK
  0
BLOCK
  2
-005-_D5
 70
   64
 10
0
 20
0
 30
0
  0
LINE
  8
_0-0_0
  6
CONTINUOUS
 62
    7
 10
41.924971522110418
 20
237.044744901097
 11
41.924971522110418
 21
248.1788449010979
  0
LINE
  8
_0-0_0
  6
CONTINUOUS
 62
    7
 10
185.92497152211041
 20
237.044744901097
 11
185.92497152211041
 21
248.1788449010979
  0
LINE
  8
_0-0_0
  6
CONTINUOUS
 62
    7
 10
44.924971522110432
 20
247.1788449010979
 11
182.92497152211041
 21
247.1788449010979
  0
INSERT
  2
-001-EDTIP_ARROW_S
  8
_0-0_0
 10
41.924971522110418
 20
247.1788449010979
 41
3
 42
3
 50
180
  0
INSERT
  2
-002-EDTIP_ARROW_E
  8
_0-0_0
 10
185.92497152211041
 20
247.1788449010979
 41
3
 42
3
 50
0
  0
TEXT
  8
_0-0_0
 62
    7
 10
111.67497152211039
 20
247.6788449010979
 40
3
 41
1
 50
0
  1
144
  0
POINT
  8
_0-3_Defpoints
 62
    7
 10
41.924971522110418
 20
236.044744901097
  0
POINT
  8
_0-3_Defpoints
 62
    7
 10
185.92497152211041
 20
236.04474490109689
  0
POINT
  8
_0-3_Defpoints
 62
    7
 10
185.92497152211041
 20
247.1788449010979
  0
ENDBLK
  0
BLOCK
  2
-006-BLKF051_31
 70
   64
 10
0
 20
0
 30
0
  0
LINE
  8
_0-4_0-10
  6
CONTINUOUS
 62
    7
 10
192.504873
 20
231.311405
 11
192.879873
 21
231.52791199999998
  0
LINE
  8
_0-4_0-10
  6
CONTINUOUS
 62
    7
 10
192.504873
 20
232.17743100000001
 11
192.879873
 21
232.39393699999999
  0
LINE
  8
_0-4_0-10
  6
CONTINUOUS
 62
    7
 10
192.504873
 20
230.44538
 11
192.879873
 21
230.661886
  0
LINE
  8
_0-4_0-10
  6
CONTINUOUS
 62
    7
 10
192.504873
 20
229.57935499999999
 11
192.879873
 21
229.795861
  0
LINE
  8
_0-4_0-10
  6
CONTINUOUS
 62
    7
 10
192.504873
 20
228.71332899999998
 11
192.879873
 21
228.92983599999999
  0
LINE
  8
_0-4_0-10
  6
CONTINUOUS
 62
    7
 10
192.504873
 20
227.847304
 11
192.879873
 21
228.06380999999998
  0
LINE
  8
_0-4_0-10
  6
CONTINUOUS
 62
    7
 10
192.504873
 20
226.981278
 11
192.879873
 21
227.19778500000001
  0
LINE
  8
_0-4_0-10
  6
CONTINUOUS
 62
    7
 10
192.504873
 20
226.11525299999999
 11
192.879873
 21
226.331759
  0
LINE
  8
_0-4_0-10
  6
CONTINUOUS
 62
    7
 10
192.504873
 20
225.24922799999998
 11
192.879873
 21
225.46573399999999
  0
LINE
  8
_0-4_0-10
  6
CONTINUOUS
 62
    7
 10
192.504873
 20
224.38320200000001
 11
192.879873
 21
224.59970799999999
  0
LINE
  8
_0-4_0-10
  6
CONTINUOUS
 62
    7
 10
192.504873
 20
223.517177
 11
192.879873
 21
223.73368300000001
  0
LINE
  8
_0-4_0-10
  6
CONTINUOUS
 62
    7
 10
192.504873
 20
222.65115099999999
 11
192.879873
 21
222.867658
  0
LINE
  8
_0-4_0-10
  6
CONTINUOUS
 62
    7
 10
192.504873
 20
221.78512599999999
 11
192.879873
 21
222.001632
  0
LINE
  8
_0-4_0-10
  6
CONTINUOUS
 62
    7
 10
192.504873
 20
220.91910100000001
 11
192.879873
 21
221.13560699999999
  0
LINE
  8
_0-4_0-10
  6
CONTINUOUS
 62
    7
 10
192.504873
 20
220.053075
 11
192.879873
 21
220.26958099999998
  0
LINE
  8
_0-4_0-10
  6
CONTINUOUS
 62
    7
 10
192.504873
 20
219.18704999999999
 11
192.879873
 21
219.403556
  0
LINE
  8
_0-4_0-10
  6
CONTINUOUS
 62
    7
 10
192.504873
 20
218.32102399999999
 11
192.879873
 21
218.537531
  0
LINE
  8
_0-4_0-10
  6
CONTINUOUS
 62
    7
 10
192.504873
 20
217.45499899999998
 11
192.879873
 21
217.67150499999999
  0
LINE
  8
_0-4_0-10
  6
CONTINUOUS
 62
    7
 10
192.504873
 20
216.588973
 11
192.879873
 21
216.80547999999998
  0
LINE
  8
_0-4_0-10
  6
CONTINUOUS
 62
    7
 10
192.504873
 20
215.722948
 11
192.879873
 21
215.93945400000001
  0
LINE
  8
_0-4_0-10
  6
CONTINUOUS
 62
    7
 10
192.504873
 20
214.85692299999999
 11
192.879873
 21
215.073429
  0
LINE
  8
_0-4_0-10
  6
CONTINUOUS
 62
    7
 10
192.504873
 20
213.99089699999998
 11
192.879873
 21
214.20740399999999
  0
LINE
  8
_0-4_0-10
  6
CONTINUOUS
 62
    7
 10
192.504873
 20
213.12487200000001
 11
192.879873
 21
213.34137799999999
  0
LINE
  8
_0-4_0-10
  6
CONTINUOUS
 62
    7
 10
192.504873
 20
212.258846
 11
192.879873
 21
212.47535300000001
  0
LINE
  8
_0-4_0-10
  6
CONTINUOUS
 62
    7
 10
192.504873
 20
211.39282099999999
 11
192.879873
 21
211.609327
  0
LINE
  8
_0-4_0-10
  6
CONTINUOUS
 62
    7
 10
192.504873
 20
210.52679599999999
 11
192.879873
 21
210.74330199999999
  0
LINE
  8
_0-4_0-10
  6
CONTINUOUS
 62
    7
 10
192.504873
 20
209.66077000000001
 11
192.879873
 21
209.87727699999999
  0
LINE
  8
_0-4_0-10
  6
CONTINUOUS
 62
    7
 10
192.504873
 20
208.794745
 11
192.879873
 21
209.01125099999998
  0
LINE
  8
_0-4_0-10
  6
CONTINUOUS
 62
    7
 10
192.504873
 20
207.928719
 11
192.879873
 21
208.145226
  0
LINE
  8
_0-4_0-10
  6
CONTINUOUS
 62
    7
 10
192.504873
 20
207.06269399999999
 11
192.879873
 21
207.2792
  0
LINE
  8
_0-4_0-10
  6
CONTINUOUS
 62
    7
 10
192.504873
 20
206.19666900000001
 11
192.879873
 21
206.41317499999999
  0
LINE
  8
_0-4_0-10
  6
CONTINUOUS
 62
    7
 10
192.504873
 20
205.330643
 11
192.879873
 21
205.54714999999998
  0
LINE
  8
_0-4_0-10
  6
CONTINUOUS
 62
    7
 10
192.504873
 20
204.464618
 11
192.879873
 21
204.68112400000001
  0
LINE
  8
_0-4_0-10
  6
CONTINUOUS
 62
    7
 10
192.504873
 20
203.59859199999999
 11
192.879873
 21
203.815099
  0
LINE
  8
_0-4_0-10
  6
CONTINUOUS
 62
    7
 10
192.504873
 20
202.73256699999998
 11
192.879873
 21
202.94907299999999
  0
LINE
  8
_0-4_0-10
  6
CONTINUOUS
 62
    7
 10
192.504873
 20
201.866542
 11
192.879873
 21
202.08304799999999
  0
LINE
  8
_0-4_0-10
  6
CONTINUOUS
 62
    7
 10
192.504873
 20
201.000516
 11
192.879873
 21
201.21702300000001
  0
LINE
  8
_0-4_0-10
  6
CONTINUOUS
 62
    7
 10
192.504873
 20
200.13449099999999
 11
192.879873
 21
200.350997
  0
LINE
  8
_0-4_0-10
  6
CONTINUOUS
 62
    7
 10
192.504873
 20
199.26846499999999
 11
192.879873
 21
199.48497199999999
  0
LINE
  8
_0-4_0-10
  6
CONTINUOUS
 62
    7
 10
192.504873
 20
198.40244000000001
 11
192.879873
 21
198.61894599999999
  0
LINE
  8
_0-4_0-10
  6
CONTINUOUS
 62
    7
 10
192.504873
 20
197.536415
 11
192.879873
 21
197.75292099999998
  0
LINE
  8
_0-4_0-10
  6
CONTINUOUS
 62
    7
 10
192.504873
 20
196.670389
 11
192.879873
 21
196.886896
  0
LINE
  8
_0-4_0-10
  6
CONTINUOUS
 62
    7
 10
192.504873
 20
195.8043639999999
 11
192.879873
 21
196.02087
  0
LINE
  8
_0-4_0-10
  6
CONTINUOUS
 62
    7
 10
192.504873
 20
194.93833799999998
 11
192.879873
 21
195.15484499999999
  0
LINE
  8
_0-4_0-10
  6
CONTINUOUS
 62
    7
 10
192.504873
 20
194.072313
 11
192.879873
 21
194.28881899999998
  0
LINE
  8
_0-4_0-10
  6
CONTINUOUS
 62
    7
 10
192.504873
 20
193.206288
 11
192.879873
 21
193.42279400000001
  0
LINE
  8
_0-4_0-10
  6
CONTINUOUS
 62
    7
 10
192.504873
 20
192.34026199999999
 11
192.879873
 21
192.556769
  0
LINE
  8
_0-4_0-10
  6
CONTINUOUS
 62
    7
 10
192.504873
 20
191.47423699999998
 11
192.879873
 21
191.69074299999999
  0
LINE
  8
_0-4_0-10
  6
CONTINUOUS
 62
    7
 10
192.504873
 20
190.60821100000001
 11
192.879873
 21
190.82471799999999
  0
LINE
  8
_0-4_0-10
  6
CONTINUOUS
 62
    7
 10
192.504873
 20
189.742186
 11
192.879873
 21
189.95869200000001
  0
LINE
  8
_0-4_0-10
  6
CONTINUOUS
 62
    7
 10
192.504873
 20
188.87616099999999
 11
192.879873
 21
189.092667
  0
LINE
  8
_0-4_0-10
  6
CONTINUOUS
 62
    7
 10
192.504873
 20
188.01013499999999
 11
192.879873
 21
188.22664199999999
  0
LINE
  8
_0-4_0-10
  6
CONTINUOUS
 62
    7
 10
192.504873
 20
187.14411000000001
 11
192.879873
 21
187.36061599999999
  0
LINE
  8
_0-4_0-10
  6
CONTINUOUS
 62
    7
 10
192.504873
 20
186.278084
 11
192.879873
 21
186.49459100000001
  0
LINE
  8
_0-4_0-10
  6
CONTINUOUS
 62
    7
 10
192.504873
 20
185.41205899999999
 11
192.879873
 21
185.628565
  0
LINE
  8
_0-4_0-10
  6
CONTINUOUS
 62
    7
 10
192.504873
 20
184.54603399999999
 11
192.879873
 21
184.76254
  0
LINE
  8
_0-4_0-10
  6
CONTINUOUS
 62
    7
 10
192.504873
 20
183.68000799999998
 11
192.879873
 21
183.89651499999999
  0
LINE
  8
_0-4_0-10
  6
CONTINUOUS
 62
    7
 10
192.504873
 20
182.813983
 11
192.879873
 21
183.03048899999998
  0
LINE
  8
_0-4_0-10
  6
CONTINUOUS
 62
    7
 10
192.504873
 20
181.947957
 11
192.879873
 21
182.164464
  0
LINE
  8
_0-4_0-10
  6
CONTINUOUS
 62
    7
 10
192.504873
 20
181.08193199999999
 11
192.879873
 21
181.298438
  0
LINE
  8
_0-4_0-10
  6
CONTINUOUS
 62
    7
 10
192.504873
 20
180.21590699999998
 11
192.879873
 21
180.43241299999999
  0
LINE
  8
_0-4_0-10
  6
CONTINUOUS
 62
    7
 10
192.504873
 20
179.34988100000001
 11
192.879873
 21
179.56638699999999
  0
LINE
  8
_0-4_0-10
  6
CONTINUOUS
 62
    7
 10
192.504873
 20
178.483856
 11
192.879873
 21
178.70036200000001
  0
LINE
  8
_0-4_0-10
  6
CONTINUOUS
 62
    7
 10
192.504873
 20
177.61782999999999
 11
192.879873
 21
177.834337
  0
LINE
  8
_0-4_0-10
  6
CONTINUOUS
 62
    7
 10
192.504873
 20
176.75180499999999
 11
192.879873
 21
176.96831099999999
  0
LINE
  8
_0-4_0-10
  6
CONTINUOUS
 62
    7
 10
192.504873
 20
175.88578000000001
 11
192.879873
 21
176.10228599999999
  0
LINE
  8
_0-4_0-10
  6
CONTINUOUS
 62
    7
 10
192.504873
 20
175.019754
 11
192.879873
 21
175.23625999999998
  0
LINE
  8
_0-4_0-10
  6
CONTINUOUS
 62
    7
 10
192.504873
 20
174.15372899999999
 11
192.879873
 21
174.370235
  0
LINE
  8
_0-4_0-10
  6
CONTINUOUS
 62
    7
 10
192.504873
 20
173.28770299999999
 11
192.879873
 21
173.50421
  0
LINE
  8
_0-4_0-10
  6
CONTINUOUS
 62
    7
 10
192.504873
 20
172.42167800000001
 11
192.879873
 21
172.63818399999999
  0
LINE
  8
_0-4_0-10
  6
CONTINUOUS
 62
    7
 10
192.504873
 20
171.555653
 11
192.879873
 21
171.77215899999998
  0
LINE
  8
_0-4_0-10
  6
CONTINUOUS
 62
    7
 10
192.504873
 20
170.689627
 11
192.879873
 21
170.90613300000001
  0
LINE
  8
_0-4_0-10
  6
CONTINUOUS
 62
    7
 10
192.504873
 20
169.82360199999999
 11
192.879873
 21
170.040108
  0
LINE
  8
_0-4_0-10
  6
CONTINUOUS
 62
    7
 10
192.504873
 20
168.95757599999998
 11
192.879873
 21
169.17408299999999
  0
LINE
  8
_0-4_0-10
  6
CONTINUOUS
 62
    7
 10
192.504873
 20
168.091551
 11
192.879873
 21
168.30805699999999
  0
LINE
  8
_0-4_0-10
  6
CONTINUOUS
 62
    7
 10
192.504873
 20
167.225525
 11
192.879873
 21
167.44203200000001
  0
LINE
  8
_0-4_0-10
  6
CONTINUOUS
 62
    7
 10
192.504873
 20
166.35949999999999
 11
192.879873
 21
166.576006
  0
LINE
  8
_0-4_0-10
  6
CONTINUOUS
 62
    7
 10
192.504873
 20
165.49347499999998
 11
192.879873
 21
165.70998099999999
  0
LINE
  8
_0-4_0-10
  6
CONTINUOUS
 62
    7
 10
192.504873
 20
164.62744900000001
 11
192.879873
 21
164.84395599999999
  0
LINE
  8
_0-4_0-10
  6
CONTINUOUS
 62
    7
 10
192.504873
 20
163.761424
 11
192.879873
 21
163.97792999999998
  0
LINE
  8
_0-4_0-10
  6
CONTINUOUS
 62
    7
 10
192.504873
 20
162.895398
 11
192.879873
 21
163.111905
  0
LINE
  8
_0-4_0-10
  6
CONTINUOUS
 62
    7
 10
192.504873
 20
162.02937299999999
 11
192.879873
 21
162.245879
  0
LINE
  8
_0-4_0-10
  6
CONTINUOUS
 62
    7
 10
192.504873
 20
161.16334800000001
 11
192.879873
 21
161.37985399999999
  0
LINE
  8
_0-4_0-10
  6
CONTINUOUS
 62
    7
 10
192.504873
 20
160.297322
 11
192.879873
 21
160.51382899999998
  0
LINE
  8
_0-4_0-10
  6
CONTINUOUS
 62
    7
 10
192.504873
 20
159.431297
 11
192.879873
 21
159.64780300000001
  0
LINE
  8
_0-4_0-10
  6
CONTINUOUS
 62
    7
 10
192.504873
 20
158.56527099999999
 11
192.879873
 21
158.781778
  0
LINE
  8
_0-4_0-10
  6
CONTINUOUS
 62
    7
 10
192.504873
 20
157.69924599999998
 11
192.879873
 21
157.91575199999999
  0
LINE
  8
_0-4_0-10
  6
CONTINUOUS
 62
    7
 10
192.504873
 20
156.833221
 11
192.879873
 21
157.04972699999999
  0
LINE
  8
_0-4_0-10
  6
CONTINUOUS
 62
    7
 10
192.504873
 20
155.967195
 11
192.879873
 21
156.18370200000001
  0
LINE
  8
_0-4_0-10
  6
CONTINUOUS
 62
    7
 10
192.504873
 20
155.10116999999999
 11
192.879873
 21
155.317676
  0
LINE
  8
_0-4_0-10
  6
CONTINUOUS
 62
    7
 10
192.504873
 20
154.23514399999999
 11
192.879873
 21
154.45165099999999
  0
LINE
  8
_0-4_0-10
  6
CONTINUOUS
 62
    7
 10
192.504873
 20
153.36911900000001
 11
192.879873
 21
153.58562499999999
  0
LINE
  8
_0-4_0-10
  6
CONTINUOUS
 62
    7
 10
192.504873
 20
152.503094
 11
192.879873
 21
152.71960000000001
  0
LINE
  8
_0-4_0-10
  6
CONTINUOUS
 62
    7
 10
192.504873
 20
151.63706799999999
 11
192.879873
 21
151.853575
  0
LINE
  8
_0-4_0-10
  6
CONTINUOUS
 62
    7
 10
192.504873
 20
150.77104299999999
 11
192.879873
 21
150.987549
  0
LINE
  8
_0-4_0-10
  6
CONTINUOUS
 62
    7
 10
192.504873
 20
149.90501699999998
 11
192.879873
 21
150.12152399999999
  0
LINE
  8
_0-4_0-10
  6
CONTINUOUS
 62
    7
 10
192.504873
 20
149.038992
 11
192.879873
 21
149.25549799999998
  0
LINE
  8
_0-4_0-10
  6
CONTINUOUS
 62
    7
 10
192.504873
 20
148.17296699999999
 11
192.879873
 21
148.389473
  0
LINE
  8
_0-4_0-10
  6
CONTINUOUS
 62
    7
 10
192.504873
 20
147.30694099999999
 11
192.879873
 21
147.523448
  0
LINE
  8
_0-4_0-10
  6
CONTINUOUS
 62
    7
 10
192.504873
 20
146.44091599999998
 11
192.879873
 21
146.65742199999999
  0
LINE
  8
_0-4_0-10
  6
CONTINUOUS
 62
    7
 10
192.504873
 20
145.57489000000001
 11
192.879873
 21
145.79139699999998
  0
LINE
  8
_0-4_0-10
  6
CONTINUOUS
 62
    7
 10
192.504873
 20
144.708865
 11
192.879873
 21
144.92537100000001
  0
LINE
  8
_0-4_0-10
  6
CONTINUOUS
 62
    7
 10
192.504873
 20
143.84283999999999
 11
192.879873
 21
144.059346
  0
LINE
  8
_0-4_0-10
  6
CONTINUOUS
 62
    7
 10
192.504873
 20
142.97681399999999
 11
192.879873
 21
143.19332099999999
  0
LINE
  8
_0-4_0-10
  6
CONTINUOUS
 62
    7
 10
192.504873
 20
142.11078900000001
 11
192.879873
 21
142.32729499999999
  0
LINE
  8
_0-4_0-10
  6
CONTINUOUS
 62
    7
 10
192.504873
 20
141.244763
 11
192.879873
 21
141.46127000000001
  0
LINE
  8
_0-4_0-10
  6
CONTINUOUS
 62
    7
 10
192.504873
 20
140.37873799999999
 11
192.879873
 21
140.595244
  0
LINE
  8
_0-4_0-10
  6
CONTINUOUS
 62
    7
 10
192.504873
 20
139.51271299999999
 11
192.879873
 21
139.729219
  0
LINE
  8
_0-4_0-10
  6
CONTINUOUS
 62
    7
 10
192.504873
 20
138.64668699999998
 11
192.879873
 21
138.86319399999999
  0
LINE
  8
_0-4_0-10
  6
CONTINUOUS
 62
    7
 10
192.504873
 20
137.780662
 11
192.879873
 21
137.99716799999998
  0
LINE
  8
_0-4_0-10
  6
CONTINUOUS
 62
    7
 10
192.504873
 20
136.914636
 11
192.879873
 21
137.131143
  0
LINE
  8
_0-4_0-10
  6
CONTINUOUS
 62
    7
 10
192.504873
 20
136.04861099999999
 11
192.879873
 21
136.265117
  0
LINE
  8
_0-4_0-10
  6
CONTINUOUS
 62
    7
 10
192.504873
 20
135.18258599999998
 11
192.879873
 21
135.39909199999999
  0
LINE
  8
_0-4_0-10
  6
CONTINUOUS
 62
    7
 10
192.504873
 20
134.31656
 11
192.879873
 21
134.53306599999999
  0
LINE
  8
_0-4_0-10
  6
CONTINUOUS
 62
    7
 10
192.504873
 20
133.450535
 11
192.879873
 21
133.66704100000001
  0
LINE
  8
_0-4_0-10
  6
CONTINUOUS
 62
    7
 10
192.504873
 20
132.58450899999999
 11
192.879873
 21
132.801016
  0
LINE
  8
_0-4_0-10
  6
CONTINUOUS
 62
    7
 10
192.504873
 20
131.71848399999998
 11
192.879873
 21
131.93498999999999
  0
LINE
  8
_0-4_0-10
  6
CONTINUOUS
 62
    7
 10
192.504873
 20
130.85245900000001
 11
192.879873
 21
131.06896499999999
  0
LINE
  8
_0-4_0-10
  6
CONTINUOUS
 62
    7
 10
192.504873
 20
129.986433
 11
192.879873
 21
130.20293899999998
  0
LINE
  8
_0-4_0-10
  6
CONTINUOUS
 62
    7
 10
192.504873
 20
129.12040799999999
 11
192.879873
 21
129.336914
  0
LINE
  8
_0-4_0-10
  6
CONTINUOUS
 62
    7
 10
192.504873
 20
128.25438199999999
 11
192.879873
 21
128.47088899999999
  0
LINE
  8
_0-4_0-10
  6
CONTINUOUS
 62
    7
 10
192.504873
 20
127.38835699999999
 11
192.879873
 21
127.60486299999999
  0
LINE
  8
_0-4_0-10
  6
CONTINUOUS
 62
    7
 10
192.504873
 20
126.522332
 11
192.879873
 21
126.738838
  0
LINE
  8
_0-4_0-10
  6
CONTINUOUS
 62
    7
 10
192.504873
 20
125.656306
 11
192.879873
 21
125.87281199999999
  0
LINE
  8
_0-4_0-10
  6
CONTINUOUS
 62
    7
 10
192.504873
 20
124.79028099999999
 11
192.879873
 21
125.006787
  0
LINE
  8
_0-4_0-10
  6
CONTINUOUS
 62
    7
 10
192.504873
 20
123.924255
 11
192.879873
 21
124.14076199999999
  0
LINE
  8
_0-4_0-10
  6
CONTINUOUS
 62
    7
 10
192.504873
 20
123.05822999999999
 11
192.879873
 21
123.274736
  0
LINE
  8
_0-4_0-10
  6
CONTINUOUS
 62
    7
 10
192.504873
 20
122.192204
 11
192.879873
 21
122.40871099999999
  0
LINE
  8
_0-4_0-10
  6
CONTINUOUS
 62
    7
 10
192.504873
 20
121.32617899999999
 11
192.879873
 21
121.542685
  0
LINE
  8
_0-4_0-10
  6
CONTINUOUS
 62
    7
 10
192.504873
 20
120.460154
 11
192.879873
 21
120.67665999999999
  0
ENDBLK
  0
BLOCK
  2
-007-_D7
 70
   64
 10
0
 20
0
 30
0
  0
LINE
  8
_0-0_0
  6
CONTINUOUS
 62
    7
 10
244.6271435221106
 20
236.04474490109708
 11
233.57502652211169
 21
236.04474490109708
  0
LINE
  8
_0-0_0
  6
CONTINUOUS
 62
    7
 10
244.6271435221106
 20
86.044744901097004
 11
233.57502652211181
 21
86.044744901097004
  0
LINE
  8
_0-0_0
  6
CONTINUOUS
 62
    7
 10
234.57502652211181
 20
233.04474490109708
 11
234.57502652211181
 21
89.044744901097004
  0
INSERT
  2
-001-EDTIP_ARROW_S
  8
_0-0_0
 10
234.57502652211181
 20
236.04474490109708
 41
3
 42
3
 50
90
  0
INSERT
  2
-002-EDTIP_ARROW_E
  8
_0-0_0
 10
234.57502652211181
 20
86.044744901097004
 41
3
 42
3
 50
270
  0
TEXT
  8
_0-0_0
 62
    7
 10
234.07502652211181
 20
158.79474490109689
 40
3
 41
1
 50
90
  1
150
  0
POINT
  8
_0-3_Defpoints
 62
    7
 10
245.6271435221106
 20
236.04474490109708
  0
POINT
  8
_0-3_Defpoints
 62
    7
 10
245.6271435221106
 20
86.044744901097004
  0
POINT
  8
_0-3_Defpoints
 62
    7
 10
234.57502652211181
 20
86.044744901097004
  0
ENDBLK
  0
BLOCK
  2
-008-_D8
 70
   64
 10
0
 20
0
 30
0
  0
LINE
  8
_0-0_0
  6
CONTINUOUS
 62
    7
 10
245.62714352211048
 20
237.044744901097
 11
245.62714352211048
 21
248.18551156776359
  0
LINE
  8
_0-0_0
  6
CONTINUOUS
 62
    7
 10
303.14094885544392
 20
237.044744901097
 11
303.14094885544392
 21
248.18551156776359
  0
LINE
  8
_0-0_0
  6
CONTINUOUS
 62
    7
 10
248.62714352211048
 20
247.18551156776359
 11
300.14094885544392
 21
247.18551156776359
  0
INSERT
  2
-001-EDTIP_ARROW_S
  8
_0-0_0
 10
245.62714352211048
 20
247.18551156776359
 41
3
 42
3
 50
180
  0
INSERT
  2
-002-EDTIP_ARROW_E
  8
_0-0_0
 10
303.14094885544392
 20
247.18551156776359
 41
3
 42
3
 50
0
  0
TEXT
  8
_0-0_0
 62
    7
 10
272.88404618877717
 20
247.68551156776359
 40
3
 41
1
 50
0
  1
58
  0
POINT
  8
_0-3_Defpoints
 62
    7
 10
245.62714352211048
 20
236.044744901097
  0
POINT
  8
_0-3_Defpoints
 62
    7
 10
303.14094885544392
 20
236.044744901097
  0
POINT
  8
_0-3_Defpoints
 62
    7
 10
303.14094885544392
 20
247.18551156776359
  0
ENDBLK
  0
BLOCK
  2
-009-_D9
 70
   64
 10
0
 20
0
 30
0
  0
LINE
  8
_0-0_0
  6
CONTINUOUS
 62
    7
 10
303.14094885544392
 20
237.044744901097
 11
303.14094885544392
 21
248.17884490109599
  0
LINE
  8
_0-0_0
  6
CONTINUOUS
 62
    7
 10
355.94094885544382
 20
237.044744901097
 11
355.94094885544382
 21
248.17884490109599
  0
LINE
  8
_0-0_0
  6
CONTINUOUS
 62
    7
 10
306.14094885544392
 20
247.17884490109599
 11
352.94094885544382
 21
247.17884490109599
  0
INSERT
  2
-001-EDTIP_ARROW_S
  8
_0-0_0
 10
303.14094885544392
 20
247.17884490109599
 41
3
 42
3
 50
180
  0
INSERT
  2
-002-EDTIP_ARROW_E
  8
_0-0_0
 10
355.94094885544382
 20
247.17884490109599
 41
3
 42
3
 50
0
  0
TEXT
  8
_0-0_0
 62
    7
 10
328.04094885544378
 20
247.67884490109599
 40
3
 41
1
 50
0
  1
53
  0
POINT
  8
_0-3_Defpoints
 62
    7
 10
303.14094885544392
 20
236.044744901097
  0
POINT
  8
_0-3_Defpoints
 62
    7
 10
355.94094885544382
 20
236.04474490109689
  0
POINT
  8
_0-3_Defpoints
 62
    7
 10
355.94094885544382
 20
247.17884490109599
  0
ENDBLK
  0
BLOCK
  2
-010-_D10
 70
   64
 10
0
 20
0
 30
0
  0
LINE
  8
_0-0_0
  6
CONTINUOUS
 62
    7
 10
303.14094885544392
 20
237.044744901097
 11
303.14094885544392
 21
242.61179490109648
  0
LINE
  8
_0-0_0
  6
CONTINUOUS
 62
    7
 10
347.9409488554437
 20
237.044744901097
 11
347.9409488554437
 21
242.61179490109648
  0
LINE
  8
_0-0_0
  6
CONTINUOUS
 62
    7
 10
306.14094885544392
 20
241.61179490109648
 11
344.9409488554437
 21
241.61179490109648
  0
INSERT
  2
-001-EDTIP_ARROW_S
  8
_0-0_0
 10
303.14094885544392
 20
241.61179490109648
 41
3
 42
3
 50
180
  0
INSERT
  2
-002-EDTIP_ARROW_E
  8
_0-0_0
 10
347.9409488554437
 20
241.61179490109648
 41
3
 42
3
 50
0
  0
TEXT
  8
_0-0_0
 62
    7
 10
324.04094885544378
 20
242.11179490109648
 40
3
 41
1
 50
0
  1
45
  0
POINT
  8
_0-3_Defpoints
 62
    7
 10
303.14094885544392
 20
236.044744901097
  0
POINT
  8
_0-3_Defpoints
 62
    7
 10
347.9409488554437
 20
236.044744901097
  0
POINT
  8
_0-3_Defpoints
 62
    7
 10
347.9409488554437
 20
241.61179490109648
  0
ENDBLK
  0
BLOCK
  2
-011-_D11
 70
   64
 10
0
 20
0
 30
0
  0
LINE
  8
_0-0_0
  6
CONTINUOUS
 62
    7
 10
304.14094885544398
 20
236.04474490109708
 11
365.99347672904832
 21
236.04474490109708
  0
LINE
  8
_0-0_0
  6
CONTINUOUS
 62
    7
 10
304.14094885544398
 20
212.54474490109708
 11
365.99347672904832
 21
212.54474490109708
  0
LINE
  8
_0-0_0
  6
CONTINUOUS
 62
    7
 10
364.99347672904832
 20
233.04474490109708
 11
364.99347672904832
 21
215.54474490109708
  0
INSERT
  2
-001-EDTIP_ARROW_S
  8
_0-0_0
 10
364.99347672904832
 20
236.04474490109708
 41
3
 42
3
 50
90
  0
INSERT
  2
-002-EDTIP_ARROW_E
  8
_0-0_0
 10
364.99347672904832
 20
212.54474490109708
 41
3
 42
3
 50
270
  0
TEXT
  8
_0-0_0
 62
    7
 10
364.49347672904832
 20
222.79474490109689
 40
3
 41
1
 50
90
  1
24
  0
POINT
  8
_0-3_Defpoints
 62
    7
 10
303.14094885544398
 20
236.04474490109708
  0
POINT
  8
_0-3_Defpoints
 62
    7
 10
303.14094885544398
 20
212.54474490109708
  0
POINT
  8
_0-3_Defpoints
 62
    7
 10
364.99347672904832
 20
212.54474490109708
  0
ENDBLK
  0
BLOCK
  2
-012-_D12
 70
   64
 10
0
 20
0
 30
0
  0
LINE
  8
_0-0_0
  6
CONTINUOUS
 62
    7
 10
345.60761552211062
 20
115.5380782344304
 11
365.98853552211227
 21
115.5380782344304
  0
LINE
  8
_0-0_0
  6
CONTINUOUS
 62
    7
 10
345.6009488554439
 20
212.5447449010972
 11
365.98853552211227
 21
212.5447449010972
  0
LINE
  8
_0-0_0
  6
CONTINUOUS
 62
    7
 10
364.98853552211227
 20
118.5380782344304
 11
364.98853552211227
 21
209.5447449010972
  0
INSERT
  2
-001-EDTIP_ARROW_S
  8
_0-0_0
 10
364.98853552211227
 20
115.5380782344304
 41
3
 42
3
 50
270
  0
INSERT
  2
-002-EDTIP_ARROW_E
  8
_0-0_0
 10
364.98853552211227
 20
212.5447449010972
 41
3
 42
3
 50
90
  0
TEXT
  8
_0-0_0
 62
    7
 10
364.48853552211227
 20
162.54141156776358
 40
3
 41
1
 50
90
  1
97
  0
POINT
  8
_0-3_Defpoints
 62
    7
 10
344.60761552211062
 20
115.5380782344304
  0
POINT
  8
_0-3_Defpoints
 62
    7
 10
344.6009488554439
 20
212.5447449010972
  0
POINT
  8
_0-3_Defpoints
 62
    7
 10
364.98853552211227
 20
212.5447449010972
  0
ENDBLK
  0
BLOCK
  2
-013-_D13
 70
   64
 10
0
 20
0
 30
0
  0
LINE
  8
_0-0_0
  6
CONTINUOUS
 62
    7
 10
288.14094885544392
 20
73.295770234430307
 11
288.14094885544392
 21
60.509867567763627
  0
LINE
  8
_0-0_0
  6
CONTINUOUS
 62
    7
 10
303.14094885544392
 20
88.122436901096989
 11
303.14094885544392
 21
60.509867567763627
  0
LINE
  8
_0-0_0
  6
CONTINUOUS
 62
    7
 10
291.1409488554438
 20
61.50986756776362
 11
300.14094885544392
 21
61.50986756776362
  0
INSERT
  2
-001-EDTIP_ARROW_S
  8
_0-0_0
 10
288.14094885544392
 20
61.50986756776362
 41
3
 42
3
 50
180
  0
INSERT
  2
-002-EDTIP_ARROW_E
  8
_0-0_0
 10
303.14094885544392
 20
61.50986756776362
 41
3
 42
3
 50
0
  0
TEXT
  8
_0-0_0
 62
    7
 10
294.1409488554438
 20
62.009867567763627
 40
3
 41
1
 50
0
  1
15
  0
POINT
  8
_0-3_Defpoints
 62
    7
 10
288.14094885544392
 20
74.295770234430293
  0
POINT
  8
_0-3_Defpoints
 62
    7
 10
303.14094885544392
 20
89.122436901096989
  0
POINT
  8
_0-3_Defpoints
 62
    7
 10
303.14094885544392
 20
61.50986756776362
  0
ENDBLK
  0
ENDSEC
  0
SECTION
  2
ENTITIES
  0
LINE
  8
_0-1_0-00
  6
CONTINUOUS
 62
    3
 10
210.00000000000048
 20
6.5000000000000284
 11
210.00000000000048
 21
8.5000000000000284
  0
LINE
  8
_0-1_0-00
  6
CONTINUOUS
 62
    3
 10
411.00000000000045
 20
148.50000000000002
 11
412.99999999999954
 21
148.50000000000002
  0
LINE
  8
_0-1_0-00
  6
CONTINUOUS
 62
    3
 10
412.99999999999954
 20
6.5000000000000284
 11
412.99999999999954
 21
290.5
  0
LINE
  8
_0-1_0-00
  6
CONTINUOUS
 62
    3
 10
7.0000000000004831
 20
290.5
 11
412.99999999999954
 21
290.5
  0
LINE
  8
_0-1_0-00
  6
CONTINUOUS
 62
    3
 10
210.00000000000048
 20
290.5
 11
210.00000000000048
 21
288.5
  0
LINE
  8
_0-1_0-00
  6
CONTINUOUS
 62
    3
 10
7.0000000000004831
 20
6.5000000000000284
 11
7.0000000000004831
 21
290.5
  0
LINE
  8
_0-1_0-00
  6
CONTINUOUS
 62
    3
 10
7.0000000000004831
 20
148.50000000000002
 11
9.0000000000004831
 21
148.50000000000002
  0
LINE
  8
_0-1_0-00
  6
CONTINUOUS
 62
    3
 10
7.0000000000004831
 20
6.5000000000000284
 11
412.99999999999954
 21
6.5000000000000284
  0
INSERT
  2
-000-A$C89e5b149_3
  8
_0-2_0-30
 10
412.99999999999954
 20
6.5000000000000284
 41
1
 42
1
 50
0
  0
LINE
  8
_0-4_0-10
  6
CONTINUOUS
 62
    7
 10
25.993732144554599
 20
164.04474628411091
 11
201.3562134778879
 21
164.04474628411091
  0
LINE
  8
_0-4_0-10
  6
CONTINUOUS
 62
    7
 10
113.67497347788788
 20
244.53554361744431
 11
113.67497347788788
 21
131.79474628411091
  0
LINE
  8
_0-4_0-10
  6
CONTINUOUS
 62
    7
 10
113.67497347788788
 20
127.11173428411092
 11
113.67497347788788
 21
70.682410284111
  0
LINE
  8
_0-4_0-10
  6
CONTINUOUS
 62
    3
 10
50.674973477887903
 20
236.04474628411102
 11
50.674973477887903
 21
86.044746284110999
  0
LINE
  8
_0-4_0-10
  6
CONTINUOUS
 62
    3
 10
176.6749734778879
 20
236.04474628411102
 11
176.6749734778879
 21
86.044746284110999
  0
LINE
  8
_0-4_0-10
  6
CONTINUOUS
 62
    3
 10
185.6749734778879
 20
236.04474628411102
 11
176.1749734778879
 21
236.04474628411102
  0
LINE
  8
_0-4_0-10
  6
CONTINUOUS
 62
    3
 10
185.6749734778879
 20
236.04474628411102
 11
185.6749734778879
 21
86.044746284110999
  0
LINE
  8
_0-4_0-10
  6
CONTINUOUS
 62
    3
 10
41.674973477887903
 20
236.04474628411102
 11
41.674973477887903
 21
86.044746284110999
  0
LINE
  8
_0-4_0-10
  6
CONTINUOUS
 62
    7
 10
46.174973477887903
 20
198.81771695077762
 11
46.174973477887903
 21
189.27177561744431
  0
ARC
  8
_0-4_0-10
  6
CONTINUOUS
 62
    3
 10
46.174973477887903
 20
194.04474628411091
 40
2.149999999999999
 50
8.0209329999997862
 51
171.97906700000021
  0
ARC
  8
_0-4_0-10
  6
CONTINUOUS
 62
    3
 10
46.174973477887903
 20
194.04474628411091
 40
2.149999999999999
 50
188.02093299999967
 51
351.97906699999975
  0
LINE
  8
_0-4_0-10
  6
CONTINUOUS
 62
    7
 10
41.402002811221251
 20
194.04474628411091
 11
50.947944144554611
 21
194.04474628411091
  0
LINE
  8
_0-4_0-10
  6
CONTINUOUS
 62
    3
 10
185.6749734778879
 20
86.044746284110999
 11
176.1749734778879
 21
86.044746284110999
  0
LINE
  8
_0-4_0-10
  6
CONTINUOUS
 62
    4
 10
191.6749734778879
 20
91.205000950777673
 11
191.6749734778879
 21
78.567711617444317
  0
LINE
  8
_0-4_0-10
  6
CONTINUOUS
 62
    4
 10
191.1749734778879
 20
91.205000950777673
 11
191.1749734778879
 21
78.567711617444317
  0
LINE
  8
_0-4_0-10
  6
CONTINUOUS
 62
    4
 10
191.1749734778879
 20
78.567711617444317
 11
191.6749734778879
 21
78.567711617444317
  0
LINE
  8
_0-4_0-10
  6
CONTINUOUS
 62
    4
 10
35.674973477887931
 20
91.205000950777673
 11
35.674973477887931
 21
78.567711617444317
  0
LINE
  8
_0-4_0-10
  6
CONTINUOUS
 62
    4
 10
36.174973477887931
 20
91.205000950777673
 11
36.174973477887931
 21
78.567711617444317
  0
LINE
  8
_0-4_0-10
  6
CONTINUOUS
 62
    4
 10
36.174973477887931
 20
78.567711617444317
 11
35.674973477887931
 21
78.567711617444317
  0
ARC
  8
_0-4_0-10
  6
CONTINUOUS
 62
    4
 10
113.67499347788789
 20
788.52060228411107
 40
714.22483062346668
 50
263.73026100000021
 51
276.26973899999967
  0
ARC
  8
_0-4_0-10
  6
CONTINUOUS
 62
    4
 10
113.67499347788789
 20
788.87415561744444
 40
714.22483062346668
 50
263.77061099999991
 51
276.22938599999991
  0
LINE
  8
_0-4_0-10
  6
CONTINUOUS
 62
    4
 10
35.674973477887931
 20
91.205000950777673
 11
41.674973477887903
 21
91.205000950777673
  0
LINE
  8
_0-4_0-10
  6
CONTINUOUS
 62
    4
 10
36.174973477887931
 20
88.79577161744433
 11
41.674973477887903
 21
88.79577161744433
  0
LINE
  8
_0-4_0-10
  6
CONTINUOUS
 62
    4
 10
96.521377477887924
 20
91.205000950777673
 11
176.1749734778879
 21
91.205000950777673
  0
LINE
  8
_0-4_0-10
  6
CONTINUOUS
 62
    4
 10
96.179130811221256
 20
88.79577161744433
 11
176.1749734778879
 21
88.79577161744433
  0
LINE
  8
_0-4_0-10
  6
CONTINUOUS
 62
    7
 10
181.1749734778879
 20
198.81771695077762
 11
181.1749734778879
 21
189.27177561744431
  0
ARC
  8
_0-4_0-10
  6
CONTINUOUS
 62
    3
 10
181.1749734778879
 20
194.04474628411091
 40
2.149999999999999
 50
8.0209329999997862
 51
171.97906700000021
  0
ARC
  8
_0-4_0-10
  6
CONTINUOUS
 62
    3
 10
181.1749734778879
 20
194.04474628411091
 40
2.149999999999999
 50
188.02093299999967
 51
351.97906699999975
  0
LINE
  8
_0-4_0-10
  6
CONTINUOUS
 62
    7
 10
185.94794414455458
 20
194.04474628411091
 11
176.40200281122127
 21
194.04474628411091
  0
ARC
  8
_0-4_0-10
  6
CONTINUOUS
 62
    4
 10
113.67497347788788
 20
164.04474628411091
 40
55.5
 50
257.77050399999978
 51
306.86989799999969
  0
LINE
  8
_0-4_0-10
  6
CONTINUOUS
 62
    4
 10
129.60178281122119
 20
211.54474628411102
 11
137.6749734778879
 21
211.54474628411102
  0
LINE
  8
_0-4_0-10
  6
CONTINUOUS
 62
    4
 10
129.55151214455457
 20
211.11173428411103
 11
137.6749734778879
 21
211.11173428411103
  0
LINE
  8
_0-4_0-10
  6
CONTINUOUS
 62
    4
 10
127.04553081122119
 20
199.54474628411091
 11
149.71147481122127
 21
199.54474628411091
  0
LINE
  8
_0-4_0-10
  6
CONTINUOUS
 62
    4
 10
126.89969614455459
 20
199.11173428411103
 11
149.71147481122127
 21
199.11173428411103
  0
LINE
  8
_0-4_0-10
  6
CONTINUOUS
 62
    4
 10
128.27758414455459
 20
203.79474628411102
 11
143.2120628112213
 21
203.79474628411102
  0
LINE
  8
_0-4_0-10
  6
CONTINUOUS
 62
    4
 10
123.62716147788789
 20
191.79474628411102
 11
153.39601214455458
 21
191.79474628411102
  0
LINE
  8
_0-4_0-10
  6
CONTINUOUS
 62
    4
 10
121.28136147788789
 20
187.54474628411102
 11
155.91719881122128
 21
187.54474628411102
  0
LINE
  8
_0-4_0-10
  6
CONTINUOUS
 62
    4
 10
121.03452147788789
 20
187.11173428411103
 11
155.91719881122128
 21
187.11173428411103
  0
LINE
  8
_0-4_0-10
  6
CONTINUOUS
 62
    4
 10
116.94742414455458
 20
179.79474628411091
 11
158.91120147788788
 21
179.79474628411091
  0
LINE
  8
_0-4_0-10
  6
CONTINUOUS
 62
    4
 10
114.91748281122119
 20
175.54474628411091
 11
158.82720147788788
 21
175.54474628411091
  0
LINE
  8
_0-4_0-10
  6
CONTINUOUS
 62
    4
 10
114.72980414455459
 20
175.11173428411103
 11
158.82720147788788
 21
175.11173428411103
  0
LINE
  8
_0-4_0-10
  6
CONTINUOUS
 62
    4
 10
112.54425481122119
 20
167.79474628411102
 11
160.88549481122129
 21
167.79474628411102
  0
LINE
  8
_0-4_0-10
  6
CONTINUOUS
 62
    4
 10
112.04104947788789
 20
163.54474628411102
 11
159.14165081122129
 21
163.54474628411102
  0
LINE
  8
_0-4_0-10
  6
CONTINUOUS
 62
    4
 10
112.01866147788788
 20
163.11173428411103
 11
159.14165081122129
 21
163.11173428411103
  0
LINE
  8
_0-4_0-10
  6
CONTINUOUS
 62
    4
 10
112.00768681122119
 20
155.79474628411091
 11
160.29655347788789
 21
155.79474628411091
  0
LINE
  8
_0-4_0-10
  6
CONTINUOUS
 62
    4
 10
112.20969614455459
 20
151.54474628411091
 11
156.32520681122127
 21
151.54474628411091
  0
LINE
  8
_0-4_0-10
  6
CONTINUOUS
 62
    4
 10
112.23203614455459
 20
151.11173428411103
 11
156.32520681122127
 21
151.11173428411103
  0
LINE
  8
_0-4_0-10
  6
CONTINUOUS
 62
    4
 10
112.46406814455458
 20
143.79474628411102
 11
156.78745614455459
 21
143.79474628411102
  0
LINE
  8
_0-4_0-10
  6
CONTINUOUS
 62
    4
 10
112.31019747788789
 20
139.54474628411102
 11
149.53853081122127
 21
139.54474628411102
  0
LINE
  8
_0-4_0-10
  6
CONTINUOUS
 62
    4
 10
112.27475481122118
 20
139.11173428411092
 11
149.53853081122127
 21
139.11173428411092
  0
LINE
  8
_0-4_0-10
  6
CONTINUOUS
 62
    4
 10
110.97135347788788
 20
131.79474628411091
 11
149.74073347788788
 21
131.79474628411091
  0
LINE
  8
_0-4_0-10
  6
CONTINUOUS
 62
    4
 10
109.63807614455458
 20
127.54474628411092
 11
134.5707268112213
 21
127.54474628411092
  0
LINE
  8
_0-4_0-10
  6
CONTINUOUS
 62
    4
 10
109.48044814455458
 20
127.11173428411092
 11
134.5707268112213
 21
127.11173428411092
  0
LINE
  8
_0-4_0-10
  6
CONTINUOUS
 62
    4
 10
106.46433214455458
 20
119.79474628411102
 11
137.23465747788787
 21
119.79474628411102
  0
ARC
  8
_0-4_0-10
  6
CONTINUOUS
 62
    4
 10
113.67497347788788
 20
164.04474628411091
 40
55.5
 50
53.130102000000192
 51
64.778521000000282
  0
ARC
  8
_0-4_0-10
  6
CONTINUOUS
 62
    4
 10
113.67497347788788
 20
164.04474628411091
 40
55.5
 50
35.781761000000038
 51
46.365534999998907
  0
LINE
  8
_0-4_0-10
  6
CONTINUOUS
 62
    7
 10
143.22154681122128
 20
120.04474628411102
 11
138.7215468112212
 21
120.04474628411102
  0
LINE
  8
_0-4_0-10
  6
CONTINUOUS
 62
    4
 10
146.6749734778879
 20
120.54474628411102
 11
144.32705214455458
 21
120.54474628411102
  0
LINE
  8
_0-4_0-10
  6
CONTINUOUS
 62
    4
 10
151.14496147788798
 20
123.54474628411092
 11
147.74455481122129
 21
123.54474628411092
  0
LINE
  8
_0-4_0-10
  6
CONTINUOUS
 62
    7
 10
155.55704281122118
 20
132.04474628411102
 11
151.05704281122129
 21
132.04474628411102
  0
LINE
  8
_0-4_0-10
  6
CONTINUOUS
 62
    4
 10
158.21259747788798
 20
132.54474628411102
 11
156.6040534778879
 21
132.54474628411102
  0
LINE
  8
_0-4_0-10
  6
CONTINUOUS
 62
    4
 10
160.67071747788799
 20
135.54474628411102
 11
158.37868547788789
 21
135.54474628411102
  0
LINE
  8
_0-4_0-10
  6
CONTINUOUS
 62
    4
 10
165.92437481122129
 20
147.54474628411091
 11
164.54949081122128
 21
147.54474628411091
  0
LINE
  8
_0-4_0-10
  6
CONTINUOUS
 62
    4
 10
164.61611481122127
 20
144.54474628411102
 11
163.29690281122128
 21
144.54474628411102
  0
LINE
  8
_0-4_0-10
  6
CONTINUOUS
 62
    7
 10
162.4744788112213
 20
144.04474628411091
 11
157.9744788112213
 21
144.04474628411091
  0
LINE
  8
_0-4_0-10
  6
CONTINUOUS
 62
    4
 10
168.15616281122129
 20
159.54474628411091
 11
166.95621347788789
 21
159.54474628411091
  0
LINE
  8
_0-4_0-10
  6
CONTINUOUS
 62
    7
 10
165.82919481122129
 20
156.04474628411102
 11
161.32919481122118
 21
156.04474628411102
  0
LINE
  8
_0-4_0-10
  6
CONTINUOUS
 62
    4
 10
167.74159881122128
 20
171.54474628411102
 11
166.1071241445546
 21
171.54474628411102
  0
LINE
  8
_0-4_0-10
  6
CONTINUOUS
 62
    7
 10
166.27135214455458
 20
168.04474628411091
 11
161.77135214455458
 21
168.04474628411091
  0
LINE
  8
_0-4_0-10
  6
CONTINUOUS
 62
    4
 10
165.92437481122129
 20
180.54474628411091
 11
164.59991081122117
 21
180.54474628411091
  0
LINE
  8
_0-4_0-10
  6
CONTINUOUS
 62
    7
 10
164.08675881122118
 20
180.04474628411102
 11
159.5867588112213
 21
180.04474628411102
  0
LINE
  8
_0-4_0-10
  6
CONTINUOUS
 62
    4
 10
158.21259747788798
 20
195.54474628411102
 11
156.19906947788788
 21
195.54474628411102
  0
LINE
  8
_0-4_0-10
  6
CONTINUOUS
 62
    7
 10
158.40372547788788
 20
192.04474628411091
 11
153.90372547788788
 21
192.04474628411091
  0
LINE
  8
_0-4_0-10
  6
CONTINUOUS
 62
    4
 10
146.6749734778879
 20
207.54474628411102
 11
145.7120628112213
 21
207.54474628411102
  0
LINE
  8
_0-4_0-10
  6
CONTINUOUS
 62
    4
 10
151.14496147788798
 20
204.54474628411102
 11
148.43825347788788
 21
204.54474628411102
  0
LINE
  8
_0-4_0-10
  6
CONTINUOUS
 62
    7
 10
148.2120628112213
 20
204.04474628411102
 11
143.7120628112213
 21
204.04474628411102
  0
ARC
  8
_0-4_0-10
  6
CONTINUOUS
 62
    4
 10
113.67497347788788
 20
164.04474628411091
 40
55.5
 50
313.634465000001
 51
324.21823899999992
  0
ARC
  8
_0-4_0-10
  6
CONTINUOUS
 62
    4
 10
113.67497347788788
 20
164.04474628411091
 40
55.5
 50
329.75646699999919
 51
338.36988900000011
  0
ARC
  8
_0-4_0-10
  6
CONTINUOUS
 62
    4
 10
113.67497347788788
 20
164.04474628411091
 40
55.5
 50
8.7275870000001152
 51
16.523206000000019
  0
LINE
  8
_0-4_0-10
  6
CONTINUOUS
 62
    4
 10
143.7120628112213
 20
205.54474628411102
 11
143.7120628112213
 21
204.04474628411102
  0
LINE
  8
_0-4_0-10
  6
CONTINUOUS
 62
    4
 10
154.22945347788788
 20
193.89204361744432
 11
153.90372547788788
 21
192.04474628411091
  0
LINE
  8
_0-4_0-10
  6
CONTINUOUS
 62
    4
 10
163.80899081122129
 20
170.47310895077762
 11
161.77135214455458
 21
168.04474628411091
  0
ARC
  8
_0-4_0-10
  6
CONTINUOUS
 62
    4
 10
145.7120628112213
 20
205.54474628411102
 40
2
 50
90
 51
180
  0
LINE
  8
_0-4_0-10
  6
CONTINUOUS
 62
    4
 10
158.39802681122128
 20
192.10988495077762
 11
158.40372547788788
 21
192.04474628411091
  0
ARC
  8
_0-4_0-10
  6
CONTINUOUS
 62
    4
 10
156.19906947788788
 20
193.54474628411102
 40
2
 50
90
 51
170.00000000000019
  0
LINE
  8
_0-4_0-10
  6
CONTINUOUS
 62
    4
 10
164.11272681122127
 20
180.15722228411092
 11
164.08675881122118
 21
180.04474628411102
  0
LINE
  8
_0-4_0-10
  6
CONTINUOUS
 62
    4
 10
166.32841747788788
 20
168.17918495077762
 11
166.27135214455458
 21
168.04474628411091
  0
LINE
  8
_0-4_0-10
  6
CONTINUOUS
 62
    4
 10
164.3850628112213
 20
158.60892495077763
 11
161.32919481122118
 21
156.04474628411102
  0
LINE
  8
_0-4_0-10
  6
CONTINUOUS
 62
    4
 10
161.68160814455458
 20
146.64050628411092
 11
157.9744788112213
 21
144.04474628411091
  0
LINE
  8
_0-4_0-10
  6
CONTINUOUS
 62
    4
 10
165.93601214455458
 20
156.21569028411101
 11
165.82919481122129
 21
156.04474628411102
  0
ARC
  8
_0-4_0-10
  6
CONTINUOUS
 62
    4
 10
166.1071241445546
 20
168.54474628411102
 40
3
 50
90
 51
139.99999999999968
  0
ARC
  8
_0-4_0-10
  6
CONTINUOUS
 62
    4
 10
166.95621347788789
 20
155.54474628411091
 40
4
 50
90
 51
130
  0
LINE
  8
_0-4_0-10
  6
CONTINUOUS
 62
    4
 10
155.19917081122127
 20
134.63303561744433
 11
151.05704281122129
 21
132.04474628411102
  0
LINE
  8
_0-4_0-10
  6
CONTINUOUS
 62
    4
 10
144.23758681122129
 20
122.73509961744431
 11
138.7215468112212
 21
120.04474628411102
  0
ARC
  8
_0-4_0-10
  6
CONTINUOUS
 62
    4
 10
164.54949081122128
 20
142.54474628411102
 40
5
 50
90
 51
125.00000000000001
  0
LINE
  8
_0-4_0-10
  6
CONTINUOUS
 62
    4
 10
162.72143081122129
 20
144.30047295077631
 11
162.4744788112213
 21
144.04474628411091
  0
ARC
  8
_0-4_0-10
  6
CONTINUOUS
 62
    4
 10
158.37868547788789
 20
129.54474628411091
 40
6
 50
90
 51
121.99999999999978
  0
LINE
  8
_0-4_0-10
  6
CONTINUOUS
 62
    4
 10
156.04486147788799
 20
132.37378361744433
 11
155.55704281122118
 21
132.04474628411102
  0
ARC
  8
_0-4_0-10
  6
CONTINUOUS
 62
    4
 10
147.74455481122129
 20
115.54474628411102
 40
8
 50
90
 51
116.00000000000018
  0
ARC
  8
_0-4_0-10
  6
CONTINUOUS
 62
    4
 10
146.6749734778879
 20
208.04474628411102
 40
0.5
 50
270
 51
53.130102000000178
  0
ARC
  8
_0-4_0-10
  6
CONTINUOUS
 62
    4
 10
158.21259747788798
 20
196.14474628411093
 40
0.5999999999999999
 50
270
 51
35.781761000000052
  0
ARC
  8
_0-4_0-10
  6
CONTINUOUS
 62
    4
 10
167.74159881122128
 20
172.34474628411101
 40
0.8
 50
270
 51
8.7275870000001454
  0
ARC
  8
_0-4_0-10
  6
CONTINUOUS
 62
    4
 10
168.15616281122129
 20
160.44474628411091
 40
0.9
 50
270
 51
356.21951400000091
  0
ARC
  8
_0-4_0-10
  6
CONTINUOUS
 62
    4
 10
165.92437481122129
 20
148.54474628411091
 40
1
 50
270
 51
343.47679399999907
  0
ARC
  8
_0-4_0-10
  6
CONTINUOUS
 62
    4
 10
160.67071747788799
 20
136.64474628411093
 40
1.0999999999999989
 50
270
 51
329.75646699999919
  0
ARC
  8
_0-4_0-10
  6
CONTINUOUS
 62
    4
 10
151.14496147788798
 20
124.74474628411091
 40
1.199999999999999
 50
270
 51
313.634465000001
  0
ARC
  8
_0-4_0-10
  6
CONTINUOUS
 62
    4
 10
146.6749734778879
 20
120.04474628411102
 40
0.5
 50
306.86989799999969
 51
90
  0
ARC
  8
_0-4_0-10
  6
CONTINUOUS
 62
    4
 10
158.21259747788798
 20
131.94474628411091
 40
0.5999999999999999
 50
324.21823899999998
 51
89.999999999999971
  0
ARC
  8
_0-4_0-10
  6
CONTINUOUS
 62
    4
 10
164.61611481122127
 20
143.84474628410961
 40
0.6999999999999999
 50
338.36988900000011
 51
90
  0
ARC
  8
_0-4_0-10
  6
CONTINUOUS
 62
    4
 10
165.92437481122129
 20
179.54474628411091
 40
1
 50
16.523206000000019
 51
90
  0
ARC
  8
_0-4_0-10
  6
CONTINUOUS
 62
    4
 10
151.14496147788798
 20
203.34474628411101
 40
1.199999999999999
 50
46.365534999998914
 51
90
  0
ARC
  8
_0-4_0-10
  6
CONTINUOUS
 62
    4
 10
148.43825347788788
 20
204.24474628411101
 40
0.2999999999999999
 50
90
 51
245.74747686904919
  0
ARC
  8
_0-4_0-10
  6
CONTINUOUS
 62
    4
 10
158.7965054778879
 20
192.14474628411093
 40
0.4
 50
90
 51
184.9999999999998
  0
ARC
  8
_0-4_0-10
  6
CONTINUOUS
 62
    4
 10
164.59991081122117
 20
180.04474628411102
 40
0.5
 50
90
 51
166.99999999999886
  0
ARC
  8
_0-4_0-10
  6
CONTINUOUS
 62
    4
 10
166.8807214778879
 20
167.94474628411091
 40
0.5999999999999999
 50
90
 51
156.99999999999968
  0
ARC
  8
_0-4_0-10
  6
CONTINUOUS
 62
    4
 10
166.52964547788798
 20
155.84474628411101
 40
0.6999999999999999
 50
90
 51
147.99999999999988
  0
ARC
  8
_0-4_0-10
  6
CONTINUOUS
 62
    4
 10
163.29690281122128
 20
143.74474628411093
 40
0.8
 50
90
 51
136.00000000000019
  0
ARC
  8
_0-4_0-10
  6
CONTINUOUS
 62
    4
 10
156.6040534778879
 20
131.54474628411091
 40
1
 50
90
 51
123.9999999999991
  0
ARC
  8
_0-4_0-10
  6
CONTINUOUS
 62
    4
 10
144.32705214455458
 20
119.34474628410961
 40
1.199999999999999
 50
90
 51
124.4395570000001
  0
LINE
  8
_0-4_0-10
  6
CONTINUOUS
 62
    4
 10
137.6749734778879
 20
211.11173428411103
 11
137.8492841445545
 21
211.11553961744431
  0
LINE
  8
_0-4_0-10
  6
CONTINUOUS
 62
    4
 10
137.8492841445545
 20
211.11553961744431
 11
138.0222694778879
 21
211.12692628411102
  0
LINE
  8
_0-4_0-10
  6
CONTINUOUS
 62
    4
 10
138.0222694778879
 20
211.12692628411102
 11
138.19261081122118
 21
211.14580761744431
  0
LINE
  8
_0-4_0-10
  6
CONTINUOUS
 62
    4
 10
138.19261081122118
 20
211.14580761744431
 11
138.35901347788788
 21
211.17204095077761
  0
LINE
  8
_0-4_0-10
  6
CONTINUOUS
 62
    4
 10
138.35901347788788
 20
211.17204095077761
 11
138.5202094778879
 21
211.20542628411101
  0
LINE
  8
_0-4_0-10
  6
CONTINUOUS
 62
    4
 10
138.5202094778879
 20
211.20542628411101
 11
138.6749734778879
 21
211.24570895077772
  0
LINE
  8
_0-4_0-10
  6
CONTINUOUS
 62
    4
 10
138.6749734778879
 20
211.24570895077772
 11
138.82212547788788
 21
211.29258228411103
  0
LINE
  8
_0-4_0-10
  6
CONTINUOUS
 62
    4
 10
138.82212547788788
 20
211.29258228411103
 11
138.96054814455459
 21
211.34568895077771
  0
LINE
  8
_0-4_0-10
  6
CONTINUOUS
 62
    4
 10
138.96054814455459
 20
211.34568895077771
 11
139.08918681122119
 21
211.40462761744433
  0
LINE
  8
_0-4_0-10
  6
CONTINUOUS
 62
    4
 10
139.08918681122119
 20
211.40462761744433
 11
139.20706147788789
 21
211.46894628411101
  0
LINE
  8
_0-4_0-10
  6
CONTINUOUS
 62
    4
 10
139.20706147788789
 20
211.46894628411101
 11
139.31327747788787
 21
211.53815695077773
  0
LINE
  8
_0-4_0-10
  6
CONTINUOUS
 62
    4
 10
139.31327747788787
 20
211.53815695077773
 11
139.40702414455458
 21
211.61173428411103
  0
LINE
  8
_0-4_0-10
  6
CONTINUOUS
 62
    4
 10
139.40702414455458
 20
211.61173428411103
 11
139.48758814455447
 21
211.68911561744431
  0
LINE
  8
_0-4_0-10
  6
CONTINUOUS
 62
    4
 10
139.48758814455447
 20
211.68911561744431
 11
139.55435881122119
 21
211.76971428411101
  0
LINE
  8
_0-4_0-10
  6
CONTINUOUS
 62
    4
 10
139.55435881122119
 20
211.76971428411101
 11
139.60682414455459
 21
211.85291428411102
  0
LINE
  8
_0-4_0-10
  6
CONTINUOUS
 62
    4
 10
139.60682414455459
 20
211.85291428411102
 11
139.6445881445546
 21
211.93808628411102
  0
LINE
  8
_0-4_0-10
  6
CONTINUOUS
 62
    4
 10
139.6445881445546
 20
211.93808628411102
 11
139.66736281122118
 21
212.02457828411101
  0
LINE
  8
_0-4_0-10
  6
CONTINUOUS
 62
    4
 10
139.66736281122118
 20
212.02457828411101
 11
139.6749734778879
 21
212.11173428411103
  0
LINE
  8
_0-0_0
  6
CONTINUOUS
 62
    4
 10
137.6749734778879
 20
211.11173428411103
 11
137.8492841445545
 21
211.11553961744431
  0
LINE
  8
_0-0_0
  6
CONTINUOUS
 62
    4
 10
137.8492841445545
 20
211.11553961744431
 11
138.0222694778879
 21
211.12692628411102
  0
LINE
  8
_0-0_0
  6
CONTINUOUS
 62
    4
 10
138.0222694778879
 20
211.12692628411102
 11
138.19261081122118
 21
211.14580761744431
  0
LINE
  8
_0-0_0
  6
CONTINUOUS
 62
    4
 10
138.19261081122118
 20
211.14580761744431
 11
138.35901347788788
 21
211.17204095077761
  0
LINE
  8
_0-0_0
  6
CONTINUOUS
 62
    4
 10
138.35901347788788
 20
211.17204095077761
 11
138.5202094778879
 21
211.20542628411101
  0
LINE
  8
_0-0_0
  6
CONTINUOUS
 62
    4
 10
138.5202094778879
 20
211.20542628411101
 11
138.6749734778879
 21
211.24570895077772
  0
LINE
  8
_0-0_0
  6
CONTINUOUS
 62
    4
 10
138.6749734778879
 20
211.24570895077772
 11
138.82212547788788
 21
211.29258228411103
  0
LINE
  8
_0-0_0
  6
CONTINUOUS
 62
    4
 10
138.82212547788788
 20
211.29258228411103
 11
138.96054814455459
 21
211.34568895077771
  0
LINE
  8
_0-0_0
  6
CONTINUOUS
 62
    4
 10
138.96054814455459
 20
211.34568895077771
 11
139.08918681122119
 21
211.40462761744433
  0
LINE
  8
_0-0_0
  6
CONTINUOUS
 62
    4
 10
139.08918681122119
 20
211.40462761744433
 11
139.20706147788789
 21
211.46894628411101
  0
LINE
  8
_0-0_0
  6
CONTINUOUS
 62
    4
 10
139.20706147788789
 20
211.46894628411101
 11
139.31327747788787
 21
211.53815695077773
  0
LINE
  8
_0-0_0
  6
CONTINUOUS
 62
    4
 10
139.31327747788787
 20
211.53815695077773
 11
139.40702414455458
 21
211.61173428411103
  0
LINE
  8
_0-0_0
  6
CONTINUOUS
 62
    4
 10
139.40702414455458
 20
211.61173428411103
 11
139.48758814455447
 21
211.68911561744431
  0
LINE
  8
_0-0_0
  6
CONTINUOUS
 62
    4
 10
139.48758814455447
 20
211.68911561744431
 11
139.55435881122119
 21
211.76971428411101
  0
LINE
  8
_0-0_0
  6
CONTINUOUS
 62
    4
 10
139.55435881122119
 20
211.76971428411101
 11
139.60682414455459
 21
211.85291428411102
  0
LINE
  8
_0-0_0
  6
CONTINUOUS
 62
    4
 10
139.60682414455459
 20
211.85291428411102
 11
139.6445881445546
 21
211.93808628411102
  0
LINE
  8
_0-0_0
  6
CONTINUOUS
 62
    4
 10
139.6445881445546
 20
211.93808628411102
 11
139.66736281122118
 21
212.02457828411101
  0
LINE
  8
_0-0_0
  6
CONTINUOUS
 62
    4
 10
139.66736281122118
 20
212.02457828411101
 11
139.6749734778879
 21
212.11173428411103
  0
LINE
  8
_0-4_0-10
  6
CONTINUOUS
 62
    4
 10
139.6749734778879
 20
212.544741952179
 11
139.6749734778879
 21
212.11173428411103
  0
LINE
  8
_0-0_0
  6
CONTINUOUS
 62
    4
 10
137.6749734778879
 20
211.54474628411102
 11
137.8492841445545
 21
211.54855161744433
  0
LINE
  8
_0-0_0
  6
CONTINUOUS
 62
    4
 10
137.8492841445545
 20
211.54855161744433
 11
138.0222694778879
 21
211.55993828411101
  0
LINE
  8
_0-0_0
  6
CONTINUOUS
 62
    4
 10
138.0222694778879
 20
211.55993828411101
 11
138.19261081122118
 21
211.57882095077772
  0
LINE
  8
_0-0_0
  6
CONTINUOUS
 62
    4
 10
138.19261081122118
 20
211.57882095077772
 11
138.35901347788788
 21
211.60505428411102
  0
LINE
  8
_0-0_0
  6
CONTINUOUS
 62
    4
 10
138.35901347788788
 20
211.60505428411102
 11
138.5202094778879
 21
211.63843828411103
  0
LINE
  8
_0-0_0
  6
CONTINUOUS
 62
    4
 10
138.5202094778879
 20
211.63843828411103
 11
138.6749734778879
 21
211.67872095077771
  0
LINE
  8
_0-0_0
  6
CONTINUOUS
 62
    4
 10
138.6749734778879
 20
211.67872095077771
 11
138.82212547788788
 21
211.72559428411102
  0
LINE
  8
_0-0_0
  6
CONTINUOUS
 62
    4
 10
138.82212547788788
 20
211.72559428411102
 11
138.96054814455459
 21
211.77870228411103
  0
LINE
  8
_0-0_0
  6
CONTINUOUS
 62
    4
 10
138.96054814455459
 20
211.77870228411103
 11
139.08918681122119
 21
211.83763961744432
  0
LINE
  8
_0-0_0
  6
CONTINUOUS
 62
    4
 10
139.08918681122119
 20
211.83763961744432
 11
139.20706147788789
 21
211.90195961744433
  0
LINE
  8
_0-0_0
  6
CONTINUOUS
 62
    4
 10
139.20706147788789
 20
211.90195961744433
 11
139.31327747788787
 21
211.97117028411102
  0
LINE
  8
_0-0_0
  6
CONTINUOUS
 62
    4
 10
139.31327747788787
 20
211.97117028411102
 11
139.40702414455458
 21
212.04474628411102
  0
LINE
  8
_0-0_0
  6
CONTINUOUS
 62
    4
 10
139.40702414455458
 20
212.04474628411102
 11
139.48758814455447
 21
212.12212895077763
  0
LINE
  8
_0-0_0
  6
CONTINUOUS
 62
    4
 10
139.48758814455447
 20
212.12212895077763
 11
139.55435881122119
 21
212.20272628411103
  0
LINE
  8
_0-0_0
  6
CONTINUOUS
 62
    4
 10
139.55435881122119
 20
212.20272628411103
 11
139.60682414455459
 21
212.28592761744431
  0
LINE
  8
_0-0_0
  6
CONTINUOUS
 62
    4
 10
139.60682414455459
 20
212.28592761744431
 11
139.6445881445546
 21
212.37109828411101
  0
LINE
  8
_0-0_0
  6
CONTINUOUS
 62
    4
 10
139.6445881445546
 20
212.37109828411101
 11
139.66736281122118
 21
212.45759028411103
  0
LINE
  8
_0-0_0
  6
CONTINUOUS
 62
    4
 10
139.66736281122118
 20
212.45759028411103
 11
139.6749734778879
 21
212.54474628411102
  0
LINE
  8
_0-0_0
  6
CONTINUOUS
 62
    4
 10
139.6749734778879
 20
212.54474628411102
 11
139.66736281122118
 21
212.63190228411102
  0
LINE
  8
_0-0_0
  6
CONTINUOUS
 62
    4
 10
139.66736281122118
 20
212.63190228411102
 11
139.6445881445546
 21
212.71839428411101
  0
LINE
  8
_0-0_0
  6
CONTINUOUS
 62
    4
 10
139.6445881445546
 20
212.71839428411101
 11
139.60682414455459
 21
212.80356628411101
  0
LINE
  8
_0-0_0
  6
CONTINUOUS
 62
    4
 10
139.60682414455459
 20
212.80356628411101
 11
139.55435881122119
 21
212.88676628411101
  0
LINE
  8
_0-0_0
  6
CONTINUOUS
 62
    4
 10
139.55435881122119
 20
212.88676628411101
 11
139.48758814455447
 21
212.96736495077763
  0
LINE
  8
_0-0_0
  6
CONTINUOUS
 62
    4
 10
139.48758814455447
 20
212.96736495077763
 11
139.40702414455458
 21
213.04474628411102
  0
LINE
  8
_0-0_0
  6
CONTINUOUS
 62
    4
 10
139.40702414455458
 20
213.04474628411102
 11
139.31327747788787
 21
213.11832361744433
  0
LINE
  8
_0-0_0
  6
CONTINUOUS
 62
    4
 10
139.31327747788787
 20
213.11832361744433
 11
139.20706147788789
 21
213.18753428411091
  0
LINE
  8
_0-0_0
  6
CONTINUOUS
 62
    4
 10
139.20706147788789
 20
213.18753428411091
 11
139.08918681122119
 21
213.25185295077773
  0
LINE
  8
_0-0_0
  6
CONTINUOUS
 62
    4
 10
139.08918681122119
 20
213.25185295077773
 11
138.96054814455459
 21
213.31079161744432
  0
LINE
  8
_0-0_0
  6
CONTINUOUS
 62
    4
 10
138.96054814455459
 20
213.31079161744432
 11
138.82212547788788
 21
213.36389828411103
  0
LINE
  8
_0-0_0
  6
CONTINUOUS
 62
    4
 10
138.82212547788788
 20
213.36389828411103
 11
138.6749734778879
 21
213.41077161744431
  0
LINE
  8
_0-0_0
  6
CONTINUOUS
 62
    4
 10
138.6749734778879
 20
213.41077161744431
 11
138.61614947788788
 21
213.42709961744441
  0
LINE
  8
_0-0_0
  6
CONTINUOUS
 62
    4
 10
149.71147481122119
 20
199.11173428411103
 11
149.92936414455448
 21
199.1164902841109
  0
LINE
  8
_0-0_0
  6
CONTINUOUS
 62
    4
 10
149.92936414455448
 20
199.1164902841109
 11
150.1455961445545
 21
199.13072495077761
  0
LINE
  8
_0-0_0
  6
CONTINUOUS
 62
    4
 10
150.1455961445545
 20
199.13072495077761
 11
150.35852281122129
 21
199.15432628411093
  0
LINE
  8
_0-0_0
  6
CONTINUOUS
 62
    4
 10
150.35852281122129
 20
199.15432628411093
 11
150.56652547788789
 21
199.18711828411102
  0
LINE
  8
_0-0_0
  6
CONTINUOUS
 62
    4
 10
150.56652547788789
 20
199.18711828411102
 11
150.76802014455458
 21
199.22884895077763
  0
LINE
  8
_0-0_0
  6
CONTINUOUS
 62
    4
 10
150.76802014455458
 20
199.22884895077763
 11
150.96147481122119
 21
199.27920228411102
  0
LINE
  8
_0-0_0
  6
CONTINUOUS
 62
    4
 10
150.96147481122119
 20
199.27920228411102
 11
151.1454161445545
 21
199.33779428411102
  0
LINE
  8
_0-0_0
  6
CONTINUOUS
 62
    4
 10
151.1454161445545
 20
199.33779428411102
 11
151.3184441445546
 21
199.40417828411091
  0
LINE
  8
_0-0_0
  6
CONTINUOUS
 62
    4
 10
151.3184441445546
 20
199.40417828411091
 11
151.47924147788788
 21
199.47785028411101
  0
LINE
  8
_0-0_0
  6
CONTINUOUS
 62
    4
 10
151.47924147788788
 20
199.47785028411101
 11
151.62658681122118
 21
199.55824895077762
  0
LINE
  8
_0-0_0
  6
CONTINUOUS
 62
    4
 10
151.62658681122118
 20
199.55824895077762
 11
151.75935481122118
 21
199.64476361744431
  0
LINE
  8
_0-0_0
  6
CONTINUOUS
 62
    4
 10
151.75935481122118
 20
199.64476361744431
 11
151.87653881122119
 21
199.73673428411103
  0
LINE
  8
_0-0_0
  6
CONTINUOUS
 62
    4
 10
151.87653881122119
 20
199.73673428411103
 11
151.97724414455458
 21
199.83346095077772
  0
LINE
  8
_0-0_0
  6
CONTINUOUS
 62
    4
 10
151.97724414455458
 20
199.83346095077772
 11
152.06070681122119
 21
199.93420895077761
  0
LINE
  8
_0-0_0
  6
CONTINUOUS
 62
    4
 10
152.06070681122119
 20
199.93420895077761
 11
152.12628947788789
 21
200.03821028411101
  0
LINE
  8
_0-0_0
  6
CONTINUOUS
 62
    4
 10
152.12628947788789
 20
200.03821028411101
 11
152.1734948112213
 21
200.14467428411091
  0
LINE
  8
_0-0_0
  6
CONTINUOUS
 62
    4
 10
152.1734948112213
 20
200.14467428411091
 11
152.20196147788789
 21
200.25278895077761
  0
LINE
  8
_0-0_0
  6
CONTINUOUS
 62
    4
 10
152.20196147788789
 20
200.25278895077761
 11
152.21147481122119
 21
200.36173428411103
  0
LINE
  8
_0-4_0-10
  6
CONTINUOUS
 62
    4
 10
148.2120628112213
 20
204.04474628411102
 11
151.75935481122129
 21
201.51171695077772
  0
LINE
  8
_0-4_0-10
  6
CONTINUOUS
 62
    4
 10
152.21147481122127
 20
200.79474628411102
 11
152.21147481122127
 21
200.36173428411103
  0
LINE
  8
_0-0_0
  6
CONTINUOUS
 62
    4
 10
149.71147481122119
 20
199.54474628411091
 11
149.92936414455448
 21
199.54950361744431
  0
LINE
  8
_0-0_0
  6
CONTINUOUS
 62
    4
 10
149.92936414455448
 20
199.54950361744431
 11
150.1455961445545
 21
199.56373695077772
  0
LINE
  8
_0-0_0
  6
CONTINUOUS
 62
    4
 10
150.1455961445545
 20
199.56373695077772
 11
150.35852281122129
 21
199.58733961744431
  0
LINE
  8
_0-0_0
  6
CONTINUOUS
 62
    4
 10
150.35852281122129
 20
199.58733961744431
 11
150.56652547788789
 21
199.62013028411092
  0
LINE
  8
_0-0_0
  6
CONTINUOUS
 62
    4
 10
150.56652547788789
 20
199.62013028411092
 11
150.76802014455458
 21
199.661862284111
  0
LINE
  8
_0-0_0
  6
CONTINUOUS
 62
    4
 10
150.76802014455458
 20
199.661862284111
 11
150.96147481122119
 21
199.71221428411092
  0
LINE
  8
_0-0_0
  6
CONTINUOUS
 62
    4
 10
150.96147481122119
 20
199.71221428411092
 11
151.1454161445545
 21
199.77080628411101
  0
LINE
  8
_0-0_0
  6
CONTINUOUS
 62
    4
 10
151.1454161445545
 20
199.77080628411101
 11
151.3184441445546
 21
199.83719161744431
  0
LINE
  8
_0-0_0
  6
CONTINUOUS
 62
    4
 10
151.3184441445546
 20
199.83719161744431
 11
151.47924147788788
 21
199.91086361744433
  0
LINE
  8
_0-0_0
  6
CONTINUOUS
 62
    4
 10
151.47924147788788
 20
199.91086361744433
 11
151.62658681122118
 21
199.99126228411091
  0
LINE
  8
_0-0_0
  6
CONTINUOUS
 62
    4
 10
151.62658681122118
 20
199.99126228411091
 11
151.75935481122118
 21
200.07777561744433
  0
LINE
  8
_0-0_0
  6
CONTINUOUS
 62
    4
 10
151.75935481122118
 20
200.07777561744433
 11
151.87653881122119
 21
200.16974628411102
  0
LINE
  8
_0-0_0
  6
CONTINUOUS
 62
    4
 10
151.87653881122119
 20
200.16974628411102
 11
151.97724414455458
 21
200.26647428411101
  0
LINE
  8
_0-0_0
  6
CONTINUOUS
 62
    4
 10
151.97724414455458
 20
200.26647428411101
 11
152.06070681122119
 21
200.36722095077772
  0
LINE
  8
_0-0_0
  6
CONTINUOUS
 62
    4
 10
152.06070681122119
 20
200.36722095077772
 11
152.12628947788789
 21
200.47122228411092
  0
LINE
  8
_0-0_0
  6
CONTINUOUS
 62
    4
 10
152.12628947788789
 20
200.47122228411092
 11
152.1734948112213
 21
200.57768628411102
  0
LINE
  8
_0-0_0
  6
CONTINUOUS
 62
    4
 10
152.1734948112213
 20
200.57768628411102
 11
152.20196147788789
 21
200.68580228411101
  0
LINE
  8
_0-0_0
  6
CONTINUOUS
 62
    4
 10
152.20196147788789
 20
200.68580228411101
 11
152.21147481122119
 21
200.79474628411102
  0
LINE
  8
_0-0_0
  6
CONTINUOUS
 62
    4
 10
152.21147481122119
 20
200.79474628411102
 11
152.20196147788789
 21
200.9036916174443
  0
LINE
  8
_0-0_0
  6
CONTINUOUS
 62
    4
 10
152.20196147788789
 20
200.9036916174443
 11
152.1734948112213
 21
201.01180628411103
  0
LINE
  8
_0-0_0
  6
CONTINUOUS
 62
    4
 10
152.1734948112213
 20
201.01180628411103
 11
152.12628947788789
 21
201.11827028411101
  0
LINE
  8
_0-0_0
  6
CONTINUOUS
 62
    4
 10
152.12628947788789
 20
201.11827028411101
 11
152.06070681122119
 21
201.22227161744433
  0
LINE
  8
_0-0_0
  6
CONTINUOUS
 62
    4
 10
152.06070681122119
 20
201.22227161744433
 11
151.97724414455458
 21
201.32301961744431
  0
LINE
  8
_0-0_0
  6
CONTINUOUS
 62
    4
 10
151.97724414455458
 20
201.32301961744431
 11
151.87653881122119
 21
201.41974628411102
  0
LINE
  8
_0-0_0
  6
CONTINUOUS
 62
    4
 10
151.87653881122119
 20
201.41974628411102
 11
151.75935481122118
 21
201.51171695077772
  0
LINE
  8
_0-0_0
  6
CONTINUOUS
 62
    4
 10
143.21206281122118
 20
203.79474628411102
 11
143.2556401445546
 21
203.79569828411101
  0
LINE
  8
_0-0_0
  6
CONTINUOUS
 62
    4
 10
143.2556401445546
 20
203.79569828411101
 11
143.29888681122119
 21
203.79854495077771
  0
LINE
  8
_0-0_0
  6
CONTINUOUS
 62
    4
 10
143.29888681122119
 20
203.79854495077771
 11
143.3414721445545
 21
203.80326495077761
  0
LINE
  8
_0-0_0
  6
CONTINUOUS
 62
    4
 10
143.3414721445545
 20
203.80326495077761
 11
143.3830721445546
 21
203.80982361744432
  0
LINE
  8
_0-0_0
  6
CONTINUOUS
 62
    4
 10
143.3830721445546
 20
203.80982361744432
 11
143.4233721445546
 21
203.81817028411091
  0
LINE
  8
_0-0_0
  6
CONTINUOUS
 62
    4
 10
143.4233721445546
 20
203.81817028411091
 11
143.4620628112213
 21
203.82824095077771
  0
LINE
  8
_0-0_0
  6
CONTINUOUS
 62
    4
 10
143.4620628112213
 20
203.82824095077771
 11
143.4988508112213
 21
203.83995828411093
  0
LINE
  8
_0-0_0
  6
CONTINUOUS
 62
    4
 10
143.4988508112213
 20
203.83995828411093
 11
143.5334561445546
 21
203.85323561744431
  0
LINE
  8
_0-0_0
  6
CONTINUOUS
 62
    4
 10
143.5334561445546
 20
203.85323561744431
 11
143.56561614455458
 21
203.867970284111
  0
LINE
  8
_0-0_0
  6
CONTINUOUS
 62
    4
 10
143.56561614455458
 20
203.867970284111
 11
143.59508414455459
 21
203.88405028411091
  0
LINE
  8
_0-0_0
  6
CONTINUOUS
 62
    4
 10
143.59508414455459
 20
203.88405028411091
 11
143.6216388112212
 21
203.90135295077763
  0
LINE
  8
_0-0_0
  6
CONTINUOUS
 62
    4
 10
143.6216388112212
 20
203.90135295077763
 11
143.64507481122117
 21
203.91974628411102
  0
LINE
  8
_0-0_0
  6
CONTINUOUS
 62
    4
 10
143.64507481122117
 20
203.91974628411102
 11
143.66521614455459
 21
203.93909161744431
  0
LINE
  8
_0-0_0
  6
CONTINUOUS
 62
    4
 10
143.66521614455459
 20
203.93909161744431
 11
143.68190947788789
 21
203.95924228411101
  0
LINE
  8
_0-0_0
  6
CONTINUOUS
 62
    4
 10
143.68190947788789
 20
203.95924228411101
 11
143.69502547788789
 21
203.98004228411102
  0
LINE
  8
_0-0_0
  6
CONTINUOUS
 62
    4
 10
143.69502547788789
 20
203.98004228411102
 11
143.70446681122118
 21
204.00133428411101
  0
LINE
  8
_0-0_0
  6
CONTINUOUS
 62
    4
 10
143.70446681122118
 20
204.00133428411101
 11
143.71016014455457
 21
204.02295828411092
  0
LINE
  8
_0-0_0
  6
CONTINUOUS
 62
    4
 10
143.71016014455457
 20
204.02295828411092
 11
143.7120628112213
 21
204.04474628411102
  0
LINE
  8
_0-0_0
  6
CONTINUOUS
 62
    4
 10
155.91719881122119
 20
187.11173428411103
 11
156.1786654778879
 21
187.11744228411103
  0
LINE
  8
_0-0_0
  6
CONTINUOUS
 62
    4
 10
156.1786654778879
 20
187.11744228411103
 11
156.43814281122118
 21
187.13452228411102
  0
LINE
  8
_0-0_0
  6
CONTINUOUS
 62
    4
 10
156.43814281122118
 20
187.13452228411102
 11
156.69365614455458
 21
187.16284495077772
  0
LINE
  8
_0-0_0
  6
CONTINUOUS
 62
    4
 10
156.69365614455458
 20
187.16284495077772
 11
156.94325881122119
 21
187.20219561744431
  0
LINE
  8
_0-0_0
  6
CONTINUOUS
 62
    4
 10
156.94325881122119
 20
187.20219561744431
 11
157.18505347788789
 21
187.2522729507776
  0
LINE
  8
_0-0_0
  6
CONTINUOUS
 62
    4
 10
157.18505347788789
 20
187.2522729507776
 11
157.41719881122119
 21
187.31269561744431
  0
LINE
  8
_0-0_0
  6
CONTINUOUS
 62
    4
 10
157.41719881122119
 20
187.31269561744431
 11
157.63792814455459
 21
187.38300628411093
  0
LINE
  8
_0-0_0
  6
CONTINUOUS
 62
    4
 10
157.63792814455459
 20
187.38300628411093
 11
157.84556147788788
 21
187.46266761744431
  0
LINE
  8
_0-0_0
  6
CONTINUOUS
 62
    4
 10
157.84556147788788
 20
187.46266761744431
 11
158.03851881122119
 21
187.55107428411102
  0
LINE
  8
_0-0_0
  6
CONTINUOUS
 62
    4
 10
158.03851881122119
 20
187.55107428411102
 11
158.21533214455459
 21
187.64755295077762
  0
LINE
  8
_0-0_0
  6
CONTINUOUS
 62
    4
 10
158.21533214455459
 20
187.64755295077762
 11
158.3746548112212
 21
187.75136895077773
  0
LINE
  8
_0-0_0
  6
CONTINUOUS
 62
    4
 10
158.3746548112212
 20
187.75136895077773
 11
158.51527481122118
 21
187.86173428411103
  0
LINE
  8
_0-0_0
  6
CONTINUOUS
 62
    4
 10
158.51527481122118
 20
187.86173428411103
 11
158.63612147788788
 21
187.97780628411101
  0
LINE
  8
_0-0_0
  6
CONTINUOUS
 62
    4
 10
158.63612147788788
 20
187.97780628411101
 11
158.73627614455458
 21
188.09870361744432
  0
LINE
  8
_0-0_0
  6
CONTINUOUS
 62
    4
 10
158.73627614455458
 20
188.09870361744432
 11
158.81497614455457
 21
188.22350495077762
  0
LINE
  8
_0-0_0
  6
CONTINUOUS
 62
    4
 10
158.81497614455457
 20
188.22350495077762
 11
158.87162147788788
 21
188.35126228411093
  0
LINE
  8
_0-0_0
  6
CONTINUOUS
 62
    4
 10
158.87162147788788
 20
188.35126228411093
 11
158.9057828112212
 21
188.48100095077762
  0
LINE
  8
_0-0_0
  6
CONTINUOUS
 62
    4
 10
158.9057828112212
 20
188.48100095077762
 11
158.91719881122119
 21
188.61173428411103
  0
LINE
  8
_0-4_0-10
  6
CONTINUOUS
 62
    4
 10
158.40372547788788
 20
192.04474628411091
 11
158.90578281122128
 21
189.17548095077762
  0
LINE
  8
_0-4_0-10
  6
CONTINUOUS
 62
    4
 10
158.91719881122128
 20
189.04474628411091
 11
158.91719881122128
 21
188.61173428411143
  0
LINE
  8
_0-0_0
  6
CONTINUOUS
 62
    4
 10
155.91719881122119
 20
187.54474628411102
 11
156.1786654778879
 21
187.55045428411102
  0
LINE
  8
_0-0_0
  6
CONTINUOUS
 62
    4
 10
156.1786654778879
 20
187.55045428411102
 11
156.43814281122118
 21
187.56753561744432
  0
LINE
  8
_0-0_0
  6
CONTINUOUS
 62
    4
 10
156.43814281122118
 20
187.56753561744432
 11
156.69365614455458
 21
187.59585828411093
  0
LINE
  8
_0-0_0
  6
CONTINUOUS
 62
    4
 10
156.69365614455458
 20
187.59585828411093
 11
156.94325881122119
 21
187.63520761744433
  0
LINE
  8
_0-0_0
  6
CONTINUOUS
 62
    4
 10
156.94325881122119
 20
187.63520761744433
 11
157.18505347788789
 21
187.68528495077762
  0
LINE
  8
_0-0_0
  6
CONTINUOUS
 62
    4
 10
157.18505347788789
 20
187.68528495077762
 11
157.41719881122119
 21
187.74570895077761
  0
LINE
  8
_0-0_0
  6
CONTINUOUS
 62
    4
 10
157.41719881122119
 20
187.74570895077761
 11
157.63792814455459
 21
187.816018284111
  0
LINE
  8
_0-0_0
  6
CONTINUOUS
 62
    4
 10
157.63792814455459
 20
187.816018284111
 11
157.84556147788788
 21
187.89567961744432
  0
LINE
  8
_0-0_0
  6
CONTINUOUS
 62
    4
 10
157.84556147788788
 20
187.89567961744432
 11
158.03851881122119
 21
187.98408628411101
  0
LINE
  8
_0-0_0
  6
CONTINUOUS
 62
    4
 10
158.03851881122119
 20
187.98408628411101
 11
158.21533214455459
 21
188.08056495077761
  0
LINE
  8
_0-0_0
  6
CONTINUOUS
 62
    4
 10
158.21533214455459
 20
188.08056495077761
 11
158.3746548112212
 21
188.18438228411091
  0
LINE
  8
_0-0_0
  6
CONTINUOUS
 62
    4
 10
158.3746548112212
 20
188.18438228411091
 11
158.51527481122118
 21
188.29474628411102
  0
LINE
  8
_0-0_0
  6
CONTINUOUS
 62
    4
 10
158.51527481122118
 20
188.29474628411102
 11
158.63612147788788
 21
188.41081961744433
  0
LINE
  8
_0-0_0
  6
CONTINUOUS
 62
    4
 10
158.63612147788788
 20
188.41081961744433
 11
158.73627614455458
 21
188.53171695077773
  0
LINE
  8
_0-0_0
  6
CONTINUOUS
 62
    4
 10
158.73627614455458
 20
188.53171695077773
 11
158.81497614455457
 21
188.65651828411091
  0
LINE
  8
_0-0_0
  6
CONTINUOUS
 62
    4
 10
158.81497614455457
 20
188.65651828411091
 11
158.87162147788788
 21
188.78427428411103
  0
LINE
  8
_0-0_0
  6
CONTINUOUS
 62
    4
 10
158.87162147788788
 20
188.78427428411103
 11
158.9057828112212
 21
188.91401295077773
  0
LINE
  8
_0-0_0
  6
CONTINUOUS
 62
    4
 10
158.9057828112212
 20
188.91401295077773
 11
158.91719881122119
 21
189.04474628411091
  0
LINE
  8
_0-0_0
  6
CONTINUOUS
 62
    4
 10
158.91719881122119
 20
189.04474628411091
 11
158.9057828112212
 21
189.17548095077762
  0
LINE
  8
_0-4_0-10
  6
CONTINUOUS
 62
    4
 10
153.88841614455458
 20
192.00133428411092
 11
153.90372547788788
 21
192.04474628411091
  0
LINE
  8
_0-0_0
  6
CONTINUOUS
 62
    4
 10
153.39601214455458
 20
191.79474628411102
 11
153.43959081122119
 21
191.79569828411092
  0
LINE
  8
_0-0_0
  6
CONTINUOUS
 62
    4
 10
153.43959081122119
 20
191.79569828411092
 11
153.48283614455459
 21
191.79854495077762
  0
LINE
  8
_0-0_0
  6
CONTINUOUS
 62
    4
 10
153.48283614455459
 20
191.79854495077762
 11
153.52542281122128
 21
191.80326495077761
  0
LINE
  8
_0-0_0
  6
CONTINUOUS
 62
    4
 10
153.52542281122128
 20
191.80326495077761
 11
153.56702281122127
 21
191.80982361744432
  0
LINE
  8
_0-0_0
  6
CONTINUOUS
 62
    4
 10
153.56702281122127
 20
191.80982361744432
 11
153.60732147788789
 21
191.81817028411091
  0
LINE
  8
_0-0_0
  6
CONTINUOUS
 62
    4
 10
153.60732147788789
 20
191.81817028411091
 11
153.64601214455458
 21
191.82824095077762
  0
LINE
  8
_0-0_0
  6
CONTINUOUS
 62
    4
 10
153.64601214455458
 20
191.82824095077762
 11
153.68280147788789
 21
191.83995828411093
  0
LINE
  8
_0-0_0
  6
CONTINUOUS
 62
    4
 10
153.68280147788789
 20
191.83995828411093
 11
153.71740681122119
 21
191.85323561744431
  0
LINE
  8
_0-0_0
  6
CONTINUOUS
 62
    4
 10
153.71740681122119
 20
191.85323561744431
 11
153.74956547788789
 21
191.86797028411092
  0
LINE
  8
_0-0_0
  6
CONTINUOUS
 62
    4
 10
153.74956547788789
 20
191.86797028411092
 11
153.77903481122118
 21
191.88405028411091
  0
LINE
  8
_0-0_0
  6
CONTINUOUS
 62
    4
 10
153.77903481122118
 20
191.88405028411091
 11
153.8055881445546
 21
191.90135295077763
  0
LINE
  8
_0-0_0
  6
CONTINUOUS
 62
    4
 10
153.8055881445546
 20
191.90135295077763
 11
153.82902547788788
 21
191.91974628411102
  0
LINE
  8
_0-0_0
  6
CONTINUOUS
 62
    4
 10
153.82902547788788
 20
191.91974628411102
 11
153.84916681122118
 21
191.93909161744431
  0
LINE
  8
_0-0_0
  6
CONTINUOUS
 62
    4
 10
153.84916681122118
 20
191.93909161744431
 11
153.8658588112213
 21
191.95924228411092
  0
LINE
  8
_0-0_0
  6
CONTINUOUS
 62
    4
 10
153.8658588112213
 20
191.95924228411092
 11
153.87897614455459
 21
191.98004228411093
  0
LINE
  8
_0-0_0
  6
CONTINUOUS
 62
    4
 10
153.87897614455459
 20
191.98004228411093
 11
153.88841614455458
 21
192.00133428411101
  0
LINE
  8
_0-0_0
  6
CONTINUOUS
 62
    4
 10
158.82720147788788
 20
175.11173428411103
 11
159.17582547788788
 21
175.11934495077773
  0
LINE
  8
_0-0_0
  6
CONTINUOUS
 62
    4
 10
159.17582547788788
 20
175.11934495077773
 11
159.52179481122129
 21
175.14211828411103
  0
LINE
  8
_0-0_0
  6
CONTINUOUS
 62
    4
 10
159.52179481122129
 20
175.14211828411103
 11
159.86247747788789
 21
175.17988228411101
  0
LINE
  8
_0-0_0
  6
CONTINUOUS
 62
    4
 10
159.86247747788789
 20
175.17988228411101
 11
160.1952828112212
 21
175.23234895077763
  0
LINE
  8
_0-0_0
  6
CONTINUOUS
 62
    4
 10
160.1952828112212
 20
175.23234895077763
 11
160.51767481122118
 21
175.29911828411093
  0
LINE
  8
_0-0_0
  6
CONTINUOUS
 62
    4
 10
160.51767481122118
 20
175.29911828411093
 11
160.82720147788788
 21
175.37968361744432
  0
LINE
  8
_0-0_0
  6
CONTINUOUS
 62
    4
 10
160.82720147788788
 20
175.37968361744432
 11
161.12150814455449
 21
175.47343028411091
  0
LINE
  8
_0-0_0
  6
CONTINUOUS
 62
    4
 10
161.12150814455449
 20
175.47343028411091
 11
161.39835214455459
 21
175.57964495077763
  0
LINE
  8
_0-0_0
  6
CONTINUOUS
 62
    4
 10
161.39835214455459
 20
175.57964495077763
 11
161.65562947788788
 21
175.69752095077762
  0
LINE
  8
_0-0_0
  6
CONTINUOUS
 62
    4
 10
161.65562947788788
 20
175.69752095077762
 11
161.8913801445546
 21
175.82615828411093
  0
LINE
  8
_0-0_0
  6
CONTINUOUS
 62
    4
 10
161.8913801445546
 20
175.82615828411093
 11
162.10380947788789
 21
175.96458095077773
  0
LINE
  8
_0-0_0
  6
CONTINUOUS
 62
    4
 10
162.10380947788789
 20
175.96458095077773
 11
162.29130281122118
 21
176.11173428411103
  0
LINE
  8
_0-0_0
  6
CONTINUOUS
 62
    4
 10
162.29130281122118
 20
176.11173428411103
 11
162.45243347788789
 21
176.26649695077773
  0
LINE
  8
_0-0_0
  6
CONTINUOUS
 62
    4
 10
162.45243347788789
 20
176.26649695077773
 11
162.5859721445546
 21
176.42769428411102
  0
LINE
  8
_0-0_0
  6
CONTINUOUS
 62
    4
 10
162.5859721445546
 20
176.42769428411102
 11
162.69090547788789
 21
176.59409561744431
  0
LINE
  8
_0-0_0
  6
CONTINUOUS
 62
    4
 10
162.69090547788789
 20
176.59409561744431
 11
162.72468147788788
 21
176.66183161744433
  0
LINE
  8
_0-4_0-10
  6
CONTINUOUS
 62
    4
 10
162.72468147788788
 20
177.09484495077762
 11
164.08675881122118
 21
180.04474628411102
  0
LINE
  8
_0-4_0-10
  6
CONTINUOUS
 62
    4
 10
162.72468147788788
 20
176.66183161744433
 11
164.08675881122118
 21
179.61173428411103
  0
LINE
  8
_0-4_0-10
  6
CONTINUOUS
 62
    4
 10
164.08675881122118
 20
180.04474628411102
 11
164.08675881122118
 21
179.61173428411103
  0
LINE
  8
_0-0_0
  6
CONTINUOUS
 62
    4
 10
158.82720147788788
 20
175.54474628411091
 11
159.17582547788788
 21
175.55235695077763
  0
LINE
  8
_0-0_0
  6
CONTINUOUS
 62
    4
 10
159.17582547788788
 20
175.55235695077763
 11
159.52179481122129
 21
175.57513161744432
  0
LINE
  8
_0-0_0
  6
CONTINUOUS
 62
    4
 10
159.52179481122129
 20
175.57513161744432
 11
159.86247747788789
 21
175.61289561744433
  0
LINE
  8
_0-0_0
  6
CONTINUOUS
 62
    4
 10
159.86247747788789
 20
175.61289561744433
 11
160.1952828112212
 21
175.66536095077762
  0
LINE
  8
_0-0_0
  6
CONTINUOUS
 62
    4
 10
160.1952828112212
 20
175.66536095077762
 11
160.51767481122118
 21
175.7321316174443
  0
LINE
  8
_0-0_0
  6
CONTINUOUS
 62
    4
 10
160.51767481122118
 20
175.7321316174443
 11
160.82720147788788
 21
175.81269561744431
  0
LINE
  8
_0-0_0
  6
CONTINUOUS
 62
    4
 10
160.82720147788788
 20
175.81269561744431
 11
161.12150814455449
 21
175.9064422841109
  0
LINE
  8
_0-0_0
  6
CONTINUOUS
 62
    4
 10
161.12150814455449
 20
175.9064422841109
 11
161.39835214455459
 21
176.01265828411101
  0
LINE
  8
_0-0_0
  6
CONTINUOUS
 62
    4
 10
161.39835214455459
 20
176.01265828411101
 11
161.65562947788788
 21
176.13053295077762
  0
LINE
  8
_0-0_0
  6
CONTINUOUS
 62
    4
 10
161.65562947788788
 20
176.13053295077762
 11
161.8913801445546
 21
176.2591716174443
  0
LINE
  8
_0-0_0
  6
CONTINUOUS
 62
    4
 10
161.8913801445546
 20
176.2591716174443
 11
162.10380947788789
 21
176.39759428411093
  0
LINE
  8
_0-0_0
  6
CONTINUOUS
 62
    4
 10
162.10380947788789
 20
176.39759428411093
 11
162.29130281122118
 21
176.54474628411091
  0
LINE
  8
_0-0_0
  6
CONTINUOUS
 62
    4
 10
162.29130281122118
 20
176.54474628411091
 11
162.45243347788789
 21
176.69951028411091
  0
LINE
  8
_0-0_0
  6
CONTINUOUS
 62
    4
 10
162.45243347788789
 20
176.69951028411091
 11
162.5859721445546
 21
176.86070628411101
  0
LINE
  8
_0-0_0
  6
CONTINUOUS
 62
    4
 10
162.5859721445546
 20
176.86070628411101
 11
162.69090547788789
 21
177.02710895077763
  0
LINE
  8
_0-0_0
  6
CONTINUOUS
 62
    4
 10
162.69090547788789
 20
177.02710895077763
 11
162.72468147788788
 21
177.09484495077762
  0
LINE
  8
_0-4_0-10
  6
CONTINUOUS
 62
    4
 10
159.55555481122118
 20
180.00799028411103
 11
159.5867588112213
 21
180.04474628411102
  0
LINE
  8
_0-0_0
  6
CONTINUOUS
 62
    4
 10
158.91120147788788
 20
179.79474628411091
 11
158.9722108112212
 21
179.79607828411101
  0
LINE
  8
_0-0_0
  6
CONTINUOUS
 62
    4
 10
158.9722108112212
 20
179.79607828411101
 11
159.03275614455458
 21
179.80006361744432
  0
LINE
  8
_0-0_0
  6
CONTINUOUS
 62
    4
 10
159.03275614455458
 20
179.80006361744432
 11
159.0923748112213
 21
179.80667295077762
  0
LINE
  8
_0-0_0
  6
CONTINUOUS
 62
    4
 10
159.0923748112213
 20
179.80667295077762
 11
159.1506161445545
 21
179.81585428411102
  0
LINE
  8
_0-0_0
  6
CONTINUOUS
 62
    4
 10
159.1506161445545
 20
179.81585428411102
 11
159.2070348112212
 21
179.82753961744421
  0
LINE
  8
_0-0_0
  6
CONTINUOUS
 62
    4
 10
159.2070348112212
 20
179.82753961744421
 11
159.26120147788788
 21
179.84163828411101
  0
LINE
  8
_0-0_0
  6
CONTINUOUS
 62
    4
 10
159.26120147788788
 20
179.84163828411101
 11
159.3127054778879
 21
179.8580436174443
  0
LINE
  8
_0-0_0
  6
CONTINUOUS
 62
    4
 10
159.3127054778879
 20
179.8580436174443
 11
159.36115347788788
 21
179.87663161744433
  0
LINE
  8
_0-0_0
  6
CONTINUOUS
 62
    4
 10
159.36115347788788
 20
179.87663161744433
 11
159.40617614455447
 21
179.89725961744431
  0
LINE
  8
_0-0_0
  6
CONTINUOUS
 62
    4
 10
159.40617614455447
 20
179.89725961744431
 11
159.44743347788789
 21
179.91977161744432
  0
LINE
  8
_0-0_0
  6
CONTINUOUS
 62
    4
 10
159.44743347788789
 20
179.91977161744432
 11
159.48460814455458
 21
179.94399428411091
  0
LINE
  8
_0-0_0
  6
CONTINUOUS
 62
    4
 10
159.48460814455458
 20
179.94399428411091
 11
159.51742014455459
 21
179.96974628411101
  0
LINE
  8
_0-0_0
  6
CONTINUOUS
 62
    4
 10
159.51742014455459
 20
179.96974628411101
 11
159.5456174778879
 21
179.99683028411101
  0
LINE
  8
_0-0_0
  6
CONTINUOUS
 62
    4
 10
159.5456174778879
 20
179.99683028411101
 11
159.55555481122118
 21
180.00799028411103
  0
LINE
  8
_0-0_0
  6
CONTINUOUS
 62
    4
 10
159.14165081122118
 20
163.11173428411103
 11
159.5774294778879
 21
163.12124761744431
  0
LINE
  8
_0-0_0
  6
CONTINUOUS
 62
    4
 10
159.5774294778879
 20
163.12124761744431
 11
160.00989214455458
 21
163.14971428411092
  0
LINE
  8
_0-0_0
  6
CONTINUOUS
 62
    4
 10
160.00989214455458
 20
163.14971428411092
 11
160.43574681122117
 21
163.19691961744433
  0
LINE
  8
_0-0_0
  6
CONTINUOUS
 62
    4
 10
160.43574681122117
 20
163.19691961744433
 11
160.85175214455449
 21
163.26250228411103
  0
LINE
  8
_0-0_0
  6
CONTINUOUS
 62
    4
 10
160.85175214455449
 20
163.26250228411103
 11
161.2547428112212
 21
163.34596495077761
  0
LINE
  8
_0-0_0
  6
CONTINUOUS
 62
    4
 10
161.2547428112212
 20
163.34596495077761
 11
161.64165081122118
 21
163.44667028411092
  0
LINE
  8
_0-0_0
  6
CONTINUOUS
 62
    4
 10
161.64165081122118
 20
163.44667028411092
 11
162.00953347788788
 21
163.56385428411101
  0
LINE
  8
_0-0_0
  6
CONTINUOUS
 62
    4
 10
162.00953347788788
 20
163.56385428411101
 11
162.35558947788788
 21
163.69662228411101
  0
LINE
  8
_0-0_0
  6
CONTINUOUS
 62
    4
 10
162.35558947788788
 20
163.69662228411101
 11
162.67718547788788
 21
163.84396761744432
  0
LINE
  8
_0-0_0
  6
CONTINUOUS
 62
    4
 10
162.67718547788788
 20
163.84396761744432
 11
162.97187347788789
 21
164.00476495077762
  0
LINE
  8
_0-0_0
  6
CONTINUOUS
 62
    4
 10
162.97187347788789
 20
164.00476495077762
 11
163.23741081122119
 21
164.17779295077772
  0
LINE
  8
_0-0_0
  6
CONTINUOUS
 62
    4
 10
163.23741081122119
 20
164.17779295077772
 11
163.47177747788788
 21
164.36173428411103
  0
LINE
  8
_0-0_0
  6
CONTINUOUS
 62
    4
 10
163.47177747788788
 20
164.36173428411103
 11
163.67318947788788
 21
164.55518895077761
  0
LINE
  8
_0-0_0
  6
CONTINUOUS
 62
    4
 10
163.67318947788788
 20
164.55518895077761
 11
163.74417481122119
 21
164.63490628411091
  0
LINE
  8
_0-4_0-10
  6
CONTINUOUS
 62
    4
 10
163.74417481122128
 20
165.06791828411093
 11
166.27135214455458
 21
168.04474628411091
  0
LINE
  8
_0-4_0-10
  6
CONTINUOUS
 62
    4
 10
163.74417481122128
 20
164.63490628411091
 11
166.27135214455458
 21
167.61173428411103
  0
LINE
  8
_0-4_0-10
  6
CONTINUOUS
 62
    4
 10
166.27135214455458
 20
168.04474628411091
 11
166.27135214455458
 21
167.61173428411103
  0
LINE
  8
_0-0_0
  6
CONTINUOUS
 62
    4
 10
159.14165081122118
 20
163.54474628411102
 11
159.5774294778879
 21
163.55425961744433
  0
LINE
  8
_0-0_0
  6
CONTINUOUS
 62
    4
 10
159.5774294778879
 20
163.55425961744433
 11
160.00989214455458
 21
163.58272761744433
  0
LINE
  8
_0-0_0
  6
CONTINUOUS
 62
    4
 10
160.00989214455458
 20
163.58272761744433
 11
160.43574681122117
 21
163.62993161744432
  0
LINE
  8
_0-0_0
  6
CONTINUOUS
 62
    4
 10
160.43574681122117
 20
163.62993161744432
 11
160.85175214455449
 21
163.69551561744421
  0
LINE
  8
_0-0_0
  6
CONTINUOUS
 62
    4
 10
160.85175214455449
 20
163.69551561744421
 11
161.2547428112212
 21
163.77897695077763
  0
LINE
  8
_0-0_0
  6
CONTINUOUS
 62
    4
 10
161.2547428112212
 20
163.77897695077763
 11
161.64165081122118
 21
163.87968361744432
  0
LINE
  8
_0-0_0
  6
CONTINUOUS
 62
    4
 10
161.64165081122118
 20
163.87968361744432
 11
162.00953347788788
 21
163.99686628411103
  0
LINE
  8
_0-0_0
  6
CONTINUOUS
 62
    4
 10
162.00953347788788
 20
163.99686628411103
 11
162.35558947788788
 21
164.12963561744422
  0
LINE
  8
_0-0_0
  6
CONTINUOUS
 62
    4
 10
162.35558947788788
 20
164.12963561744422
 11
162.67718547788788
 21
164.27697961744431
  0
LINE
  8
_0-0_0
  6
CONTINUOUS
 62
    4
 10
162.67718547788788
 20
164.27697961744431
 11
162.97187347788789
 21
164.43777828411091
  0
LINE
  8
_0-0_0
  6
CONTINUOUS
 62
    4
 10
162.97187347788789
 20
164.43777828411091
 11
163.23741081122119
 21
164.61080495077763
  0
LINE
  8
_0-0_0
  6
CONTINUOUS
 62
    4
 10
163.23741081122119
 20
164.61080495077763
 11
163.47177747788788
 21
164.79474628411102
  0
LINE
  8
_0-0_0
  6
CONTINUOUS
 62
    4
 10
163.47177747788788
 20
164.79474628411102
 11
163.67318947788788
 21
164.98820095077761
  0
LINE
  8
_0-0_0
  6
CONTINUOUS
 62
    4
 10
163.67318947788788
 20
164.98820095077761
 11
163.74417481122119
 21
165.06791828411093
  0
LINE
  8
_0-4_0-10
  6
CONTINUOUS
 62
    4
 10
161.65153881122128
 20
167.9733529507776
 11
161.77135214455458
 21
168.04474628411091
  0
LINE
  8
_0-0_0
  6
CONTINUOUS
 62
    4
 10
160.88549481122129
 20
167.79474628411102
 11
160.9726508112212
 21
167.79664895077763
  0
LINE
  8
_0-0_0
  6
CONTINUOUS
 62
    4
 10
160.9726508112212
 20
167.79664895077763
 11
161.05914281122119
 21
167.80234228411103
  0
LINE
  8
_0-0_0
  6
CONTINUOUS
 62
    4
 10
161.05914281122119
 20
167.80234228411103
 11
161.14431347788789
 21
167.81178361744431
  0
LINE
  8
_0-0_0
  6
CONTINUOUS
 62
    4
 10
161.14431347788789
 20
167.81178361744431
 11
161.22751481122119
 21
167.82490095077773
  0
LINE
  8
_0-0_0
  6
CONTINUOUS
 62
    4
 10
161.22751481122119
 20
167.82490095077773
 11
161.3081134778879
 21
167.84159295077762
  0
LINE
  8
_0-0_0
  6
CONTINUOUS
 62
    4
 10
161.3081134778879
 20
167.84159295077762
 11
161.38549481122129
 21
167.86173428411103
  0
LINE
  8
_0-0_0
  6
CONTINUOUS
 62
    4
 10
161.38549481122129
 20
167.86173428411103
 11
161.45907081122129
 21
167.88517028411092
  0
LINE
  8
_0-0_0
  6
CONTINUOUS
 62
    4
 10
161.45907081122129
 20
167.88517028411092
 11
161.5282828112212
 21
167.91172495077762
  0
LINE
  8
_0-0_0
  6
CONTINUOUS
 62
    4
 10
161.5282828112212
 20
167.91172495077762
 11
161.59260147788788
 21
167.94119295077763
  0
LINE
  8
_0-0_0
  6
CONTINUOUS
 62
    4
 10
161.59260147788788
 20
167.94119295077763
 11
161.6515388112212
 21
167.9733529507776
  0
LINE
  8
_0-0_0
  6
CONTINUOUS
 62
    4
 10
156.32520681122119
 20
151.11173428411103
 11
156.9352974778879
 21
151.12505295077761
  0
LINE
  8
_0-0_0
  6
CONTINUOUS
 62
    4
 10
156.9352974778879
 20
151.12505295077761
 11
157.54074414455448
 21
151.16490628411091
  0
LINE
  8
_0-0_0
  6
CONTINUOUS
 62
    4
 10
157.54074414455448
 20
151.16490628411091
 11
158.13694014455458
 21
151.23099295077761
  0
LINE
  8
_0-0_0
  6
CONTINUOUS
 62
    4
 10
158.13694014455458
 20
151.23099295077761
 11
158.7193481445546
 21
151.32281028411091
  0
LINE
  8
_0-0_0
  6
CONTINUOUS
 62
    4
 10
158.7193481445546
 20
151.32281028411091
 11
159.28353481122118
 21
151.43965695077761
  0
LINE
  8
_0-0_0
  6
CONTINUOUS
 62
    4
 10
159.28353481122118
 20
151.43965695077761
 11
159.82520681122119
 21
151.58064495077761
  0
LINE
  8
_0-0_0
  6
CONTINUOUS
 62
    4
 10
159.82520681122119
 20
151.58064495077761
 11
160.3402414778879
 21
151.74470228411092
  0
LINE
  8
_0-0_0
  6
CONTINUOUS
 62
    4
 10
160.3402414778879
 20
151.74470228411092
 11
160.8247201445545
 21
151.93057828411093
  0
LINE
  8
_0-0_0
  6
CONTINUOUS
 62
    4
 10
160.8247201445545
 20
151.93057828411093
 11
161.27495481122119
 21
152.13685961744431
  0
LINE
  8
_0-0_0
  6
CONTINUOUS
 62
    4
 10
161.27495481122119
 20
152.13685961744431
 11
161.68751747788789
 21
152.36197695077763
  0
LINE
  8
_0-0_0
  6
CONTINUOUS
 62
    4
 10
161.68751747788789
 20
152.36197695077763
 11
162.05927081122118
 21
152.60421695077761
  0
LINE
  8
_0-0_0
  6
CONTINUOUS
 62
    4
 10
162.05927081122118
 20
152.60421695077761
 11
162.26154414455459
 21
152.75701695077762
  0
LINE
  8
_0-4_0-10
  6
CONTINUOUS
 62
    4
 10
162.26154414455459
 20
153.19002895077761
 11
165.82919481122129
 21
156.04474628411102
  0
LINE
  8
_0-4_0-10
  6
CONTINUOUS
 62
    4
 10
162.26154414455459
 20
152.75701695077762
 11
165.82919481122129
 21
155.61173428411103
  0
LINE
  8
_0-4_0-10
  6
CONTINUOUS
 62
    4
 10
165.82919481122129
 20
156.04474628411102
 11
165.82919481122129
 21
155.61173428411103
  0
LINE
  8
_0-0_0
  6
CONTINUOUS
 62
    4
 10
156.32520681122119
 20
151.54474628411091
 11
156.9352974778879
 21
151.55806495077763
  0
LINE
  8
_0-0_0
  6
CONTINUOUS
 62
    4
 10
156.9352974778879
 20
151.55806495077763
 11
157.54074414455448
 21
151.59791961744431
  0
LINE
  8
_0-0_0
  6
CONTINUOUS
 62
    4
 10
157.54074414455448
 20
151.59791961744431
 11
158.13694014455458
 21
151.66400628411091
  0
LINE
  8
_0-0_0
  6
CONTINUOUS
 62
    4
 10
158.13694014455458
 20
151.66400628411091
 11
158.7193481445546
 21
151.75582228411093
  0
LINE
  8
_0-0_0
  6
CONTINUOUS
 62
    4
 10
158.7193481445546
 20
151.75582228411093
 11
159.28353481122118
 21
151.87266895077763
  0
LINE
  8
_0-0_0
  6
CONTINUOUS
 62
    4
 10
159.28353481122118
 20
151.87266895077763
 11
159.82520681122119
 21
152.01365828411093
  0
LINE
  8
_0-0_0
  6
CONTINUOUS
 62
    4
 10
159.82520681122119
 20
152.01365828411093
 11
160.3402414778879
 21
152.17771428411103
  0
LINE
  8
_0-0_0
  6
CONTINUOUS
 62
    4
 10
160.3402414778879
 20
152.17771428411103
 11
160.8247201445545
 21
152.36359161744431
  0
LINE
  8
_0-0_0
  6
CONTINUOUS
 62
    4
 10
160.8247201445545
 20
152.36359161744431
 11
161.27495481122119
 21
152.56987295077763
  0
LINE
  8
_0-0_0
  6
CONTINUOUS
 62
    4
 10
161.27495481122119
 20
152.56987295077763
 11
161.68751747788789
 21
152.79499028411103
  0
LINE
  8
_0-0_0
  6
CONTINUOUS
 62
    4
 10
161.68751747788789
 20
152.79499028411103
 11
162.05927081122118
 21
153.03722895077763
  0
LINE
  8
_0-0_0
  6
CONTINUOUS
 62
    4
 10
162.05927081122118
 20
153.03722895077763
 11
162.26154414455459
 21
153.19002895077761
  0
LINE
  8
_0-4_0-10
  6
CONTINUOUS
 62
    4
 10
161.06789881122119
 20
155.93511961744431
 11
161.32919481122118
 21
156.04474628411102
  0
LINE
  8
_0-0_0
  6
CONTINUOUS
 62
    4
 10
160.29655347788789
 20
155.79474628411091
 11
160.40114014455448
 21
155.79703028411103
  0
LINE
  8
_0-0_0
  6
CONTINUOUS
 62
    4
 10
160.40114014455448
 20
155.79703028411103
 11
160.50493081122118
 21
155.80386228411103
  0
LINE
  8
_0-0_0
  6
CONTINUOUS
 62
    4
 10
160.50493081122118
 20
155.80386228411103
 11
160.6071361445546
 21
155.81519161744432
  0
LINE
  8
_0-0_0
  6
CONTINUOUS
 62
    4
 10
160.6071361445546
 20
155.81519161744432
 11
160.7069774778879
 21
155.83093161744432
  0
LINE
  8
_0-0_0
  6
CONTINUOUS
 62
    4
 10
160.7069774778879
 20
155.83093161744432
 11
160.80369481122119
 21
155.85096228411103
  0
LINE
  8
_0-0_0
  6
CONTINUOUS
 62
    4
 10
160.80369481122119
 20
155.85096228411103
 11
160.89655347788789
 21
155.87513161744431
  0
LINE
  8
_0-0_0
  6
CONTINUOUS
 62
    4
 10
160.89655347788789
 20
155.87513161744431
 11
160.98484547788788
 21
155.90325561744433
  0
LINE
  8
_0-0_0
  6
CONTINUOUS
 62
    4
 10
160.98484547788788
 20
155.90325561744433
 11
161.06789881122128
 21
155.93511961744431
  0
LINE
  8
_0-0_0
  6
CONTINUOUS
 62
    4
 10
149.53853081122119
 20
139.11173428411103
 11
150.41008814455457
 21
139.13076095077761
  0
LINE
  8
_0-0_0
  6
CONTINUOUS
 62
    4
 10
150.41008814455457
 20
139.13076095077761
 11
151.27501347788788
 21
139.18769561744431
  0
LINE
  8
_0-0_0
  6
CONTINUOUS
 62
    4
 10
151.27501347788788
 20
139.18769561744431
 11
152.12672147788788
 21
139.28210495077763
  0
LINE
  8
_0-0_0
  6
CONTINUOUS
 62
    4
 10
152.12672147788788
 20
139.28210495077763
 11
152.9587321445546
 21
139.41327028411092
  0
LINE
  8
_0-0_0
  6
CONTINUOUS
 62
    4
 10
152.9587321445546
 20
139.41327028411092
 11
153.76471347788788
 21
139.58019561744433
  0
LINE
  8
_0-0_0
  6
CONTINUOUS
 62
    4
 10
153.76471347788788
 20
139.58019561744433
 11
154.53853081122119
 21
139.78160761744422
  0
LINE
  8
_0-0_0
  6
CONTINUOUS
 62
    4
 10
154.53853081122119
 20
139.78160761744422
 11
155.27429614455459
 21
140.01597428411102
  0
LINE
  8
_0-0_0
  6
CONTINUOUS
 62
    4
 10
155.27429614455459
 20
140.01597428411102
 11
155.9664068112213
 21
140.28151161744432
  0
LINE
  8
_0-0_0
  6
CONTINUOUS
 62
    4
 10
155.9664068112213
 20
140.28151161744432
 11
156.6095988112213
 21
140.57619961744433
  0
LINE
  8
_0-0_0
  6
CONTINUOUS
 62
    4
 10
156.6095988112213
 20
140.57619961744433
 11
156.73192947788788
 21
140.63844228411102
  0
LINE
  8
_0-4_0-10
  6
CONTINUOUS
 62
    4
 10
156.73192947788788
 20
141.07145428411092
 11
162.4744788112213
 21
144.04474628411091
  0
LINE
  8
_0-4_0-10
  6
CONTINUOUS
 62
    4
 10
156.73192947788788
 20
140.63844228411102
 11
162.4744788112213
 21
143.61173428411103
  0
LINE
  8
_0-4_0-10
  6
CONTINUOUS
 62
    4
 10
162.4744788112213
 20
144.04474628411091
 11
162.4744788112213
 21
143.61173428411103
  0
LINE
  8
_0-0_0
  6
CONTINUOUS
 62
    4
 10
149.53853081122119
 20
139.54474628411102
 11
150.41008814455457
 21
139.56377295077763
  0
LINE
  8
_0-0_0
  6
CONTINUOUS
 62
    4
 10
150.41008814455457
 20
139.56377295077763
 11
151.27501347788788
 21
139.62070761744431
  0
LINE
  8
_0-0_0
  6
CONTINUOUS
 62
    4
 10
151.27501347788788
 20
139.62070761744431
 11
152.12672147788788
 21
139.71511695077762
  0
LINE
  8
_0-0_0
  6
CONTINUOUS
 62
    4
 10
152.12672147788788
 20
139.71511695077762
 11
152.9587321445546
 21
139.84628361744432
  0
LINE
  8
_0-0_0
  6
CONTINUOUS
 62
    4
 10
152.9587321445546
 20
139.84628361744432
 11
153.76471347788788
 21
140.01320761744432
  0
LINE
  8
_0-0_0
  6
CONTINUOUS
 62
    4
 10
153.76471347788788
 20
140.01320761744432
 11
154.53853081122119
 21
140.21461961744432
  0
LINE
  8
_0-0_0
  6
CONTINUOUS
 62
    4
 10
154.53853081122119
 20
140.21461961744432
 11
155.27429614455459
 21
140.44898628411101
  0
LINE
  8
_0-0_0
  6
CONTINUOUS
 62
    4
 10
155.27429614455459
 20
140.44898628411101
 11
155.9664068112213
 21
140.71452495077761
  0
LINE
  8
_0-0_0
  6
CONTINUOUS
 62
    4
 10
155.9664068112213
 20
140.71452495077761
 11
156.6095988112213
 21
141.00921295077762
  0
LINE
  8
_0-0_0
  6
CONTINUOUS
 62
    4
 10
156.6095988112213
 20
141.00921295077762
 11
156.73192947788788
 21
141.07145428411092
  0
LINE
  8
_0-4_0-10
  6
CONTINUOUS
 62
    4
 10
157.6478201445546
 20
143.93038228411091
 11
157.9744788112213
 21
144.04474628411091
  0
LINE
  8
_0-0_0
  6
CONTINUOUS
 62
    4
 10
156.78745614455459
 20
143.79474628411102
 11
156.91818947788789
 21
143.79760095077762
  0
LINE
  8
_0-0_0
  6
CONTINUOUS
 62
    4
 10
156.91818947788789
 20
143.79760095077762
 11
157.0479281445545
 21
143.80614095077763
  0
LINE
  8
_0-0_0
  6
CONTINUOUS
 62
    4
 10
157.0479281445545
 20
143.80614095077763
 11
157.17568414455459
 21
143.82030228411093
  0
LINE
  8
_0-0_0
  6
CONTINUOUS
 62
    4
 10
157.17568414455459
 20
143.82030228411093
 11
157.30048681122119
 21
143.83997695077761
  0
LINE
  8
_0-0_0
  6
CONTINUOUS
 62
    4
 10
157.30048681122119
 20
143.83997695077761
 11
157.42138414455459
 21
143.86501561744432
  0
LINE
  8
_0-0_0
  6
CONTINUOUS
 62
    4
 10
157.42138414455459
 20
143.86501561744432
 11
157.53745614455459
 21
143.89522761744433
  0
LINE
  8
_0-0_0
  6
CONTINUOUS
 62
    4
 10
157.53745614455459
 20
143.89522761744433
 11
157.6478201445546
 21
143.93038228411091
  0
LINE
  8
_0-0_0
  6
CONTINUOUS
 62
    4
 10
134.57072681122119
 20
127.11173428411102
 11
136.74962014455459
 21
127.15929961744431
  0
LINE
  8
_0-0_0
  6
CONTINUOUS
 62
    4
 10
136.74962014455459
 20
127.15929961744431
 11
138.91193214455458
 21
127.30163695077762
  0
LINE
  8
_0-0_0
  6
CONTINUOUS
 62
    4
 10
138.91193214455458
 20
127.30163695077762
 11
141.04120281122118
 21
127.53766095077772
  0
LINE
  8
_0-0_0
  6
CONTINUOUS
 62
    4
 10
141.04120281122118
 20
127.53766095077772
 11
143.12123081122118
 21
127.86557561744432
  0
LINE
  8
_0-0_0
  6
CONTINUOUS
 62
    4
 10
143.12123081122118
 20
127.86557561744432
 11
145.13618414455459
 21
128.28288628411092
  0
LINE
  8
_0-0_0
  6
CONTINUOUS
 62
    4
 10
145.13618414455459
 20
128.28288628411092
 11
147.07072681122119
 21
128.78641695077763
  0
LINE
  8
_0-0_0
  6
CONTINUOUS
 62
    4
 10
147.07072681122119
 20
128.78641695077763
 11
148.55054947788789
 21
129.24876495077762
  0
LINE
  8
_0-4_0-10
  6
CONTINUOUS
 62
    4
 10
148.55054947788789
 20
129.68177695077761
 11
155.55704281122118
 21
132.04474628411102
  0
LINE
  8
_0-4_0-10
  6
CONTINUOUS
 62
    4
 10
148.55054947788789
 20
129.24876495077762
 11
155.55704281122118
 21
131.61173428411092
  0
LINE
  8
_0-4_0-10
  6
CONTINUOUS
 62
    4
 10
155.55704281122118
 20
132.04474628411102
 11
155.55704281122118
 21
131.61173428411092
  0
LINE
  8
_0-0_0
  6
CONTINUOUS
 62
    4
 10
134.57072681122119
 20
127.54474628411102
 11
136.74962014455459
 21
127.59231295077762
  0
LINE
  8
_0-0_0
  6
CONTINUOUS
 62
    4
 10
136.74962014455459
 20
127.59231295077762
 11
138.91193214455458
 21
127.73465028411102
  0
LINE
  8
_0-0_0
  6
CONTINUOUS
 62
    4
 10
138.91193214455458
 20
127.73465028411102
 11
141.04120281122118
 21
127.97067428411102
  0
LINE
  8
_0-0_0
  6
CONTINUOUS
 62
    4
 10
141.04120281122118
 20
127.97067428411102
 11
143.12123081122118
 21
128.29858895077762
  0
LINE
  8
_0-0_0
  6
CONTINUOUS
 62
    4
 10
143.12123081122118
 20
128.29858895077762
 11
145.13618414455459
 21
128.71589961744433
  0
LINE
  8
_0-0_0
  6
CONTINUOUS
 62
    4
 10
145.13618414455459
 20
128.71589961744433
 11
147.07072681122119
 21
129.21942895077762
  0
LINE
  8
_0-0_0
  6
CONTINUOUS
 62
    4
 10
147.07072681122119
 20
129.21942895077762
 11
148.55054947788789
 21
129.68177695077761
  0
LINE
  8
_0-4_0-10
  6
CONTINUOUS
 62
    4
 10
150.69458814455458
 20
131.93150361744432
 11
151.05704281122129
 21
132.04474628411102
  0
ARC
  8
_0-4_0-10
  6
CONTINUOUS
 62
    4
 10
113.67497347788788
 20
164.04474628411091
 40
53
 50
303.88187499999997
 51
304.43955699999997
  0
LINE
  8
_0-0_0
  6
CONTINUOUS
 62
    4
 10
149.74073347788788
 20
131.79474628411091
 11
149.89761481122118
 21
131.79817161744432
  0
LINE
  8
_0-0_0
  6
CONTINUOUS
 62
    4
 10
149.89761481122118
 20
131.79817161744432
 11
150.05330014455458
 21
131.80841961744431
  0
LINE
  8
_0-0_0
  6
CONTINUOUS
 62
    4
 10
150.05330014455458
 20
131.80841961744431
 11
150.20660814455447
 21
131.82541295077763
  0
LINE
  8
_0-0_0
  6
CONTINUOUS
 62
    4
 10
150.20660814455447
 20
131.82541295077763
 11
150.35637081122118
 21
131.84902361744431
  0
LINE
  8
_0-0_0
  6
CONTINUOUS
 62
    4
 10
150.35637081122118
 20
131.84902361744431
 11
150.5014468112212
 21
131.87907028411103
  0
LINE
  8
_0-0_0
  6
CONTINUOUS
 62
    4
 10
150.5014468112212
 20
131.87907028411103
 11
150.64073347788789
 21
131.91532361744432
  0
LINE
  8
_0-0_0
  6
CONTINUOUS
 62
    4
 10
150.64073347788789
 20
131.91532361744432
 11
150.6945881445545
 21
131.93150361744432
  0
LINE
  8
_0-0_0
  6
CONTINUOUS
 62
    4
 10
113.67497347788788
 20
115.54474628411102
 11
118.29422681122119
 21
115.64558761744432
  0
LINE
  8
_0-0_0
  6
CONTINUOUS
 62
    4
 10
118.29422681122119
 20
115.64558761744432
 11
122.87832681122118
 21
115.94734095077762
  0
LINE
  8
_0-0_0
  6
CONTINUOUS
 62
    4
 10
122.87832681122118
 20
115.94734095077762
 11
127.39238281122119
 21
116.44771295077762
  0
LINE
  8
_0-0_0
  6
CONTINUOUS
 62
    4
 10
127.39238281122119
 20
116.44771295077762
 11
131.80204014455458
 21
117.14289161744422
  0
LINE
  8
_0-0_0
  6
CONTINUOUS
 62
    4
 10
131.80204014455458
 20
117.14289161744422
 11
136.07374147788789
 21
118.02759028411102
  0
LINE
  8
_0-0_0
  6
CONTINUOUS
 62
    4
 10
136.07374147788789
 20
118.02759028411102
 11
140.1749734778879
 21
119.09507295077762
  0
LINE
  8
_0-0_0
  6
CONTINUOUS
 62
    4
 10
140.1749734778879
 20
119.09507295077762
 11
143.22154947788789
 21
120.04474761744432
  0
LINE
  8
_0-4_0-10
  6
CONTINUOUS
 62
    4
 10
143.2215454778879
 20
119.61173561744432
 11
143.2215454778879
 21
120.04474628411102
  0
LINE
  8
_0-0_0
  6
CONTINUOUS
 62
    4
 10
113.67497347788788
 20
115.11173428411102
 11
118.29422681122119
 21
115.21257428411102
  0
LINE
  8
_0-0_0
  6
CONTINUOUS
 62
    4
 10
118.29422681122119
 20
115.21257428411102
 11
122.87832681122118
 21
115.51432895077762
  0
LINE
  8
_0-0_0
  6
CONTINUOUS
 62
    4
 10
122.87832681122118
 20
115.51432895077762
 11
127.39238281122119
 21
116.01469961744432
  0
LINE
  8
_0-0_0
  6
CONTINUOUS
 62
    4
 10
127.39238281122119
 20
116.01469961744432
 11
131.80204014455458
 21
116.70987961744432
  0
LINE
  8
_0-0_0
  6
CONTINUOUS
 62
    4
 10
131.80204014455458
 20
116.70987961744432
 11
136.07374147788789
 21
117.59457828411102
  0
LINE
  8
_0-0_0
  6
CONTINUOUS
 62
    4
 10
136.07374147788789
 20
117.59457828411102
 11
140.1749734778879
 21
118.66206095077762
  0
LINE
  8
_0-0_0
  6
CONTINUOUS
 62
    4
 10
140.1749734778879
 20
118.66206095077762
 11
143.22154947788789
 21
119.61173561744432
  0
LINE
  8
_0-4_0-10
  6
CONTINUOUS
 62
    4
 10
138.11140014455457
 20
119.89595295077762
 11
138.7215468112212
 21
120.04474628411102
  0
LINE
  8
_0-4_0-10
  6
CONTINUOUS
 62
    4
 10
175.9249734778879
 20
235.54474628411102
 11
176.1749734778879
 21
235.54474628411102
  0
ARC
  8
_0-4_0-10
  6
CONTINUOUS
 62
    4
 10
113.67497347788788
 20
164.04474628411091
 40
60.799999999999997
 50
256.90237800000011
 51
53.933103000000137
  0
LINE
  8
_0-4_0-10
  6
CONTINUOUS
 62
    4
 10
96.729348144554592
 20
92.544746284110999
 11
176.1749734778879
 21
92.544746284110999
  0
LINE
  8
_0-4_0-10
  6
CONTINUOUS
 62
    3
 10
176.1749734778879
 20
236.04474628411102
 11
176.1749734778879
 21
86.044746284110999
  0
LINE
  8
_0-4_0-10
  6
CONTINUOUS
 62
    4
 10
185.6749734778879
 20
91.205000950777673
 11
191.6749734778879
 21
91.205000950777673
  0
LINE
  8
_0-4_0-10
  6
CONTINUOUS
 62
    4
 10
185.6749734778879
 20
88.79577161744433
 11
191.1749734778879
 21
88.79577161744433
  0
LINE
  8
_0-4_0-10
  6
CONTINUOUS
 62
    7
 10
101.91852239516349
 20
109.80420928458802
 11
101.41424281122128
 21
108.63738095077762
  0
LINE
  8
_0-4_0-10
  6
CONTINUOUS
 62
    7
 10
101.41424281122128
 20
108.63738095077762
 11
100.68526814455459
 21
106.87183961744432
  0
LINE
  8
_0-4_0-10
  6
CONTINUOUS
 62
    7
 10
100.68526814455459
 20
106.87183961744432
 11
99.994496144554588
 21
105.09648361744302
  0
LINE
  8
_0-4_0-10
  6
CONTINUOUS
 62
    7
 10
99.994496144554588
 20
105.09648361744302
 11
99.349564144554577
 21
103.30956895077761
  0
LINE
  8
_0-4_0-10
  6
CONTINUOUS
 62
    7
 10
99.349564144554577
 20
103.30956895077761
 11
98.758105477887937
 21
101.50934895077762
  0
LINE
  8
_0-4_0-10
  6
CONTINUOUS
 62
    7
 10
98.758105477887937
 20
101.50934895077762
 11
98.227754811221259
 21
99.694080950777674
  0
LINE
  8
_0-4_0-10
  6
CONTINUOUS
 62
    7
 10
98.227754811221259
 20
99.694080950777674
 11
98.058509477887895
 21
99.057395617444342
  0
LINE
  8
_0-4_0-10
  6
CONTINUOUS
 62
    7
 10
98.058509477887895
 20
99.057395617444342
 11
97.897221477887896
 21
98.418766284110986
  0
LINE
  8
_0-4_0-10
  6
CONTINUOUS
 62
    7
 10
97.897221477887896
 20
98.418766284110986
 11
97.743493477887952
 21
97.778290284110994
  0
LINE
  8
_0-4_0-10
  6
CONTINUOUS
 62
    7
 10
97.743493477887952
 20
97.778290284110994
 11
97.59692681122128
 21
97.136064950777679
  0
LINE
  8
_0-4_0-10
  6
CONTINUOUS
 62
    7
 10
97.59692681122128
 20
97.136064950777679
 11
97.457124144554597
 21
96.492187617444329
  0
LINE
  8
_0-4_0-10
  6
CONTINUOUS
 62
    7
 10
97.457124144554597
 20
96.492187617444329
 11
97.323686811221236
 21
95.84675561744433
  0
LINE
  8
_0-4_0-10
  6
CONTINUOUS
 62
    7
 10
97.323686811221236
 20
95.84675561744433
 11
97.196217477887941
 21
95.199864950777637
  0
LINE
  8
_0-4_0-10
  6
CONTINUOUS
 62
    7
 10
97.196217477887941
 20
95.199864950777637
 11
97.074318811221246
 21
94.551612950777666
  0
LINE
  8
_0-4_0-10
  6
CONTINUOUS
 62
    7
 10
97.074318811221246
 20
94.551612950777666
 11
96.957592144554595
 21
93.902098284110991
  0
LINE
  8
_0-4_0-10
  6
CONTINUOUS
 62
    7
 10
96.957592144554595
 20
93.902098284110991
 11
96.845640144554607
 21
93.251416950777667
  0
LINE
  8
_0-4_0-10
  6
CONTINUOUS
 62
    7
 10
96.845640144554607
 20
93.251416950777667
 11
96.738064144554599
 21
92.59966761744431
  0
LINE
  8
_0-4_0-10
  6
CONTINUOUS
 62
    7
 10
96.738064144554599
 20
92.59966761744431
 11
96.634466811221258
 21
91.946944950777677
  0
LINE
  8
_0-4_0-10
  6
CONTINUOUS
 62
    7
 10
96.634466811221258
 20
91.946944950777677
 11
96.534450811221248
 21
91.293348950777669
  0
LINE
  8
_0-4_0-10
  6
CONTINUOUS
 62
    7
 10
96.534450811221248
 20
91.293348950777669
 11
96.437617477887926
 21
90.638974284110986
  0
LINE
  8
_0-4_0-10
  6
CONTINUOUS
 62
    7
 10
96.437617477887926
 20
90.638974284110986
 11
96.343569477887925
 21
89.983919617444314
  0
LINE
  8
_0-4_0-10
  6
CONTINUOUS
 62
    7
 10
96.343569477887925
 20
89.983919617444314
 11
96.251908144554576
 21
89.328280950777667
  0
LINE
  8
_0-4_0-10
  6
CONTINUOUS
 62
    7
 10
96.251908144554576
 20
89.328280950777667
 11
96.162236144554597
 21
88.672158284110992
  0
LINE
  8
_0-4_0-10
  6
CONTINUOUS
 62
    7
 10
96.162236144554597
 20
88.672158284110992
 11
96.074156144554606
 21
88.015644950777641
  0
LINE
  8
_0-4_0-10
  6
CONTINUOUS
 62
    7
 10
96.074156144554606
 20
88.015644950777641
 11
95.98726947788792
 21
87.358840950777675
  0
LINE
  8
_0-4_0-10
  6
CONTINUOUS
 62
    7
 10
95.98726947788792
 20
87.358840950777675
 11
95.901178811221257
 21
86.701842284111009
  0
LINE
  8
_0-4_0-10
  6
CONTINUOUS
 62
    7
 10
95.901178811221257
 20
86.701842284111009
 11
95.815485477887918
 21
86.044746284110999
  0
LINE
  8
_0-4_0-10
  6
CONTINUOUS
 62
    7
 10
104.50221885792538
 20
115.51231428103533
 11
103.75403881122119
 21
113.89255695077761
  0
LINE
  8
_0-4_0-10
  6
CONTINUOUS
 62
    7
 10
103.75403881122119
 20
113.89255695077761
 11
102.95626281122119
 21
112.14599428411092
  0
LINE
  8
_0-4_0-10
  6
CONTINUOUS
 62
    7
 10
102.95626281122119
 20
112.14599428411092
 11
102.17378547788788
 21
110.39485028411093
  0
LINE
  8
_0-4_0-10
  6
CONTINUOUS
 62
    7
 10
102.17378547788788
 20
110.39485028411093
 11
101.91852239516349
 21
109.80420928458802
  0
LINE
  8
_0-4_0-10
  6
CONTINUOUS
 62
    7
 10
106.46433250684698
 20
119.79474628411102
 11
106.16281347788789
 21
119.12219428411101
  0
LINE
  8
_0-4_0-10
  6
CONTINUOUS
 62
    7
 10
106.16281347788789
 20
119.12219428411101
 11
105.36494947788789
 21
117.37891161744431
  0
LINE
  8
_0-4_0-10
  6
CONTINUOUS
 62
    7
 10
105.36494947788789
 20
117.37891161744431
 11
104.55948014455459
 21
115.63628095077761
  0
LINE
  8
_0-4_0-10
  6
CONTINUOUS
 62
    7
 10
104.55948014455459
 20
115.63628095077761
 11
104.50221885792538
 21
115.51231428103533
  0
LINE
  8
_0-4_0-10
  6
CONTINUOUS
 62
    7
 10
109.48044818241258
 20
127.11173428411102
 11
109.12551881122129
 21
126.13672628411092
  0
LINE
  8
_0-4_0-10
  6
CONTINUOUS
 62
    7
 10
109.12551881122129
 20
126.13672628411092
 11
108.43442547788788
 21
124.37339428411092
  0
LINE
  8
_0-4_0-10
  6
CONTINUOUS
 62
    7
 10
108.43442547788788
 20
124.37339428411092
 11
107.70518681122119
 21
122.61769161744432
  0
LINE
  8
_0-4_0-10
  6
CONTINUOUS
 62
    7
 10
107.70518681122119
 20
122.61769161744432
 11
106.94543747788789
 21
120.86787295077762
  0
LINE
  8
_0-4_0-10
  6
CONTINUOUS
 62
    7
 10
106.94543747788789
 20
120.86787295077762
 11
106.46433250684698
 21
119.79474628411102
  0
LINE
  8
_0-4_0-10
  6
CONTINUOUS
 62
    7
 10
110.97135361149518
 20
131.79474628411091
 11
110.89358014455459
 21
131.48994095077762
  0
LINE
  8
_0-4_0-10
  6
CONTINUOUS
 62
    7
 10
110.89358014455459
 20
131.48994095077762
 11
110.36273081122129
 21
129.69325561744432
  0
LINE
  8
_0-4_0-10
  6
CONTINUOUS
 62
    7
 10
110.36273081122129
 20
129.69325561744432
 11
109.77083214455458
 21
127.90943295077762
  0
LINE
  8
_0-4_0-10
  6
CONTINUOUS
 62
    7
 10
109.77083214455458
 20
127.90943295077762
 11
109.48044818241258
 21
127.11173428411102
  0
LINE
  8
_0-4_0-10
  6
CONTINUOUS
 62
    7
 10
112.27475472985449
 20
139.11173429077092
 11
112.22521214455458
 21
138.50645561744431
  0
LINE
  8
_0-4_0-10
  6
CONTINUOUS
 62
    7
 10
112.22521214455458
 20
138.50645561744431
 11
112.04348147788789
 21
136.97461428411102
  0
LINE
  8
_0-4_0-10
  6
CONTINUOUS
 62
    7
 10
112.04348147788789
 20
136.97461428411102
 11
111.74159081122118
 21
135.12887695077762
  0
LINE
  8
_0-4_0-10
  6
CONTINUOUS
 62
    7
 10
111.74159081122118
 20
135.12887695077762
 11
111.35574547788789
 21
133.30123295077763
  0
LINE
  8
_0-4_0-10
  6
CONTINUOUS
 62
    7
 10
111.35574547788789
 20
133.30123295077763
 11
110.97135361149518
 21
131.79474628411091
  0
LINE
  8
_0-4_0-10
  6
CONTINUOUS
 62
    7
 10
112.46406766430749
 20
143.79474628393811
 11
112.46429347788789
 21
143.16744095077763
  0
LINE
  8
_0-4_0-10
  6
CONTINUOUS
 62
    7
 10
112.46429347788789
 20
143.16744095077763
 11
112.42908547788789
 21
141.60436761744432
  0
LINE
  8
_0-4_0-10
  6
CONTINUOUS
 62
    7
 10
112.42908547788789
 20
141.60436761744432
 11
112.35156947788789
 21
140.05020628411102
  0
LINE
  8
_0-4_0-10
  6
CONTINUOUS
 62
    7
 10
112.35156947788789
 20
140.05020628411102
 11
112.27475472985449
 21
139.11173429077092
  0
LINE
  8
_0-4_0-10
  6
CONTINUOUS
 62
    7
 10
112.23194322080608
 20
151.11172951006193
 11
112.23439614455449
 21
151.0639849507776
  0
LINE
  8
_0-4_0-10
  6
CONTINUOUS
 62
    7
 10
112.23439614455449
 20
151.0639849507776
 11
112.31272281122119
 21
149.47885028411093
  0
LINE
  8
_0-4_0-10
  6
CONTINUOUS
 62
    7
 10
112.31272281122119
 20
149.47885028411093
 11
112.38140947788788
 21
147.89513028411101
  0
LINE
  8
_0-4_0-10
  6
CONTINUOUS
 62
    7
 10
112.38140947788788
 20
147.89513028411101
 11
112.43392281122129
 21
146.31432095077761
  0
LINE
  8
_0-4_0-10
  6
CONTINUOUS
 62
    7
 10
112.43392281122129
 20
146.31432095077761
 11
112.46372814455459
 21
144.73792495077762
  0
LINE
  8
_0-4_0-10
  6
CONTINUOUS
 62
    7
 10
112.46372814455459
 20
144.73792495077762
 11
112.46406766430749
 21
143.79474628393811
  0
LINE
  8
_0-4_0-10
  6
CONTINUOUS
 62
    7
 10
112.00768702479079
 20
155.79474628411091
 11
112.07495481122128
 21
154.23249161744431
  0
LINE
  8
_0-4_0-10
  6
CONTINUOUS
 62
    7
 10
112.07495481122128
 20
154.23249161744431
 11
112.15296281122118
 21
152.64903161744433
  0
LINE
  8
_0-4_0-10
  6
CONTINUOUS
 62
    7
 10
112.15296281122118
 20
152.64903161744433
 11
112.23194322080608
 21
151.11172951006193
  0
LINE
  8
_0-4_0-10
  6
CONTINUOUS
 62
    7
 10
112.01866064372968
 20
163.11173432724021
 11
111.96498014455458
 21
162.07350628411103
  0
LINE
  8
_0-4_0-10
  6
CONTINUOUS
 62
    7
 10
111.96498014455458
 20
162.07350628411103
 11
111.92785481122119
 21
160.52047428411091
  0
LINE
  8
_0-4_0-10
  6
CONTINUOUS
 62
    7
 10
111.92785481122119
 20
160.52047428411091
 11
111.92682414455458
 21
158.95835695077761
  0
LINE
  8
_0-4_0-10
  6
CONTINUOUS
 62
    7
 10
111.92682414455458
 20
158.95835695077761
 11
111.95535214455459
 21
157.38865428411102
  0
LINE
  8
_0-4_0-10
  6
CONTINUOUS
 62
    7
 10
111.95535214455459
 20
157.38865428411102
 11
112.00690681122118
 21
155.812866284111
  0
LINE
  8
_0-4_0-10
  6
CONTINUOUS
 62
    7
 10
112.00690681122118
 20
155.812866284111
 11
112.00768702479079
 21
155.79474628411091
  0
LINE
  8
_0-4_0-10
  6
CONTINUOUS
 62
    7
 10
112.54425478720808
 20
167.79474628805803
 11
112.35824814455459
 21
166.66309828411101
  0
LINE
  8
_0-4_0-10
  6
CONTINUOUS
 62
    7
 10
112.35824814455459
 20
166.66309828411101
 11
112.17364281122118
 21
165.14631828411103
  0
LINE
  8
_0-4_0-10
  6
CONTINUOUS
 62
    7
 10
112.17364281122118
 20
165.14631828411103
 11
112.04473081122118
 21
163.61595428411101
  0
LINE
  8
_0-4_0-10
  6
CONTINUOUS
 62
    7
 10
112.04473081122118
 20
163.61595428411101
 11
112.01866064372968
 21
163.11173432724021
  0
LINE
  8
_0-4_0-10
  6
CONTINUOUS
 62
    7
 10
114.72980386949998
 20
175.11173428411103
 11
114.19735614455458
 21
173.76973828411092
  0
LINE
  8
_0-4_0-10
  6
CONTINUOUS
 62
    7
 10
114.19735614455458
 20
173.76973828411092
 11
113.71364281122129
 21
172.41034095077762
  0
LINE
  8
_0-4_0-10
  6
CONTINUOUS
 62
    7
 10
113.71364281122129
 20
172.41034095077762
 11
113.28625747788788
 21
171.03751828411103
  0
LINE
  8
_0-4_0-10
  6
CONTINUOUS
 62
    7
 10
113.28625747788788
 20
171.03751828411103
 11
112.92067081122118
 21
169.64990628411101
  0
LINE
  8
_0-4_0-10
  6
CONTINUOUS
 62
    7
 10
112.92067081122118
 20
169.64990628411101
 11
112.60507881122128
 21
168.16479428411102
  0
LINE
  8
_0-4_0-10
  6
CONTINUOUS
 62
    7
 10
112.60507881122128
 20
168.16479428411102
 11
112.54425478720808
 21
167.79474628805803
  0
LINE
  8
_0-4_0-10
  6
CONTINUOUS
 62
    7
 10
116.94742440825548
 20
179.79474628411091
 11
116.58603614455459
 21
179.10040761744431
  0
LINE
  8
_0-4_0-10
  6
CONTINUOUS
 62
    7
 10
116.58603614455459
 20
179.10040761744431
 11
115.93173614455459
 21
177.78104628411102
  0
LINE
  8
_0-4_0-10
  6
CONTINUOUS
 62
    7
 10
115.93173614455459
 20
177.78104628411102
 11
115.31187481122118
 21
176.45372495077762
  0
LINE
  8
_0-4_0-10
  6
CONTINUOUS
 62
    7
 10
115.31187481122118
 20
176.45372495077762
 11
114.73192414455459
 21
175.11707828411101
  0
LINE
  8
_0-4_0-10
  6
CONTINUOUS
 62
    7
 10
114.73192414455459
 20
175.11707828411101
 11
114.72980386949998
 21
175.11173428411103
  0
LINE
  8
_0-4_0-10
  6
CONTINUOUS
 62
    7
 10
121.03452262751029
 20
187.11173428411103
 11
120.92859481122118
 21
186.92591295077761
  0
LINE
  8
_0-4_0-10
  6
CONTINUOUS
 62
    7
 10
120.92859481122118
 20
186.92591295077761
 11
120.18258147788789
 21
185.62562495077762
  0
LINE
  8
_0-4_0-10
  6
CONTINUOUS
 62
    7
 10
120.18258147788789
 20
185.62562495077762
 11
119.43817347788788
 21
184.32557295077762
  0
LINE
  8
_0-4_0-10
  6
CONTINUOUS
 62
    7
 10
119.43817347788788
 20
184.32557295077762
 11
118.70084281122119
 21
183.02439161744433
  0
LINE
  8
_0-4_0-10
  6
CONTINUOUS
 62
    7
 10
118.70084281122119
 20
183.02439161744433
 11
117.97606147788789
 21
181.72071428411092
  0
LINE
  8
_0-4_0-10
  6
CONTINUOUS
 62
    7
 10
117.97606147788789
 20
181.72071428411092
 11
117.26930281122119
 21
180.41317428411093
  0
LINE
  8
_0-4_0-10
  6
CONTINUOUS
 62
    7
 10
117.26930281122119
 20
180.41317428411093
 11
116.94742440825548
 21
179.79474628411091
  0
LINE
  8
_0-4_0-10
  6
CONTINUOUS
 62
    7
 10
123.62872277942419
 20
191.79768727976281
 11
123.12154014455448
 21
190.84185695077761
  0
LINE
  8
_0-4_0-10
  6
CONTINUOUS
 62
    7
 10
123.12154014455448
 20
190.84185695077761
 11
122.40354547788788
 21
189.53266361744431
  0
LINE
  8
_0-4_0-10
  6
CONTINUOUS
 62
    7
 10
122.40354547788788
 20
189.53266361744431
 11
121.67074014455458
 21
188.22780361744432
  0
LINE
  8
_0-4_0-10
  6
CONTINUOUS
 62
    7
 10
121.67074014455458
 20
188.22780361744432
 11
121.03452262751029
 21
187.11173428411103
  0
LINE
  8
_0-4_0-10
  6
CONTINUOUS
 62
    7
 10
126.89969660700039
 20
199.11173428411103
 11
126.29780414455458
 21
197.50065828411101
  0
LINE
  8
_0-4_0-10
  6
CONTINUOUS
 62
    7
 10
126.29780414455458
 20
197.50065828411101
 11
125.73595214455448
 21
196.14929961744431
  0
LINE
  8
_0-4_0-10
  6
CONTINUOUS
 62
    7
 10
125.73595214455448
 20
196.14929961744431
 11
125.13192814455459
 21
194.80910761744431
  0
LINE
  8
_0-4_0-10
  6
CONTINUOUS
 62
    7
 10
125.13192814455459
 20
194.80910761744431
 11
124.49120281122128
 21
193.47871295077763
  0
LINE
  8
_0-4_0-10
  6
CONTINUOUS
 62
    7
 10
124.49120281122128
 20
193.47871295077763
 11
123.81924947788789
 21
192.15675161744431
  0
LINE
  8
_0-4_0-10
  6
CONTINUOUS
 62
    7
 10
123.81924947788789
 20
192.15675161744431
 11
123.62872277942419
 21
191.79768727976281
  0
LINE
  8
_0-4_0-10
  6
CONTINUOUS
 62
    7
 10
129.5613094778879
 20
236.04474628411102
 11
129.68476814455459
 21
233.66628095077763
  0
LINE
  8
_0-4_0-10
  6
CONTINUOUS
 62
    7
 10
129.68476814455459
 20
233.66628095077763
 11
129.7788081445546
 21
231.78872761744432
  0
LINE
  8
_0-4_0-10
  6
CONTINUOUS
 62
    7
 10
129.7788081445546
 20
231.78872761744432
 11
129.8659161445546
 21
229.91299695077762
  0
LINE
  8
_0-4_0-10
  6
CONTINUOUS
 62
    7
 10
129.8659161445546
 20
229.91299695077762
 11
129.94262814455458
 21
228.03999961744432
  0
LINE
  8
_0-4_0-10
  6
CONTINUOUS
 62
    7
 10
129.94262814455458
 20
228.03999961744432
 11
130.00547747788789
 21
226.17064895077771
  0
LINE
  8
_0-4_0-10
  6
CONTINUOUS
 62
    7
 10
130.00547747788789
 20
226.17064895077771
 11
130.05099881122129
 21
224.3058569507776
  0
LINE
  8
_0-4_0-10
  6
CONTINUOUS
 62
    7
 10
130.05099881122129
 20
224.3058569507776
 11
130.07572547788788
 21
222.44653161744432
  0
LINE
  8
_0-4_0-10
  6
CONTINUOUS
 62
    7
 10
130.07572547788788
 20
222.44653161744432
 11
130.07619347788789
 21
220.59358895077761
  0
LINE
  8
_0-4_0-10
  6
CONTINUOUS
 62
    7
 10
130.07619347788789
 20
220.59358895077761
 11
130.0489361445546
 21
218.74793695077761
  0
LINE
  8
_0-4_0-10
  6
CONTINUOUS
 62
    7
 10
130.0489361445546
 20
218.74793695077761
 11
129.9904881445546
 21
216.91048761744431
  0
LINE
  8
_0-4_0-10
  6
CONTINUOUS
 62
    7
 10
129.9904881445546
 20
216.91048761744431
 11
129.89738414455459
 21
215.08215428411102
  0
LINE
  8
_0-4_0-10
  6
CONTINUOUS
 62
    7
 10
129.89738414455459
 20
215.08215428411102
 11
129.7661574778879
 21
213.26384628411102
  0
LINE
  8
_0-4_0-10
  6
CONTINUOUS
 62
    7
 10
129.7661574778879
 20
213.26384628411102
 11
129.59334281122119
 21
211.45647695077772
  0
LINE
  8
_0-4_0-10
  6
CONTINUOUS
 62
    7
 10
129.59334281122119
 20
211.45647695077772
 11
129.37547614455459
 21
209.66095695077763
  0
LINE
  8
_0-4_0-10
  6
CONTINUOUS
 62
    7
 10
129.37547614455459
 20
209.66095695077763
 11
129.10909081122127
 21
207.87819695077763
  0
LINE
  8
_0-4_0-10
  6
CONTINUOUS
 62
    7
 10
129.10909081122127
 20
207.87819695077763
 11
128.79072014455459
 21
206.1091089507777
  0
LINE
  8
_0-4_0-10
  6
CONTINUOUS
 62
    7
 10
128.79072014455459
 20
206.1091089507777
 11
128.4169001445546
 21
204.35460495077762
  0
LINE
  8
_0-4_0-10
  6
CONTINUOUS
 62
    7
 10
128.4169001445546
 20
204.35460495077762
 11
127.98416281122118
 21
202.61559695077772
  0
LINE
  8
_0-4_0-10
  6
CONTINUOUS
 62
    7
 10
127.98416281122118
 20
202.61559695077772
 11
127.48904547788789
 21
200.89299561744431
  0
LINE
  8
_0-4_0-10
  6
CONTINUOUS
 62
    7
 10
127.48904547788789
 20
200.89299561744431
 11
126.92808147788788
 21
199.18771161744433
  0
LINE
  8
_0-4_0-10
  6
CONTINUOUS
 62
    7
 10
126.92808147788788
 20
199.18771161744433
 11
126.89969660700039
 21
199.11173428411103
  0
LINE
  8
_0-4_0-10
  6
CONTINUOUS
 62
    3
 10
95.815485477887918
 20
86.044746284110999
 11
41.674973477887903
 21
86.044746284110999
  0
LINE
  8
_0-4_0-10
  6
CONTINUOUS
 62
    3
 10
129.5613094778879
 20
236.04474628411102
 11
41.674973477887903
 21
236.04474628411102
  0
LINE
  8
_0-4_0-10
  6
CONTINUOUS
 62
    4
 10
113.67497347788788
 20
115.54474628411102
 11
109.05571881122119
 21
115.64558761744432
  0
LINE
  8
_0-4_0-10
  6
CONTINUOUS
 62
    4
 10
109.05571881122119
 20
115.64558761744432
 11
104.69641614455458
 21
115.93254361744432
  0
LINE
  8
_0-0_0
  6
CONTINUOUS
 62
    4
 10
137.23465747788787
 20
119.79474628411102
 11
137.40896947788789
 21
119.79855161744431
  0
LINE
  8
_0-0_0
  6
CONTINUOUS
 62
    4
 10
137.40896947788789
 20
119.79855161744431
 11
137.58195481122129
 21
119.80993828411102
  0
LINE
  8
_0-0_0
  6
CONTINUOUS
 62
    4
 10
137.58195481122129
 20
119.80993828411102
 11
137.7522961445546
 21
119.82882095077762
  0
LINE
  8
_0-0_0
  6
CONTINUOUS
 62
    4
 10
137.7522961445546
 20
119.82882095077762
 11
137.9186988112213
 21
119.85505428411102
  0
LINE
  8
_0-0_0
  6
CONTINUOUS
 62
    4
 10
137.9186988112213
 20
119.85505428411102
 11
138.07989481122118
 21
119.88843828411101
  0
LINE
  8
_0-0_0
  6
CONTINUOUS
 62
    4
 10
138.07989481122118
 20
119.88843828411101
 11
138.11140014455457
 21
119.89595295077762
  0
LINE
  8
_0-4_0-10
  6
CONTINUOUS
 62
    5
 10
129.88457614455458
 20
214.90469961744432
 11
163.4945388112213
 21
211.96420761744431
  0
LINE
  8
_0-4_0-10
  6
CONTINUOUS
 62
    5
 10
130.06160281122117
 20
219.60560761744432
 11
160.91545214455459
 21
216.90624628411103
  0
LINE
  8
_0-4_0-10
  6
CONTINUOUS
 62
    5
 10
130.06351081122119
 20
219.73485028411101
 11
160.92668814455458
 21
217.03467161744433
  0
LINE
  8
_0-4_0-10
  6
CONTINUOUS
 62
    5
 10
130.03412281122129
 20
224.99717028411103
 11
175.4249734778879
 21
221.02598495077771
  0
LINE
  8
_0-4_0-10
  6
CONTINUOUS
 62
    5
 10
163.65380414455458
 20
213.78462095077762
 11
163.4945388112213
 21
211.96420761744431
  0
LINE
  8
_0-4_0-10
  6
CONTINUOUS
 62
    5
 10
175.9249734778879
 20
236.04474628411102
 11
129.5613094778879
 21
236.04474628411102
  0
LINE
  8
_0-4_0-10
  6
CONTINUOUS
 62
    5
 10
164.19016947788799
 20
213.27712095077762
 11
175.4249734778879
 21
212.29420361744431
  0
LINE
  8
_0-4_0-10
  6
CONTINUOUS
 62
    5
 10
164.14683214455459
 20
212.79881028411091
 11
175.38139481122129
 21
211.81591295077762
  0
ARC
  8
_0-4_0-10
  6
CONTINUOUS
 62
    5
 10
164.13787614455458
 20
212.6794049507776
 40
0.5999999999999999
 50
85.000000000000014
 51
159.63549000000008
  0
ARC
  8
_0-4_0-10
  6
CONTINUOUS
 62
    5
 10
164.09453881122129
 20
212.20109295077762
 40
0.5999999999999999
 50
85.000000000000014
 51
159.10912099999882
  0
ARC
  8
_0-4_0-10
  6
CONTINUOUS
 62
    5
 10
160.65398414455458
 20
213.91766228411103
 40
3
 50
354.99999999999982
 51
85.000000000000014
  0
ARC
  8
_0-4_0-10
  6
CONTINUOUS
 62
    5
 10
160.66522014455458
 20
214.04608761744432
 40
3
 50
354.99999999999982
 51
85.000000000000014
  0
LINE
  8
_0-4_0-10
  6
CONTINUOUS
 62
    5
 10
175.9249734778879
 20
236.04474628411102
 11
175.9249734778879
 21
212.31401028411093
  0
LINE
  8
_0-4_0-10
  6
CONTINUOUS
 62
    5
 10
175.4249734778879
 20
236.04474628411102
 11
175.4249734778879
 21
212.29420361744431
  0
ARC
  8
_0-4_0-10
  6
CONTINUOUS
 62
    5
 10
175.4249734778879
 20
212.31401028411093
 40
0.5
 50
265
 51
0.0000000000000127
  0
LINE
  8
_0-4_0-10
  6
CONTINUOUS
 62
    5
 10
175.4249734778879
 20
216.79022895077761
 11
175.9249734778879
 21
216.79022895077761
  0
LINE
  8
_0-4_0-10
  6
CONTINUOUS
 62
    5
 10
175.4249734778879
 20
224.45708495077761
 11
175.9249734778879
 21
224.45708495077761
  0
LINE
  8
_0-4_0-10
  6
CONTINUOUS
 62
    7
 10
134.16263481122129
 20
214.53041695077763
 11
134.1353700486226
 21
214.48319300057102
  0
LINE
  8
_0-4_0-10
  6
CONTINUOUS
 62
    7
 10
149.48455347788799
 20
211.06875961744432
 11
149.4308452658266
 21
210.97573426310432
  0
LINE
  8
_0-4_0-10
  6
CONTINUOUS
 62
    7
 10
147.39897722178127
 20
115.63305790741902
 11
147.5051001445546
 21
115.44924761744432
  0
LINE
  8
_0-4_0-10
  6
CONTINUOUS
 62
    7
 10
123.63056414455459
 20
191.80115695077762
 11
123.63426534466259
 21
191.79474628411102
  0
LINE
  8
_0-4_0-10
  6
CONTINUOUS
 62
    7
 10
100.60896547788789
 20
106.67573561744431
 11
100.71920547788789
 21
106.48479428411091
  0
ARC
  8
_0-4_0-10
  6
CONTINUOUS
 62
    7
 10
113.67497347788788
 20
164.04474628411091
 40
59
 50
257.14623200000016
 51
56.969538999999848
  0
LINE
  8
_0-4_0-10
  6
CONTINUOUS
 62
    4
 10
138.61614947788788
 20
213.42709961744432
 11
134.44542814455459
 21
214.42500628411102
  0
LINE
  8
_0-4_0-10
  6
CONTINUOUS
 62
    4
 10
134.44542814455459
 20
214.42500628411102
 11
133.64013747788789
 21
214.57613028411103
  0
ARC
  8
_0-4_0-10
  6
CONTINUOUS
 62
    4
 10
160.67071747788799
 20
191.44474628411091
 40
1.0999999999999989
 50
30.243533000006994
 51
90.000000000006735
  0
LINE
  8
_0-4_0-10
  6
CONTINUOUS
 62
    4
 10
160.67071747788799
 20
192.54474628411102
 11
158.7965054778879
 21
192.54474628411102
  0
LINE
  8
_0-4_0-10
  6
CONTINUOUS
 62
    4
 10
159.5867588112213
 20
180.04474628411102
 11
160.5551824376505
 21
182.32620854108961
  0
ARC
  8
_0-4_0-10
  6
CONTINUOUS
 62
    4
 10
162.39619214455458
 20
181.54474628411091
 40
2
 50
89.999999999996944
 51
156.99999999999701
  0
LINE
  8
_0-4_0-10
  6
CONTINUOUS
 62
    4
 10
162.39619214455458
 20
183.54474628411102
 11
164.61611481122127
 21
183.54474628411102
  0
ARC
  8
_0-4_0-10
  6
CONTINUOUS
 62
    4
 10
164.61613122026528
 20
184.24473593652831
 40
0.6999896526106665
 50
269.99865688161992
 51
21.631330194685208
  0
ARC
  8
_0-4_0-10
  6
CONTINUOUS
 62
    4
 10
113.67497347788788
 20
164.04474628411091
 40
55.5
 50
21.63011099999991
 51
30.243532999999921
  0
ARC
  8
_0-4_0-10
  6
CONTINUOUS
 62
    4
 10
112.53267654026389
 20
164.04474565626031
 40
56.639861314161329
 50
356.29570313359118
 51
3.7042983683290371
  0
ARC
  8
_0-4_0-10
  6
CONTINUOUS
 62
    4
 10
168.15616281122129
 20
167.64474628411102
 40
0.9
 50
3.7804860000068445
 51
90.000000000006735
  0
LINE
  8
_0-4_0-10
  6
CONTINUOUS
 62
    4
 10
168.15616281122129
 20
168.54474628411102
 11
166.8807214778879
 21
168.54474628411102
  0
ARC
  8
_0-4_0-10
  6
CONTINUOUS
 62
    4
 10
113.04237023318658
 20
164.18644255758431
 40
56.146795890436003
 50
343.52176565353408
 51
351.22744482619879
  0
ARC
  8
_0-4_0-10
  6
CONTINUOUS
 62
    4
 10
167.74159881122128
 20
155.74474628411093
 40
0.8
 50
351.27241299999792
 51
89.999999999998209
  0
LINE
  8
_0-4_0-10
  6
CONTINUOUS
 62
    4
 10
167.74159881122128
 20
156.54474628411091
 11
166.52964547788798
 21
156.54474628411091
  0
LINE
  8
_0-4_0-10
  6
CONTINUOUS
 62
    4
 10
113.66992205598529
 20
115.11162400971092
 11
109.05571881122119
 21
115.21257428411092
  0
LINE
  8
_0-4_0-10
  6
CONTINUOUS
 62
    4
 10
109.05571881122119
 20
115.21257428411092
 11
104.50221881122119
 21
115.51231428410962
  0
LINE
  8
_0-4_0-10
  6
CONTINUOUS
 62
    7
 10
181.1749734778879
 20
194.04474628411091
 11
190.25659961928388
 21
181.58071099586291
  0
TEXT
  8
_0-4_0-10
 62
    7
 10
193.19497478173988
 20
183.12908641598161
 40
3.1199999999999992
 41
1
 50
0
  1
2-φ4.3
  0
LINE
  8
_0-4_0-10
  6
CONTINUOUS
 62
    7
 10
211.97479756572249
 20
181.58071099586291
 11
190.25659961928388
 21
181.58071099586291
  0
INSERT
  2
-003-_D3
  8
_0-0_0
 10
-0.249998044222508
 20
0.0000013830140233
 41
1
 42
1
 50
0
  0
INSERT
  2
-004-_D4
  8
_0-0_0
 10
-0.249998044222508
 20
0.0000013830140233
 41
1
 42
1
 50
0
  0
INSERT
  2
-005-_D5
  8
_0-0_0
 10
-0.249998044222508
 20
0.0000013830140233
 41
1
 42
1
 50
0
  0
LINE
  8
_0-4_0-10
  6
CONTINUOUS
 62
    4
 10
302.39095081122138
 20
88.79577161744433
 11
287.89095081122138
 21
74.295771617444316
  0
LINE
  8
_0-4_0-10
  6
CONTINUOUS
 62
    3
 10
245.37714547788797
 20
236.04474628411102
 11
302.89095081122138
 21
236.04474628411102
  0
LINE
  8
_0-4_0-10
  6
CONTINUOUS
 62
    3
 10
245.37714547788797
 20
236.04474628411102
 11
245.37714547788797
 21
86.044746284110999
  0
LINE
  8
_0-4_0-10
  6
CONTINUOUS
 62
    5
 10
293.39095081122127
 20
235.54474628411102
 11
296.89095081122138
 21
235.54474628411102
  0
ARC
  8
_0-4_0-10
  6
CONTINUOUS
 62
    5
 10
297.39095081122127
 20
235.54474628411102
 40
0.5
 50
90
 51
180
  0
LINE
  8
_0-4_0-10
  6
CONTINUOUS
 62
    3
 10
245.87714547788789
 20
236.04474628411102
 11
245.87714547788789
 21
86.044746284110999
  0
LINE
  8
_0-4_0-10
  6
CONTINUOUS
 62
    3
 10
298.89095081122138
 20
86.044746284110999
 11
302.29095081122125
 21
89.444746284110976
  0
LINE
  8
_0-4_0-10
  6
CONTINUOUS
 62
    7
 10
284.05549481122136
 20
164.04474628411091
 11
356.36192414455467
 21
164.04474628411091
  0
ARC
  8
_0-4_0-10
  6
CONTINUOUS
 62
    6
 10
344.69095081122134
 20
209.54474628411102
 40
3
 50
0
 51
90
  0
ARC
  8
_0-4_0-10
  6
CONTINUOUS
 62
    6
 10
344.69095081122134
 20
118.54474628411102
 40
3
 50
270
 51
0
  0
LINE
  8
_0-4_0-10
  6
CONTINUOUS
 62
    6
 10
344.69095081122134
 20
115.54474628411102
 11
301.69095081122134
 21
115.54474628411102
  0
LINE
  8
_0-4_0-10
  6
CONTINUOUS
 62
    6
 10
301.69095081122134
 20
212.54474628411102
 11
344.69095081122134
 21
212.54474628411102
  0
LINE
  8
_0-4_0-10
  6
CONTINUOUS
 62
    6
 10
297.19095081122134
 20
224.34474628411101
 11
297.19095081122134
 21
103.74474628411091
  0
LINE
  8
_0-4_0-10
  6
CONTINUOUS
 62
    6
 10
297.69095081122134
 20
224.34474628411101
 11
297.69095081122134
 21
216.54474628411102
  0
ARC
  8
_0-4_0-10
  6
CONTINUOUS
 62
    6
 10
301.69095081122134
 20
216.54474628411102
 40
4
 50
180
 51
270
  0
ARC
  8
_0-4_0-10
  6
CONTINUOUS
 62
    6
 10
301.69095081122134
 20
111.54474628411102
 40
4
 50
90
 51
180
  0
LINE
  8
_0-4_0-10
  6
CONTINUOUS
 62
    6
 10
297.69095081122134
 20
111.54474628411102
 11
297.69095081122134
 21
103.74474628411091
  0
LINE
  8
_0-4_0-10
  6
CONTINUOUS
 62
    6
 10
297.89095081122138
 20
235.04474628411102
 11
298.39095081122138
 21
235.04474628411102
  0
LINE
  8
_0-4_0-10
  6
CONTINUOUS
 62
    3
 10
245.37714547788797
 20
86.044746284110999
 11
298.89095081122138
 21
86.044746284110999
  0
LINE
  8
_0-4_0-10
  6
CONTINUOUS
 62
    3
 10
302.29095081122125
 20
91.231795617444348
 11
302.29095081122125
 21
89.444746284110976
  0
LINE
  8
_0-4_0-10
  6
CONTINUOUS
 62
    5
 10
296.89095081122138
 20
235.54474628411102
 11
296.89095081122138
 21
226.428410284111
  0
LINE
  8
_0-4_0-10
  6
CONTINUOUS
 62
    5
 10
297.39095081122127
 20
226.04474628411102
 11
261.16873214455461
 21
216.33903295077772
  0
LINE
  8
_0-4_0-10
  6
CONTINUOUS
 62
    5
 10
297.39095081122127
 20
236.04474628411102
 11
302.89095081122138
 21
236.04474628411102
  0
LINE
  8
_0-4_0-10
  6
CONTINUOUS
 62
    5
 10
297.39095081122127
 20
235.54474628411102
 11
297.39095081122127
 21
225.34474628411101
  0
ARC
  8
_0-4_0-10
  6
CONTINUOUS
 62
    5
 10
296.89095081122138
 20
226.428410284111
 40
0.5
 50
284.99999999999954
 51
0.0000000000000381
  0
LINE
  8
_0-4_0-10
  6
CONTINUOUS
 62
    5
 10
260.55635881122134
 20
216.69258628411091
 11
259.39167347788804
 21
221.03925161744433
  0
LINE
  8
_0-4_0-10
  6
CONTINUOUS
 62
    5
 10
259.87463614455464
 20
221.16866228411092
 11
259.39167347788804
 21
221.03925161744433
  0
LINE
  8
_0-4_0-10
  6
CONTINUOUS
 62
    5
 10
261.03932281122115
 20
216.82199561744431
 11
259.87463614455464
 21
221.16866228411092
  0
LINE
  8
_0-4_0-10
  6
CONTINUOUS
 62
    5
 10
260.68576947788801
 20
216.46844228411103
 11
260.68576947788801
 21
212.11065428411103
  0
LINE
  8
_0-4_0-10
  6
CONTINUOUS
 62
    5
 10
260.55635881122134
 20
212.33479828411103
 11
259.73241481122136
 21
215.40979961744432
  0
LINE
  8
_0-4_0-10
  6
CONTINUOUS
 62
    5
 10
259.39167347788804
 20
221.03925161744433
 11
259.39167347788804
 21
217.99799028411101
  0
LINE
  8
_0-4_0-10
  6
CONTINUOUS
 62
    5
 10
268.28376547788798
 20
213.51266895077762
 11
268.28376547788798
 21
213.33884095077763
  0
LINE
  8
_0-4_0-10
  6
CONTINUOUS
 62
    5
 10
267.65788414455471
 20
213.72000895077761
 11
261.16873214455461
 21
211.98124495077772
  0
LINE
  8
_0-4_0-10
  6
CONTINUOUS
 62
    5
 10
268.28376547788798
 20
213.33884095077763
 11
268.41317614455454
 21
212.85587828411092
  0
LINE
  8
_0-4_0-10
  6
CONTINUOUS
 62
    5
 10
268.41317614455454
 20
213.14045295077761
 11
268.41317614455454
 21
212.85587828411092
  0
ARC
  8
_0-4_0-10
  6
CONTINUOUS
 62
    5
 10
261.03932281122115
 20
212.46420761744431
 40
0.5
 50
194.99999999999997
 51
284.99999999999948
  0
ARC
  8
_0-4_0-10
  6
CONTINUOUS
 62
    5
 10
261.03932281122115
 20
216.82199561744431
 40
0.5
 50
194.99999999999997
 51
284.99999999999948
  0
LINE
  8
_0-4_0-10
  6
CONTINUOUS
 62
    5
 10
292.39095081122138
 20
234.54474628411102
 11
292.39095081122138
 21
225.22263828411101
  0
ARC
  8
_0-4_0-10
  6
CONTINUOUS
 62
    5
 10
267.81317614455463
 20
213.14045295077761
 40
0.5999999999999999
 50
0
 51
104.99999999999951
  0
ARC
  8
_0-4_0-10
  6
CONTINUOUS
 62
    5
 10
293.39095081122127
 20
234.54474628411102
 40
1
 50
90
 51
180
  0
ARC
  8
_0-4_0-10
  6
CONTINUOUS
 62
    5
 10
269.39167347788804
 20
217.99799028411101
 40
10
 50
180
 51
195
  0
LINE
  8
_0-4_0-10
  6
CONTINUOUS
 62
    5
 10
296.89095081122138
 20
226.428410284111
 11
261.03932281122115
 21
216.82199561744431
  0
LINE
  8
_0-4_0-10
  6
CONTINUOUS
 62
    4
 10
297.39095081122127
 20
235.04474628411102
 11
297.39095081122127
 21
225.34474628411101
  0
LINE
  8
_0-4_0-10
  6
CONTINUOUS
 62
    4
 10
297.89095081122138
 20
235.54474628411102
 11
302.89095081122138
 21
235.54474628411102
  0
LINE
  8
_0-4_0-10
  6
CONTINUOUS
 62
    4
 10
297.89095081122138
 20
235.04474628411102
 11
302.89095081122138
 21
235.04474628411102
  0
ARC
  8
_0-4_0-10
  6
CONTINUOUS
 62
    4
 10
297.89095081122138
 20
235.04474628411102
 40
0.5
 50
90
 51
180
  0
LINE
  8
_0-4_0-10
  6
CONTINUOUS
 62
    4
 10
302.39095081122138
 20
91.205000950777673
 11
297.76154014455471
 21
92.44544761744433
  0
LINE
  8
_0-4_0-10
  6
CONTINUOUS
 62
    4
 10
302.52036014455472
 20
91.68796361744431
 11
297.89095081122138
 21
92.928410284111009
  0
LINE
  8
_0-4_0-10
  6
CONTINUOUS
 62
    4
 10
302.74450414455463
 20
88.442216950777662
 11
288.24450414455463
 21
73.942216950777662
  0
ARC
  8
_0-4_0-10
  6
CONTINUOUS
 62
    4
 10
297.89095081122138
 20
92.928410284111009
 40
0.5
 50
180
 51
255.00000000000051
  0
LINE
  8
_0-4_0-10
  6
CONTINUOUS
 62
    4
 10
293.275965477888
 20
86.044746284110999
 11
291.10222681122138
 21
83.871008950777678
  0
ARC
  8
_0-4_0-10
  6
CONTINUOUS
 62
    4
 10
293.22354681122124
 20
81.749687617444351
 40
3
 50
135.00000000000034
 51
224.99999999999968
  0
LINE
  8
_0-4_0-10
  6
CONTINUOUS
 62
    4
 10
291.10222681122138
 20
79.628367617444325
 11
292.16288681122114
 21
78.567707617444341
  0
LINE
  8
_0-4_0-10
  6
CONTINUOUS
 62
    4
 10
296.69095081122134
 20
224.84474628411101
 11
296.69095081122134
 21
103.24474628411091
  0
LINE
  8
_0-4_0-10
  6
CONTINUOUS
 62
    4
 10
296.19095081122134
 20
103.24474628411091
 11
296.19095081122134
 21
119.48358361744432
  0
LINE
  8
_0-4_0-10
  6
CONTINUOUS
 62
    4
 10
302.89095081122138
 20
88.79577161744433
 11
302.89095081122138
 21
91.205000950777673
  0
LINE
  8
_0-4_0-10
  6
CONTINUOUS
 62
    4
 10
302.39095081122138
 20
88.79577161744433
 11
302.39095081122138
 21
91.205000950777673
  0
ARC
  8
_0-4_0-10
  6
CONTINUOUS
 62
    4
 10
302.39095081122138
 20
91.205000950777673
 40
0.5
 50
0
 51
75.000000000000511
  0
ARC
  8
_0-4_0-10
  6
CONTINUOUS
 62
    4
 10
302.39095081122138
 20
88.79577161744433
 40
0.5
 50
315.00000000000022
 51
359.99999999999994
  0
LINE
  8
_0-4_0-10
  6
CONTINUOUS
 62
    4
 10
288.24450414455463
 20
73.942216950777662
 11
287.89095081122138
 21
74.295771617444316
  0
LINE
  8
_0-4_0-10
  6
CONTINUOUS
 62
    4
 10
302.89095081122138
 20
235.54474628411102
 11
302.89095081122138
 21
235.04474628411102
  0
LINE
  8
_0-4_0-10
  6
CONTINUOUS
 62
    4
 10
288.43357081122132
 20
211.50558895077762
 11
288.70589081122125
 21
211.08625428411102
  0
LINE
  8
_0-4_0-10
  6
CONTINUOUS
 62
    4
 10
296.19095081122134
 20
216.04474628411102
 11
292.62692414455466
 21
214.22878495077762
  0
LINE
  8
_0-4_0-10
  6
CONTINUOUS
 62
    4
 10
296.41794547788799
 20
215.59924361744432
 11
292.85392014455453
 21
213.78328095077773
  0
ARC
  8
_0-4_0-10
  6
CONTINUOUS
 62
    4
 10
296.19095081122134
 20
216.04474628411102
 40
0.5
 50
296.99999999999988
 51
0.0000000000000127
  0
LINE
  8
_0-4_0-10
  6
CONTINUOUS
 62
    4
 10
292.62692414455466
 20
214.22878495077762
 11
288.43357081122132
 21
211.50558895077762
  0
LINE
  8
_0-4_0-10
  6
CONTINUOUS
 62
    4
 10
292.8992441445547
 20
213.80944895077763
 11
288.70589081122125
 21
211.08625428411102
  0
LINE
  8
_0-4_0-10
  6
CONTINUOUS
 62
    4
 10
288.43357081122132
 20
199.50558895077762
 11
288.70589081122125
 21
199.08625428411102
  0
LINE
  8
_0-4_0-10
  6
CONTINUOUS
 62
    4
 10
296.19095081122134
 20
204.04474628411102
 11
292.62692414455466
 21
202.22878495077762
  0
LINE
  8
_0-4_0-10
  6
CONTINUOUS
 62
    4
 10
296.41794547788799
 20
203.59924361744432
 11
292.85392014455453
 21
201.78328095077762
  0
ARC
  8
_0-4_0-10
  6
CONTINUOUS
 62
    4
 10
296.19095081122134
 20
204.04474628411102
 40
0.5
 50
296.99999999999988
 51
0.0000000000000127
  0
LINE
  8
_0-4_0-10
  6
CONTINUOUS
 62
    4
 10
292.62692414455466
 20
202.22878495077762
 11
288.43357081122132
 21
199.50558895077762
  0
LINE
  8
_0-4_0-10
  6
CONTINUOUS
 62
    4
 10
292.8992441445547
 20
201.80944895077763
 11
288.70589081122125
 21
199.08625428411102
  0
LINE
  8
_0-4_0-10
  6
CONTINUOUS
 62
    4
 10
288.43357081122132
 20
187.50558895077762
 11
288.70589081122125
 21
187.08625428411093
  0
LINE
  8
_0-4_0-10
  6
CONTINUOUS
 62
    4
 10
296.19095081122134
 20
192.04474628411091
 11
292.62692414455466
 21
190.22878495077762
  0
LINE
  8
_0-4_0-10
  6
CONTINUOUS
 62
    4
 10
296.41794547788799
 20
191.59924361744421
 11
292.85392014455453
 21
189.78328095077762
  0
ARC
  8
_0-4_0-10
  6
CONTINUOUS
 62
    4
 10
296.19095081122134
 20
192.04474628411091
 40
0.5
 50
296.99999999999988
 51
0.0000000000000127
  0
LINE
  8
_0-4_0-10
  6
CONTINUOUS
 62
    4
 10
292.62692414455466
 20
190.22878495077762
 11
288.43357081122132
 21
187.50558895077762
  0
LINE
  8
_0-4_0-10
  6
CONTINUOUS
 62
    4
 10
292.8992441445547
 20
189.80944895077632
 11
288.70589081122125
 21
187.08625428411093
  0
LINE
  8
_0-4_0-10
  6
CONTINUOUS
 62
    4
 10
288.43357081122132
 20
175.50558895077762
 11
288.70589081122125
 21
175.08625428411102
  0
LINE
  8
_0-4_0-10
  6
CONTINUOUS
 62
    4
 10
296.19095081122134
 20
180.04474628411102
 11
292.62692414455466
 21
178.22878495077762
  0
LINE
  8
_0-4_0-10
  6
CONTINUOUS
 62
    4
 10
296.41794547788799
 20
179.59924361744432
 11
292.85392014455453
 21
177.78328095077762
  0
ARC
  8
_0-4_0-10
  6
CONTINUOUS
 62
    4
 10
296.19095081122134
 20
180.04474628411102
 40
0.5
 50
296.99999999999988
 51
0.0000000000000127
  0
LINE
  8
_0-4_0-10
  6
CONTINUOUS
 62
    4
 10
292.62692414455466
 20
178.22878495077762
 11
288.43357081122132
 21
175.50558895077762
  0
LINE
  8
_0-4_0-10
  6
CONTINUOUS
 62
    4
 10
292.8992441445547
 20
177.80944895077763
 11
288.70589081122125
 21
175.08625428411102
  0
LINE
  8
_0-4_0-10
  6
CONTINUOUS
 62
    4
 10
288.43357081122132
 20
163.50558895077762
 11
288.70589081122125
 21
163.08625428411093
  0
LINE
  8
_0-4_0-10
  6
CONTINUOUS
 62
    4
 10
296.19095081122134
 20
168.04474628411091
 11
292.62692414455466
 21
166.22878495077762
  0
LINE
  8
_0-4_0-10
  6
CONTINUOUS
 62
    4
 10
296.41794547788799
 20
167.59924361744432
 11
292.85392014455453
 21
165.78328095077762
  0
ARC
  8
_0-4_0-10
  6
CONTINUOUS
 62
    4
 10
296.19095081122134
 20
168.04474628411091
 40
0.5
 50
296.99999999999988
 51
0.0000000000000127
  0
LINE
  8
_0-4_0-10
  6
CONTINUOUS
 62
    4
 10
292.62692414455466
 20
166.22878495077762
 11
288.43357081122132
 21
163.50558895077762
  0
LINE
  8
_0-4_0-10
  6
CONTINUOUS
 62
    4
 10
292.8992441445547
 20
165.80944895077763
 11
288.70589081122125
 21
163.08625428411093
  0
LINE
  8
_0-4_0-10
  6
CONTINUOUS
 62
    4
 10
288.43357081122132
 20
151.50558895077762
 11
288.70589081122125
 21
151.08625428411093
  0
LINE
  8
_0-4_0-10
  6
CONTINUOUS
 62
    4
 10
296.19095081122134
 20
156.04474628411102
 11
292.62692414455466
 21
154.22878495077631
  0
LINE
  8
_0-4_0-10
  6
CONTINUOUS
 62
    4
 10
296.41794547788799
 20
155.59924361744432
 11
292.85392014455453
 21
153.78328095077762
  0
ARC
  8
_0-4_0-10
  6
CONTINUOUS
 62
    4
 10
296.19095081122134
 20
156.04474628411102
 40
0.5
 50
296.99999999999988
 51
0.0000000000000127
  0
LINE
  8
_0-4_0-10
  6
CONTINUOUS
 62
    4
 10
292.62692414455466
 20
154.22878495077631
 11
288.43357081122132
 21
151.50558895077762
  0
LINE
  8
_0-4_0-10
  6
CONTINUOUS
 62
    4
 10
292.8992441445547
 20
153.80944895077632
 11
288.70589081122125
 21
151.08625428411093
  0
LINE
  8
_0-4_0-10
  6
CONTINUOUS
 62
    4
 10
288.43357081122132
 20
139.50558895077762
 11
288.70589081122125
 21
139.08625428411093
  0
LINE
  8
_0-4_0-10
  6
CONTINUOUS
 62
    4
 10
296.19095081122134
 20
144.04474628411091
 11
292.62692414455466
 21
142.22878495077762
  0
LINE
  8
_0-4_0-10
  6
CONTINUOUS
 62
    4
 10
296.41794547788799
 20
143.59924361744432
 11
292.85392014455453
 21
141.78328095077762
  0
ARC
  8
_0-4_0-10
  6
CONTINUOUS
 62
    4
 10
296.19095081122134
 20
144.04474628411091
 40
0.5
 50
296.99999999999988
 51
0.0000000000000127
  0
LINE
  8
_0-4_0-10
  6
CONTINUOUS
 62
    4
 10
292.62692414455466
 20
142.22878495077762
 11
288.43357081122132
 21
139.50558895077762
  0
LINE
  8
_0-4_0-10
  6
CONTINUOUS
 62
    4
 10
292.8992441445547
 20
141.80944895077763
 11
288.70589081122125
 21
139.08625428411093
  0
LINE
  8
_0-4_0-10
  6
CONTINUOUS
 62
    4
 10
288.43357081122132
 20
127.50558895077762
 11
288.70589081122125
 21
127.08625428411092
  0
LINE
  8
_0-4_0-10
  6
CONTINUOUS
 62
    4
 10
296.19095081122134
 20
132.04474628411102
 11
292.62692414455466
 21
130.22878495077762
  0
LINE
  8
_0-4_0-10
  6
CONTINUOUS
 62
    4
 10
296.41794547788799
 20
131.59924361744432
 11
292.85392014455453
 21
129.78328095077762
  0
ARC
  8
_0-4_0-10
  6
CONTINUOUS
 62
    4
 10
296.19095081122134
 20
132.04474628411102
 40
0.5
 50
296.99999999999988
 51
0.0000000000000127
  0
LINE
  8
_0-4_0-10
  6
CONTINUOUS
 62
    4
 10
292.62692414455466
 20
130.22878495077762
 11
288.43357081122132
 21
127.50558895077762
  0
LINE
  8
_0-4_0-10
  6
CONTINUOUS
 62
    4
 10
292.8992441445547
 20
129.80944895077763
 11
288.70589081122125
 21
127.08625428411092
  0
LINE
  8
_0-4_0-10
  6
CONTINUOUS
 62
    4
 10
288.43357081122132
 20
115.50558895077762
 11
288.70589081122125
 21
115.08625428411092
  0
LINE
  8
_0-4_0-10
  6
CONTINUOUS
 62
    4
 10
296.19095081122134
 20
120.04474628411102
 11
292.62692414455466
 21
118.22878495077762
  0
LINE
  8
_0-4_0-10
  6
CONTINUOUS
 62
    4
 10
296.41794547788799
 20
119.59924361744432
 11
292.85392014455453
 21
117.78328095077762
  0
ARC
  8
_0-4_0-10
  6
CONTINUOUS
 62
    4
 10
296.19095081122134
 20
120.04474628411102
 40
0.5
 50
296.99999999999988
 51
0.0000000000000127
  0
LINE
  8
_0-4_0-10
  6
CONTINUOUS
 62
    4
 10
292.62692414455466
 20
118.22878495077762
 11
288.43357081122132
 21
115.50558895077762
  0
LINE
  8
_0-4_0-10
  6
CONTINUOUS
 62
    4
 10
292.8992441445547
 20
117.80944895077762
 11
288.70589081122125
 21
115.08625428411092
  0
LINE
  8
_0-4_0-10
  6
CONTINUOUS
 62
    4
 10
296.19095081122134
 20
222.64474628411102
 11
296.69095081122134
 21
222.64474628411102
  0
LINE
  8
_0-4_0-10
  6
CONTINUOUS
 62
    4
 10
297.39095081122127
 20
231.94474628411091
 11
297.89095081122138
 21
231.94474628411091
  0
LINE
  8
_0-4_0-10
  6
CONTINUOUS
 62
    3
 10
267.13676147788794
 20
236.04474628411102
 11
267.13676147788794
 21
218.45579961744431
  0
LINE
  8
_0-4_0-10
  6
CONTINUOUS
 62
    3
 10
267.13676147788794
 20
213.58037428411091
 11
267.13676147788794
 21
86.044746284110999
  0
LINE
  8
_0-4_0-10
  6
CONTINUOUS
 62
    5
 10
297.39095081122127
 20
235.54474628411102
 11
302.89095081122138
 21
235.54474628411102
  0
LINE
  8
_0-4_0-10
  6
CONTINUOUS
 62
    4
 10
297.89095081122138
 20
235.04474628411102
 11
297.89095081122138
 21
215.02487828411102
  0
LINE
  8
_0-4_0-10
  6
CONTINUOUS
 62
    4
 10
297.39095081122127
 20
102.74474628411091
 11
297.39095081122127
 21
92.928410284111009
  0
LINE
  8
_0-4_0-10
  6
CONTINUOUS
 62
    4
 10
296.19095081122134
 20
216.04474628411102
 11
296.19095081122134
 21
224.84474628411101
  0
LINE
  8
_0-4_0-10
  6
CONTINUOUS
 62
    4
 10
296.19095081122134
 20
204.04474628411102
 11
296.19095081122134
 21
215.48358361744431
  0
LINE
  8
_0-4_0-10
  6
CONTINUOUS
 62
    4
 10
296.19095081122134
 20
192.04474628411091
 11
296.19095081122134
 21
203.48358361744431
  0
LINE
  8
_0-4_0-10
  6
CONTINUOUS
 62
    4
 10
296.19095081122134
 20
180.04474628411102
 11
296.19095081122134
 21
191.48358361744431
  0
LINE
  8
_0-4_0-10
  6
CONTINUOUS
 62
    4
 10
296.19095081122134
 20
168.04474628411091
 11
296.19095081122134
 21
179.48358361744431
  0
LINE
  8
_0-4_0-10
  6
CONTINUOUS
 62
    4
 10
296.19095081122134
 20
156.04474628411102
 11
296.19095081122134
 21
167.48358361744431
  0
LINE
  8
_0-4_0-10
  6
CONTINUOUS
 62
    4
 10
296.19095081122134
 20
144.04474628411091
 11
296.19095081122134
 21
155.48358361744431
  0
LINE
  8
_0-4_0-10
  6
CONTINUOUS
 62
    4
 10
296.19095081122134
 20
132.04474628411102
 11
296.19095081122134
 21
143.48358361744431
  0
LINE
  8
_0-4_0-10
  6
CONTINUOUS
 62
    4
 10
296.19095081122134
 20
120.04474628411102
 11
296.19095081122134
 21
131.48358361744431
  0
LINE
  8
_0-4_0-10
  6
CONTINUOUS
 62
    3
 10
302.89095081122138
 20
115.54474628411102
 11
302.89095081122138
 21
91.744746284110988
  0
ARC
  8
_0-4_0-10
  6
CONTINUOUS
 62
    3
 10
302.59095081122131
 20
91.744746284110988
 40
0.2999999999999999
 50
309.92769199999969
 51
0
  0
LINE
  8
_0-4_0-10
  6
CONTINUOUS
 62
    4
 10
295.70029747788794
 20
203.79474628411102
 11
295.92729347788792
 21
203.34924361744432
  0
LINE
  8
_0-4_0-10
  6
CONTINUOUS
 62
    4
 10
295.70029747788794
 20
191.79474628411102
 11
295.92729347788792
 21
191.34924361744432
  0
LINE
  8
_0-4_0-10
  6
CONTINUOUS
 62
    4
 10
295.70029747788794
 20
179.79474628411091
 11
295.92729347788792
 21
179.34924361744421
  0
LINE
  8
_0-4_0-10
  6
CONTINUOUS
 62
    4
 10
295.70029747788794
 20
167.79474628411102
 11
295.92729347788792
 21
167.34924361744432
  0
LINE
  8
_0-4_0-10
  6
CONTINUOUS
 62
    4
 10
295.70029747788794
 20
155.79474628411091
 11
295.92729347788792
 21
155.34924361744421
  0
LINE
  8
_0-4_0-10
  6
CONTINUOUS
 62
    4
 10
295.70029747788794
 20
143.79474628411102
 11
295.92729347788792
 21
143.34924361744432
  0
LINE
  8
_0-4_0-10
  6
CONTINUOUS
 62
    4
 10
295.70029747788794
 20
131.79474628411091
 11
295.92729347788792
 21
131.34924361744432
  0
LINE
  8
_0-4_0-10
  6
CONTINUOUS
 62
    4
 10
295.70029747788794
 20
119.79474628411102
 11
295.92729347788792
 21
119.34924361744432
  0
CIRCLE
  8
_0-1_0-00
  6
CONTINUOUS
 62
    7
 10
245.71047881122129
 20
86.044746284110999
 40
0.0066666666666667
  0
CIRCLE
  8
_0-1_0-00
  6
CONTINUOUS
 62
    7
 10
245.71047881122129
 20
236.04474628411091
 40
0.0066666666666667
  0
CIRCLE
  8
_0-1_0-00
  6
CONTINUOUS
 62
    7
 10
230.64098947788929
 20
236.04474628411091
 40
0.0066666666666667
  0
INSERT
  2
-006-BLKF051_31
  8
_0-4_0-10
 10
-11.296018522112092
 20
-74.564637715888977
 41
1.333333333333333
 42
1.333333333333333
 50
0
  0
LINE
  8
_0-4_0-10
  6
CONTINUOUS
 62
    4
 10
296.19095081122134
 20
108.54474628411102
 11
296.69095081122134
 21
108.54474628411102
  0
LINE
  8
_0-4_0-10
  6
CONTINUOUS
 62
    6
 10
297.69095081122134
 20
224.34474628411101
 11
297.19095081122134
 21
224.34474628411101
  0
LINE
  8
_0-4_0-10
  6
CONTINUOUS
 62
    4
 10
296.69095081122134
 20
224.84474628411101
 11
297.39095081122127
 21
224.84474628411101
  0
LINE
  8
_0-4_0-10
  6
CONTINUOUS
 62
    4
 10
296.69095081122134
 20
225.34474628411101
 11
297.39095081122127
 21
225.34474628411101
  0
ARC
  8
_0-4_0-10
  6
CONTINUOUS
 62
    4
 10
296.69095081122134
 20
224.84474628411101
 40
0.5
 50
90
 51
180
  0
ARC
  8
_0-4_0-10
  6
CONTINUOUS
 62
    4
 10
297.39095081122127
 20
225.34474628411101
 40
0.5
 50
270
 51
0
  0
LINE
  8
_0-4_0-10
  6
CONTINUOUS
 62
    5
 10
296.19095081122134
 20
220.29891028411103
 11
268.41317614455454
 21
212.85587828411092
  0
LINE
  8
_0-4_0-10
  6
CONTINUOUS
 62
    7
 10
300.93679347788804
 20
235.54474628411102
 11
301.8028188112213
 21
235.04474628411102
  0
LINE
  8
_0-4_0-10
  6
CONTINUOUS
 62
    4
 10
296.69095081122134
 20
103.24474628411091
 11
297.39095081122127
 21
103.24474628411091
  0
LINE
  8
_0-4_0-10
  6
CONTINUOUS
 62
    4
 10
296.69095081122134
 20
102.74474628411091
 11
297.39095081122127
 21
102.74474628411091
  0
ARC
  8
_0-4_0-10
  6
CONTINUOUS
 62
    4
 10
296.69095081122134
 20
103.24474628411091
 40
0.5
 50
180
 51
270
  0
ARC
  8
_0-4_0-10
  6
CONTINUOUS
 62
    4
 10
297.39095081122127
 20
102.74474628411091
 40
0.5
 50
0
 51
90
  0
LINE
  8
_0-4_0-10
  6
CONTINUOUS
 62
    6
 10
297.69095081122134
 20
103.74474628411091
 11
297.19095081122134
 21
103.74474628411091
  0
LINE
  8
_0-4_0-10
  6
CONTINUOUS
 62
    4
 10
297.89095081122138
 20
113.06461561744292
 11
297.89095081122138
 21
92.928410284111009
  0
LINE
  8
_0-4_0-10
  6
CONTINUOUS
 62
    6
 10
347.69095081122134
 20
142.78233828411103
 11
347.69095081122134
 21
118.54474628411102
  0
LINE
  8
_0-4_0-10
  6
CONTINUOUS
 62
    6
 10
347.69095081122134
 20
209.54474628411102
 11
347.69095081122134
 21
142.78233814204031
  0
LINE
  8
_0-4_0-10
  6
CONTINUOUS
 62
    3
 10
302.89095081122138
 20
236.04474628411102
 11
302.89095081122138
 21
212.54474628411102
  0
INSERT
  2
-007-_D7
  8
_0-0_0
 10
-0.249998044222508
 20
0.0000013830140233
 41
1
 42
1
 50
0
  0
INSERT
  2
-008-_D8
  8
_0-0_0
 10
-0.249998044222508
 20
0.0000013830140233
 41
1
 42
1
 50
0
  0
INSERT
  2
-009-_D9
  8
_0-0_0
 10
-0.249998044222508
 20
0.0000013830140233
 41
1
 42
1
 50
0
  0
INSERT
  2
-010-_D10
  8
_0-0_0
 10
-0.249998044222508
 20
0.0000013830140233
 41
1
 42
1
 50
0
  0
INSERT
  2
-011-_D11
  8
_0-0_0
 10
-0.249998044222508
 20
0.0000013830140233
 41
1
 42
1
 50
0
  0
INSERT
  2
-012-_D12
  8
_0-0_0
 10
-0.249998044222508
 20
0.0000013830140233
 41
1
 42
1
 50
0
  0
INSERT
  2
-013-_D13
  8
_0-0_0
 10
-0.249998044222508
 20
0.0000013830140233
 41
1
 42
1
 50
0
  0
ARC
  8
_0-4_0-10
  6
CONTINUOUS
 62
    6
 10
301.69095081122134
 20
216.54474628411102
 40
4.5
 50
180
 51
270
  0
LINE
  8
_0-4_0-10
  6
CONTINUOUS
 62
    6
 10
301.69095081122134
 20
212.04474628411102
 11
344.69095081122134
 21
212.04474628411102
  0
ARC
  8
_0-4_0-10
  6
CONTINUOUS
 62
    6
 10
344.69095081122134
 20
209.54474628411102
 40
2.5
 50
0
 51
90
  0
LINE
  8
_0-4_0-10
  6
CONTINUOUS
 62
    6
 10
347.19095081122134
 20
209.54474628411102
 11
347.19095081122134
 21
142.78233814204031
  0
LINE
  8
_0-4_0-10
  6
CONTINUOUS
 62
    6
 10
347.19095081122134
 20
142.78233828411103
 11
347.19095081122134
 21
118.54474628411102
  0
ARC
  8
_0-4_0-10
  6
CONTINUOUS
 62
    6
 10
344.69095081122134
 20
118.54474628411102
 40
2.5
 50
270
 51
0
  0
LINE
  8
_0-4_0-10
  6
CONTINUOUS
 62
    6
 10
344.69095081122134
 20
116.04474628411092
 11
301.69095081122134
 21
116.04474628411092
  0
ARC
  8
_0-4_0-10
  6
CONTINUOUS
 62
    6
 10
301.69095081122134
 20
111.54474628411102
 40
4.5
 50
90
 51
180
  0
LINE
  8
_0-1_0-00
  6
CONTINUOUS
 62
    6
 10
313.13937546875547
 20
141.28858614712331
 11
313.13937546875547
 21
138.26546155808222
  0
LINE
  8
_0-1_0-00
  6
CONTINUOUS
 62
    6
 10
336.27350341396117
 20
144.15576396904242
 11
315.05035386601434
 21
143.28004265397393
  0
ARC
  8
_0-1_0-00
  6
CONTINUOUS
 62
    6
 10
315.13252615368708
 20
141.28858614712331
 40
1.9931506849315059
 50
92.36282999999986
 51
180
  0
ARC
  8
_0-1_0-00
  6
CONTINUOUS
 62
    6
 10
315.13252615368708
 20
138.45484276356171
 40
1.9931506849315059
 50
180
 51
270
  0
LINE
  8
_0-1_0-00
  6
CONTINUOUS
 62
    6
 10
315.13252615368708
 20
136.46169207863152
 11
336.28034124957753
 21
135.70225648959041
  0
LINE
  8
_0-1_0-00
  6
CONTINUOUS
 62
    6
 10
336.27350341396117
 20
144.15576396904242
 11
336.27350341396117
 21
135.70250231150822
  0
LINE
  8
_0-1_0-00
  6
CONTINUOUS
 62
    6
 10
323.41507445505544
 20
140.8908821608233
 11
334.87151192080909
 21
144.09791476356173
  0
LINE
  8
_0-1_0-00
  6
CONTINUOUS
 62
    6
 10
319.47999307149393
 20
140.71834573616442
 11
322.15870387971312
 21
140.71834573616442
  0
LINE
  8
_0-1_0-00
  6
CONTINUOUS
 62
    6
 10
316.06582560574054
 20
140.626989010137
 11
319.33501261943911
 21
140.71636454438362
  0
ARC
  8
_0-1_0-00
  6
CONTINUOUS
 62
    6
 10
322.15870387971312
 20
145.37899907863021
 40
4.660654006849314
 50
270
 51
285.63867299999907
  0
ARC
  8
_0-1_0-00
  6
CONTINUOUS
 62
    6
 10
319.47999307149393
 20
135.4132456539726
 40
5.3050994178082175
 50
90
 51
91.566001999999571
  0
ARC
  8
_0-1_0-00
  6
CONTINUOUS
 62
    6
 10
316.12910149615265
 20
138.63458243479462
 40
1.9931506849315059
 50
91.566001999999571
 51
180
  0
LINE
  8
_0-1_0-00
  6
CONTINUOUS
 62
    6
 10
314.13595081122002
 20
138.63458243479462
 11
314.13595081122002
 21
136.72872377726162
  0
LINE
  8
_0-1_0-00
  6
CONTINUOUS
 62
    6
 10
314.8713555920433
 20
218.39217868137123
 11
313.80738916738448
 21
217.77789761287812
  0
ARC
  8
_0-1_0-00
  6
CONTINUOUS
 62
    6
 10
319.08333078382281
 20
211.09682462657673
 40
8.4239494101639831
 50
65.05598399999873
 51
120.00000000000171
  0
LINE
  8
_0-1_0-00
  6
CONTINUOUS
 62
    6
 10
335.94494177012563
 20
212.54474628411102
 11
322.63598368793236
 21
218.73498996904251
  0
LINE
  8
_0-1_0-00
  6
CONTINUOUS
 62
    6
 10
313.80738916738448
 20
217.77789761287812
 11
314.17603301669953
 21
217.13938780465892
  0
LINE
  8
_0-1_0-00
  6
CONTINUOUS
 62
    6
 10
335.83472850985003
 20
212.04645861287681
 11
322.42584049615152
 21
218.28318257178221
  0
ARC
  8
_0-1_0-00
  6
CONTINUOUS
 62
    6
 10
319.08333078382281
 20
211.09682462657673
 40
7.925661738931109
 50
65.05598399999873
 51
120.00000000000171
  0
LINE
  8
_0-1_0-00
  6
CONTINUOUS
 62
    6
 10
315.12049942765963
 20
217.96064959917953
 11
314.05653300300218
 21
217.34636720191781
  0
LINE
  8
_0-1_0-00
  6
CONTINUOUS
 62
    6
 10
321.93154045505571
 20
216.91275328411103
 11
329.49714979752138
 21
212.54474628411102
  0
ARC
  8
_0-1_0-00
  6
CONTINUOUS
 62
    6
 10
318.5183270440981
 20
209.62192102383571
 40
8.0502336567393282
 50
64.913291999999216
 51
106.17211700000069
  0
LINE
  8
_0-1_0-00
  6
CONTINUOUS
 62
    6
 10
314.7463478386187
 20
216.90996154438363
 11
316.27614546875565
 21
217.35360101013841
  0
ARC
  8
_0-1_0-00
  6
CONTINUOUS
 62
    6
 10
314.60756209889132
 20
217.38853164027543
 40
0.4982876712328767
 50
209.9999999999996
 51
286.17211700000081
  0
LINE
  8
_0-1_0-00
  6
CONTINUOUS
 62
    6
 10
347.19095081122134
 20
207.56186957178093
 11
347.69095081122134
 21
207.56186957178093
  0
LINE
  8
_0-1_0-00
  6
CONTINUOUS
 62
    6
 10
347.19095081122134
 20
120.52095632977471
 11
347.69095081122134
 21
120.52095632977471
  0
TEXT
  8
_0-1_0-00
 62
    7
 10
14.348001955777505
 20
14.122001383014037
 40
3.5099999999999988
 41
1
 50
0
  1
型番：VC100JKP□　　※)□はカラーを示します。
  0
TEXT
  8
_0-1_0-00
 62
    7
 10
356.50000195577752
 20
9.190001383014021
 40
3.8999999999999999
 41
1
 50
0
  1
耐外風フード付換気口
  0
ENDSEC
  0
EOF
