  0
SECTION
  2
HEADER
  9
$ACADVER
  1
AC1009
  9
$INSBASE
 10
0
 20
0
 30
0
  9
$EXTMIN
 10
0
 20
0
  9
$EXTMAX
 10
420
 20
297
  9
$LIMMIN
 10
0
 20
0
  9
$LIMMAX
 10
420
 20
297
  9
$LTSCALE
 40
1
  0
ENDSEC
  0
SECTION
  2
TABLES
  0
TABLE
  2
LTYPE
 70
     9
  0
LTYPE
  2
CONTINUOUS
 70
    64
  3
実線
 72
    65
 73
     0
 40
0.0
  0
LTYPE
  2
DASHED1
 70
    64
  3
--  --  --  --  --  --  --  --  
 72
    65
 73
     2
 40
2.5
 49
1.25
 49
-1.25
  0
LTYPE
  2
DASHED2
 70
    64
  3
----    ----    ----    ----    
 72
    65
 73
     2
 40
5.0
 49
2.5
 49
-2.5
  0
LTYPE
  2
DASHED3
 70
    64
  3
------  ------  ------  ------  
 72
    65
 73
     2
 40
5.0
 49
3.75
 49
-1.25
  0
LTYPE
  2
CENTER1
 70
    64
  3
----- - ----- - ----- - ----- - 
 72
    65
 73
     4
 40
10.0
 49
6.25
 49
-1.25
 49
1.25
 49
-1.25
  0
LTYPE
  2
CENTER2
 70
    64
  3
----------  --  ----------  --  
 72
    65
 73
     4
 40
20.0
 49
12.5
 49
-2.5
 49
2.5
 49
-2.5
  0
LTYPE
  2
PHANTOM1
 70
    64
  3
--- - - --- - - --- - - --- - - 
 72
    65
 73
     6
 40
10.0
 49
3.25
 49
-1.25
 49
1.25
 49
-1.25
 49
1.25
 49
-1.25
  0
LTYPE
  2
PHANTOM2
 70
    64
  3
--------  -  -  --------  -  -  
 72
    65
 73
     6
 40
20.0
 49
10.0
 49
-2.5
 49
1.25
 49
-2.5
 49
1.25
 49
-2.5
  0
LTYPE
  2
DOT
 70
    64
  3
-   -   -   -   -   -   -   -   
 72
    65
 73
     2
 40
2.5
 49
0.625
 49
-1.875
  0
LTYPE
  2
DUMMY
 70
    64
  3
ダミー
 72
    65
 73
     0
 40
0.0
  0
LTYPE
  2
RAND1
 70
    64
  3
ランダム線1
 72
    65
 73
     4
 40
10.0
 49
1.0
 49
-2.0
 49
3.0
 49
-4.0
  0
LTYPE
  2
RAND2
 70
    64
  3
ランダム線2
 72
    65
 73
     4
 40
14.0
 49
2.0
 49
-3.0
 49
4.0
 49
-5.0
  0
LTYPE
  2
RAND3
 70
    64
  3
ランダム線3
 72
    65
 73
     4
 40
18.0
 49
3.0
 49
-4.0
 49
5.0
 49
-6.0
  0
LTYPE
  2
RAND4
 70
    64
  3
ランダム線4
 72
    65
 73
     4
 40
22.0
 49
4.0
 49
-5.0
 49
6.0
 49
-7.0
  0
LTYPE
  2
RAND5
 70
    64
  3
ランダム線5
 72
    65
 73
     4
 40
26.0
 49
5.0
 49
-6.0
 49
7.0
 49
-8.0
  0
LTYPE
  2
LONG1
 70
    64
  3
----------  --  ----------  --  
 72
    65
 73
     4
 40
40.0
 49
32.5
 49
-2.5
 49
2.5
 49
-2.5
  0
LTYPE
  2
LONG2
 70
    64
  3
--------  -  -  --------  -  -  
 72
    65
 73
     6
 40
40.0
 49
30.0
 49
-2.5
 49
1.25
 49
-2.5
 49
1.25
 49
-2.5
  0
LTYPE
  2
LONG3
 70
    64
  3
+++++++++++++++..+++++++++++++++
 72
    65
 73
     2
 40
40.0
 49
37.5
 49
-2.5
  0
LTYPE
  2
LONG4
 70
    64
  3
+++++++++++++++..+++++++++++++++
 72
    65
 73
     2
 40
80.0
 49
75.0
 49
-5.0
  0
LTYPE
  2
LONG5
 70
    64
  3
----------  --  ----------  --  
 72
    65
 73
     4
 40
60.0
 49
37.5
 49
-7.5
 49
7.5
 49
-7.5
  0
LTYPE
  2
dashed
 70
   64
  3
-------   -------------   ------
 72
   65
 73
    2
 40
7.5
 49
6
 49
-1.5
  0
LTYPE
  2
dashed_spaced
 70
   64
  3
----        --------        ----
 72
   65
 73
    2
 40
12
 49
6
 49
-6
  0
LTYPE
  2
long_dashed_dotted
 70
   64
  3
------------- --- --------------
 72
   65
 73
    4
 40
15.25
 49
12
 49
-1.5
 49
0.25
 49
-1.5
  0
LTYPE
  2
long_dashed_double-dotted
 70
   64
  3
----------- --- --- ------------
 72
   65
 73
    6
 40
17
 49
12
 49
-1.5
 49
0.25
 49
-1.5
 49
0.25
 49
-1.5
  0
LTYPE
  2
long_dashed_triplicate-dotted
 70
   64
  3
--------- --- --- --- ----------
 72
   65
 73
    8
 40
18.75
 49
12
 49
-1.5
 49
0.25
 49
-1.5
 49
0.25
 49
-1.5
 49
0.25
 49
-1.5
  0
LTYPE
  2
dotted
 70
   64
  3
   -       -       -       -    
 72
   65
 73
    2
 40
1.75
 49
0.25
 49
-1.5
  0
LTYPE
  2
chain
 70
   64
  3
-------------- -- --------------
 72
   65
 73
    4
 40
18.5
 49
12
 49
-1.5
 49
3.5
 49
-1.5
  0
LTYPE
  2
chain_double_dash
 70
   64
  3
------------ -- -- -------------
 72
   65
 73
    6
 40
23.5
 49
12
 49
-1.5
 49
3.5
 49
-1.5
 49
3.5
 49
-1.5
  0
LTYPE
  2
dashed_dotted
 70
   64
  3
-----------     -     ----------
 72
   65
 73
    4
 40
9.25
 49
6
 49
-1.5
 49
0.25
 49
-1.5
  0
LTYPE
  2
double-dashed_dotted
 70
   64
  3
------   -----------   -   -----
 72
   65
 73
    6
 40
16.75
 49
6
 49
-1.5
 49
6
 49
-1.5
 49
0.25
 49
-1.5
  0
LTYPE
  2
dashed_double-dotted
 70
   64
  3
---------    -    -    ---------
 72
   65
 73
    6
 40
11
 49
6
 49
-1.5
 49
0.25
 49
-1.5
 49
0.25
 49
-1.5
  0
LTYPE
  2
double-dashed_double-dotted
 70
   64
  3
-----   ---------   -   -   ----
 72
   65
 73
    8
 40
18.5
 49
6
 49
-1.5
 49
6
 49
-1.5
 49
0.25
 49
-1.5
 49
0.25
 49
-1.5
  0
LTYPE
  2
dashed_triplicate-dotted
 70
   64
  3
-------    -    -    -    ------
 72
   65
 73
    8
 40
12.75
 49
6
 49
-1.5
 49
0.25
 49
-1.5
 49
0.25
 49
-1.5
 49
0.25
 49
-1.5
  0
LTYPE
  2
double-dashed_triplicate-dotted
 70
   64
  3
-----  ---------  -  -  -  -----
 72
   65
 73
   10
 40
20.25
 49
6
 49
-1.5
 49
6
 49
-1.5
 49
0.25
 49
-1.5
 49
0.25
 49
-1.5
 49
0.25
 49
-1.5
  0
LTYPE
  2
undefined
 70
   64
  3
--------------------------------
 72
   65
 73
    0
 40
0
  0
LTYPE
  2
_
 70
   64
  3
                                
 72
   65
 73
    0
 40
0
  0
LTYPE
  2
__18
 70
   64
  3
                                
 72
   65
 73
    0
 40
0
  0
LTYPE
  2
__19
 70
   64
  3
                                
 72
   65
 73
    0
 40
0
  0
LTYPE
  2
__20
 70
   64
  3
                                
 72
   65
 73
    0
 40
0
  0
LTYPE
  2
__21
 70
   64
  3
                                
 72
   65
 73
    0
 40
0
  0
LTYPE
  2
__22
 70
   64
  3
                                
 72
   65
 73
    0
 40
0
  0
LTYPE
  2
__23
 70
   64
  3
                                
 72
   65
 73
    0
 40
0
  0
LTYPE
  2
__24
 70
   64
  3
                                
 72
   65
 73
    0
 40
0
  0
LTYPE
  2
__25
 70
   64
  3
                                
 72
   65
 73
    0
 40
0
  0
LTYPE
  2
__26
 70
   64
  3
                                
 72
   65
 73
    0
 40
0
  0
LTYPE
  2
__27
 70
   64
  3
                                
 72
   65
 73
    0
 40
0
  0
LTYPE
  2
__28
 70
   64
  3
                                
 72
   65
 73
    0
 40
0
  0
LTYPE
  2
__29
 70
   64
  3
                                
 72
   65
 73
    0
 40
0
  0
LTYPE
  2
__30
 70
   64
  3
                                
 72
   65
 73
    0
 40
0
  0
LTYPE
  2
__31
 70
   64
  3
                                
 72
   65
 73
    0
 40
0
  0
LTYPE
  2
__32
 70
   64
  3
                                
 72
   65
 73
    0
 40
0
  0
ENDTAB
  0
TABLE
  2
STYLE
  5
3
100
AcDbSymbolTable
 70
     1
  0
STYLE
  5
10
100
AcDbSymbolTableRecord
100
AcDbTextStyleTableRecord
  2
STANDARD
 70
     0
 40
0.0
 41
1.0
 50
0.0
 71
     0
 42
0.2
  3
txt
  4
bigfont.shx
  0
STYLE
  5
26
100
AcDbSymbolTableRecord
100
AcDbTextStyleTableRecord
  2
TATEGAKI
 70
    68
 40
0.0
 41
1.0
 50
0.0
 71
     0
 42
1.0
  3
txt
  4
bigfont.shx
  0
ENDTAB
  0
TABLE
  2
LAYER
 70
    4
  0
LAYER
  2
_0-0_0
 70
   64
 62
    7
  6
CONTINUOUS
  0
LAYER
  2
_0-1_0-00
 70
   64
 62
    7
  6
CONTINUOUS
  0
LAYER
  2
_0-2_0-10
 70
   64
 62
    7
  6
CONTINUOUS
  0
LAYER
  2
ADD_LINE
 70
   64
 62
    7
  6
CONTINUOUS
  0
ENDTAB
  0
ENDSEC
  0
SECTION
  2
BLOCKS
  0
BLOCK
  2
-000-BLKF019_2
 70
   64
 10
0
 20
0
 30
0
  0
LINE
  8
_0-0_0
  6
CONTINUOUS
 62
    4
 10
111.728244
 20
214.25727900000001
 11
111.85897699999999
 21
214.26013299999999
  0
LINE
  8
_0-0_0
  6
CONTINUOUS
 62
    4
 10
111.85897699999999
 20
214.26013299999999
 11
111.98871599999999
 21
214.268673
  0
LINE
  8
_0-0_0
  6
CONTINUOUS
 62
    4
 10
111.98871599999999
 20
214.268673
 11
112.116472
 21
214.282834
  0
LINE
  8
_0-0_0
  6
CONTINUOUS
 62
    4
 10
112.116472
 20
214.282834
 11
112.241274
 21
214.30250899999998
  0
LINE
  8
_0-0_0
  6
CONTINUOUS
 62
    4
 10
112.241274
 20
214.30250899999998
 11
112.362171
 21
214.327548
  0
LINE
  8
_0-0_0
  6
CONTINUOUS
 62
    4
 10
112.362171
 20
214.327548
 11
112.478244
 21
214.35776000000001
  0
LINE
  8
_0-0_0
  6
CONTINUOUS
 62
    4
 10
112.478244
 20
214.35776000000001
 11
112.58860799999999
 21
214.39291499999998
  0
LINE
  8
_0-0_0
  6
CONTINUOUS
 62
    4
 10
112.58860799999999
 20
214.39291499999998
 11
112.692425
 21
214.43274500000001
  0
LINE
  8
_0-0_0
  6
CONTINUOUS
 62
    4
 10
112.692425
 20
214.43274500000001
 11
112.788904
 21
214.47694899999999
  0
LINE
  8
_0-0_0
  6
CONTINUOUS
 62
    4
 10
112.788904
 20
214.47694899999999
 11
112.87730999999999
 21
214.52518800000001
  0
LINE
  8
_0-0_0
  6
CONTINUOUS
 62
    4
 10
112.87730999999999
 20
214.52518800000001
 11
112.95697199999999
 21
214.57709600000001
  0
LINE
  8
_0-0_0
  6
CONTINUOUS
 62
    4
 10
112.95697199999999
 20
214.57709600000001
 11
113.02728199999999
 21
214.63227900000001
  0
LINE
  8
_0-0_0
  6
CONTINUOUS
 62
    4
 10
113.02728199999999
 20
214.63227900000001
 11
113.08770499999999
 21
214.69031499999999
  0
LINE
  8
_0-0_0
  6
CONTINUOUS
 62
    4
 10
113.08770499999999
 20
214.69031499999999
 11
113.13778299999999
 21
214.750764
  0
LINE
  8
_0-0_0
  6
CONTINUOUS
 62
    4
 10
113.13778299999999
 20
214.750764
 11
113.177132
 21
214.813164
  0
LINE
  8
_0-0_0
  6
CONTINUOUS
 62
    4
 10
113.177132
 20
214.813164
 11
113.205455
 21
214.87704299999998
  0
LINE
  8
_0-0_0
  6
CONTINUOUS
 62
    4
 10
113.205455
 20
214.87704299999998
 11
113.222536
 21
214.941912
  0
LINE
  8
_0-0_0
  6
CONTINUOUS
 62
    4
 10
113.222536
 20
214.941912
 11
113.228244
 21
215.00727900000001
  0
ENDBLK
  0
BLOCK
  2
-001-BLKF020_3
 70
   64
 10
0
 20
0
 30
0
  0
LINE
  8
_0-0_0
  6
CONTINUOUS
 62
    4
 10
111.728244
 20
214.58203800000001
 11
111.85897699999999
 21
214.58489199999999
  0
LINE
  8
_0-0_0
  6
CONTINUOUS
 62
    4
 10
111.85897699999999
 20
214.58489199999999
 11
111.98871599999999
 21
214.593432
  0
LINE
  8
_0-0_0
  6
CONTINUOUS
 62
    4
 10
111.98871599999999
 20
214.593432
 11
112.116472
 21
214.607594
  0
LINE
  8
_0-0_0
  6
CONTINUOUS
 62
    4
 10
112.116472
 20
214.607594
 11
112.241274
 21
214.62726900000001
  0
LINE
  8
_0-0_0
  6
CONTINUOUS
 62
    4
 10
112.241274
 20
214.62726900000001
 11
112.362171
 21
214.652307
  0
LINE
  8
_0-0_0
  6
CONTINUOUS
 62
    4
 10
112.362171
 20
214.652307
 11
112.478244
 21
214.68251900000001
  0
LINE
  8
_0-0_0
  6
CONTINUOUS
 62
    4
 10
112.478244
 20
214.68251900000001
 11
112.58860799999999
 21
214.71767399999998
  0
LINE
  8
_0-0_0
  6
CONTINUOUS
 62
    4
 10
112.58860799999999
 20
214.71767399999998
 11
112.692425
 21
214.757505
  0
LINE
  8
_0-0_0
  6
CONTINUOUS
 62
    4
 10
112.692425
 20
214.757505
 11
112.788904
 21
214.80170799999999
  0
LINE
  8
_0-0_0
  6
CONTINUOUS
 62
    4
 10
112.788904
 20
214.80170799999999
 11
112.87730999999999
 21
214.84994800000001
  0
LINE
  8
_0-0_0
  6
CONTINUOUS
 62
    4
 10
112.87730999999999
 20
214.84994800000001
 11
112.95697199999999
 21
214.901856
  0
LINE
  8
_0-0_0
  6
CONTINUOUS
 62
    4
 10
112.95697199999999
 20
214.901856
 11
113.02728199999999
 21
214.95703800000001
  0
LINE
  8
_0-0_0
  6
CONTINUOUS
 62
    4
 10
113.02728199999999
 20
214.95703800000001
 11
113.08770499999999
 21
215.01507499999999
  0
LINE
  8
_0-0_0
  6
CONTINUOUS
 62
    4
 10
113.08770499999999
 20
215.01507499999999
 11
113.13778299999999
 21
215.075523
  0
LINE
  8
_0-0_0
  6
CONTINUOUS
 62
    4
 10
113.13778299999999
 20
215.075523
 11
113.177132
 21
215.13792399999999
  0
LINE
  8
_0-0_0
  6
CONTINUOUS
 62
    4
 10
113.177132
 20
215.13792399999999
 11
113.205455
 21
215.20180199999998
  0
LINE
  8
_0-0_0
  6
CONTINUOUS
 62
    4
 10
113.205455
 20
215.20180199999998
 11
113.222536
 21
215.266671
  0
LINE
  8
_0-0_0
  6
CONTINUOUS
 62
    4
 10
113.222536
 20
215.266671
 11
113.228244
 21
215.33203800000001
  0
LINE
  8
_0-0_0
  6
CONTINUOUS
 62
    4
 10
113.228244
 20
215.33203800000001
 11
113.222536
 21
215.39740499999999
  0
LINE
  8
_0-0_0
  6
CONTINUOUS
 62
    4
 10
113.222536
 20
215.39740499999999
 11
113.205455
 21
215.462274
  0
LINE
  8
_0-0_0
  6
CONTINUOUS
 62
    4
 10
113.205455
 20
215.462274
 11
113.177132
 21
215.52615299999999
  0
LINE
  8
_0-0_0
  6
CONTINUOUS
 62
    4
 10
113.177132
 20
215.52615299999999
 11
113.13778299999999
 21
215.58855299999999
  0
LINE
  8
_0-0_0
  6
CONTINUOUS
 62
    4
 10
113.13778299999999
 20
215.58855299999999
 11
113.08770499999999
 21
215.64900199999999
  0
LINE
  8
_0-0_0
  6
CONTINUOUS
 62
    4
 10
113.08770499999999
 20
215.64900199999999
 11
113.02728199999999
 21
215.70703800000001
  0
LINE
  8
_0-0_0
  6
CONTINUOUS
 62
    4
 10
113.02728199999999
 20
215.70703800000001
 11
112.95697199999999
 21
215.76222100000001
  0
LINE
  8
_0-0_0
  6
CONTINUOUS
 62
    4
 10
112.95697199999999
 20
215.76222100000001
 11
112.87730999999999
 21
215.814129
  0
LINE
  8
_0-0_0
  6
CONTINUOUS
 62
    4
 10
112.87730999999999
 20
215.814129
 11
112.788904
 21
215.862368
  0
LINE
  8
_0-0_0
  6
CONTINUOUS
 62
    4
 10
112.788904
 20
215.862368
 11
112.692425
 21
215.90657200000001
  0
LINE
  8
_0-0_0
  6
CONTINUOUS
 62
    4
 10
112.692425
 20
215.90657200000001
 11
112.58860799999999
 21
215.946402
  0
LINE
  8
_0-0_0
  6
CONTINUOUS
 62
    4
 10
112.58860799999999
 20
215.946402
 11
112.478244
 21
215.981557
  0
LINE
  8
_0-0_0
  6
CONTINUOUS
 62
    4
 10
112.478244
 20
215.981557
 11
112.434126
 21
215.99380300000001
  0
ENDBLK
  0
BLOCK
  2
-002-BLKF021_4
 70
   64
 10
0
 20
0
 30
0
  0
LINE
  8
_0-0_0
  6
CONTINUOUS
 62
    4
 10
120.75561999999999
 20
205.25727900000001
 11
120.919037
 21
205.26084599999998
  0
LINE
  8
_0-0_0
  6
CONTINUOUS
 62
    4
 10
120.919037
 20
205.26084599999998
 11
121.08121099999999
 21
205.271522
  0
LINE
  8
_0-0_0
  6
CONTINUOUS
 62
    4
 10
121.08121099999999
 20
205.271522
 11
121.24090599999999
 21
205.28922299999999
  0
LINE
  8
_0-0_0
  6
CONTINUOUS
 62
    4
 10
121.24090599999999
 20
205.28922299999999
 11
121.39690799999999
 21
205.313817
  0
LINE
  8
_0-0_0
  6
CONTINUOUS
 62
    4
 10
121.39690799999999
 20
205.313817
 11
121.54802899999999
 21
205.34511499999999
  0
LINE
  8
_0-0_0
  6
CONTINUOUS
 62
    4
 10
121.54802899999999
 20
205.34511499999999
 11
121.69311999999999
 21
205.38288
  0
LINE
  8
_0-0_0
  6
CONTINUOUS
 62
    4
 10
121.69311999999999
 20
205.38288
 11
121.83107599999999
 21
205.42682400000001
  0
LINE
  8
_0-0_0
  6
CONTINUOUS
 62
    4
 10
121.83107599999999
 20
205.42682400000001
 11
121.960847
 21
205.47661199999998
  0
LINE
  8
_0-0_0
  6
CONTINUOUS
 62
    4
 10
121.960847
 20
205.47661199999998
 11
122.081445
 21
205.531866
  0
LINE
  8
_0-0_0
  6
CONTINUOUS
 62
    4
 10
122.081445
 20
205.531866
 11
122.19195399999999
 21
205.59216499999999
  0
LINE
  8
_0-0_0
  6
CONTINUOUS
 62
    4
 10
122.19195399999999
 20
205.59216499999999
 11
122.29152999999999
 21
205.65705099999999
  0
LINE
  8
_0-0_0
  6
CONTINUOUS
 62
    4
 10
122.29152999999999
 20
205.65705099999999
 11
122.379418
 21
205.72602900000001
  0
LINE
  8
_0-0_0
  6
CONTINUOUS
 62
    4
 10
122.379418
 20
205.72602900000001
 11
122.454947
 21
205.798574
  0
LINE
  8
_0-0_0
  6
CONTINUOUS
 62
    4
 10
122.454947
 20
205.798574
 11
122.517544
 21
205.87413499999999
  0
LINE
  8
_0-0_0
  6
CONTINUOUS
 62
    4
 10
122.517544
 20
205.87413499999999
 11
122.566731
 21
205.95213599999999
  0
LINE
  8
_0-0_0
  6
CONTINUOUS
 62
    4
 10
122.566731
 20
205.95213599999999
 11
122.602135
 21
206.03198399999999
  0
LINE
  8
_0-0_0
  6
CONTINUOUS
 62
    4
 10
122.602135
 20
206.03198399999999
 11
122.623485
 21
206.11306999999999
  0
LINE
  8
_0-0_0
  6
CONTINUOUS
 62
    4
 10
122.623485
 20
206.11306999999999
 11
122.63061999999999
 21
206.19477900000001
  0
ENDBLK
  0
BLOCK
  2
-003-BLKF022_5
 70
   64
 10
0
 20
0
 30
0
  0
LINE
  8
_0-0_0
  6
CONTINUOUS
 62
    4
 10
120.75561999999999
 20
205.58203800000001
 11
120.919037
 21
205.58560600000001
  0
LINE
  8
_0-0_0
  6
CONTINUOUS
 62
    4
 10
120.919037
 20
205.58560600000001
 11
121.08121099999999
 21
205.596281
  0
LINE
  8
_0-0_0
  6
CONTINUOUS
 62
    4
 10
121.08121099999999
 20
205.596281
 11
121.24090599999999
 21
205.61398299999999
  0
LINE
  8
_0-0_0
  6
CONTINUOUS
 62
    4
 10
121.24090599999999
 20
205.61398299999999
 11
121.39690799999999
 21
205.638576
  0
LINE
  8
_0-0_0
  6
CONTINUOUS
 62
    4
 10
121.39690799999999
 20
205.638576
 11
121.54802899999999
 21
205.66987499999999
  0
LINE
  8
_0-0_0
  6
CONTINUOUS
 62
    4
 10
121.54802899999999
 20
205.66987499999999
 11
121.69311999999999
 21
205.707639
  0
LINE
  8
_0-0_0
  6
CONTINUOUS
 62
    4
 10
121.69311999999999
 20
205.707639
 11
121.83107599999999
 21
205.75158300000001
  0
LINE
  8
_0-0_0
  6
CONTINUOUS
 62
    4
 10
121.83107599999999
 20
205.75158300000001
 11
121.960847
 21
205.80137199999998
  0
LINE
  8
_0-0_0
  6
CONTINUOUS
 62
    4
 10
121.960847
 20
205.80137199999998
 11
122.081445
 21
205.856626
  0
LINE
  8
_0-0_0
  6
CONTINUOUS
 62
    4
 10
122.081445
 20
205.856626
 11
122.19195399999999
 21
205.91692499999999
  0
LINE
  8
_0-0_0
  6
CONTINUOUS
 62
    4
 10
122.19195399999999
 20
205.91692499999999
 11
122.29152999999999
 21
205.98180999999999
  0
LINE
  8
_0-0_0
  6
CONTINUOUS
 62
    4
 10
122.29152999999999
 20
205.98180999999999
 11
122.379418
 21
206.05078800000001
  0
LINE
  8
_0-0_0
  6
CONTINUOUS
 62
    4
 10
122.379418
 20
206.05078800000001
 11
122.454947
 21
206.12333399999999
  0
LINE
  8
_0-0_0
  6
CONTINUOUS
 62
    4
 10
122.454947
 20
206.12333399999999
 11
122.517544
 21
206.19889399999999
  0
LINE
  8
_0-0_0
  6
CONTINUOUS
 62
    4
 10
122.517544
 20
206.19889399999999
 11
122.566731
 21
206.27689499999999
  0
LINE
  8
_0-0_0
  6
CONTINUOUS
 62
    4
 10
122.566731
 20
206.27689499999999
 11
122.602135
 21
206.35674299999999
  0
LINE
  8
_0-0_0
  6
CONTINUOUS
 62
    4
 10
122.602135
 20
206.35674299999999
 11
122.623485
 21
206.43782999999999
  0
LINE
  8
_0-0_0
  6
CONTINUOUS
 62
    4
 10
122.623485
 20
206.43782999999999
 11
122.63061999999999
 21
206.51953800000001
  0
LINE
  8
_0-0_0
  6
CONTINUOUS
 62
    4
 10
122.63061999999999
 20
206.51953800000001
 11
122.623485
 21
206.601247
  0
LINE
  8
_0-0_0
  6
CONTINUOUS
 62
    4
 10
122.623485
 20
206.601247
 11
122.602135
 21
206.68233299999999
  0
LINE
  8
_0-0_0
  6
CONTINUOUS
 62
    4
 10
122.602135
 20
206.68233299999999
 11
122.566731
 21
206.76218099999999
  0
LINE
  8
_0-0_0
  6
CONTINUOUS
 62
    4
 10
122.566731
 20
206.76218099999999
 11
122.517544
 21
206.84018199999999
  0
LINE
  8
_0-0_0
  6
CONTINUOUS
 62
    4
 10
122.517544
 20
206.84018199999999
 11
122.454947
 21
206.91574299999999
  0
LINE
  8
_0-0_0
  6
CONTINUOUS
 62
    4
 10
122.454947
 20
206.91574299999999
 11
122.379418
 21
206.98828800000001
  0
LINE
  8
_0-0_0
  6
CONTINUOUS
 62
    4
 10
122.379418
 20
206.98828800000001
 11
122.29152999999999
 21
207.05726599999999
  0
ENDBLK
  0
BLOCK
  2
-004-BLKF023_6
 70
   64
 10
0
 20
0
 30
0
  0
LINE
  8
_0-0_0
  6
CONTINUOUS
 62
    4
 10
115.881061
 20
208.76953800000001
 11
115.91374399999999
 21
208.77025199999999
  0
LINE
  8
_0-0_0
  6
CONTINUOUS
 62
    4
 10
115.91374399999999
 20
208.77025199999999
 11
115.946179
 21
208.772387
  0
LINE
  8
_0-0_0
  6
CONTINUOUS
 62
    4
 10
115.946179
 20
208.772387
 11
115.97811799999999
 21
208.77592699999999
  0
LINE
  8
_0-0_0
  6
CONTINUOUS
 62
    4
 10
115.97811799999999
 20
208.77592699999999
 11
116.00931799999999
 21
208.78084599999999
  0
LINE
  8
_0-0_0
  6
CONTINUOUS
 62
    4
 10
116.00931799999999
 20
208.78084599999999
 11
116.03954299999999
 21
208.78710599999999
  0
LINE
  8
_0-0_0
  6
CONTINUOUS
 62
    4
 10
116.03954299999999
 20
208.78710599999999
 11
116.068561
 21
208.79465899999999
  0
LINE
  8
_0-0_0
  6
CONTINUOUS
 62
    4
 10
116.068561
 20
208.79465899999999
 11
116.096152
 21
208.803447
  0
LINE
  8
_0-0_0
  6
CONTINUOUS
 62
    4
 10
116.096152
 20
208.803447
 11
116.122106
 21
208.81340499999998
  0
LINE
  8
_0-0_0
  6
CONTINUOUS
 62
    4
 10
116.122106
 20
208.81340499999998
 11
116.14622599999999
 21
208.82445599999999
  0
LINE
  8
_0-0_0
  6
CONTINUOUS
 62
    4
 10
116.14622599999999
 20
208.82445599999999
 11
116.168327
 21
208.83651599999998
  0
LINE
  8
_0-0_0
  6
CONTINUOUS
 62
    4
 10
116.168327
 20
208.83651599999998
 11
116.18824299999999
 21
208.84949299999999
  0
LINE
  8
_0-0_0
  6
CONTINUOUS
 62
    4
 10
116.18824299999999
 20
208.84949299999999
 11
116.20582
 21
208.86328800000001
  0
LINE
  8
_0-0_0
  6
CONTINUOUS
 62
    4
 10
116.20582
 20
208.86328800000001
 11
116.220926
 21
208.87779699999998
  0
LINE
  8
_0-0_0
  6
CONTINUOUS
 62
    4
 10
116.220926
 20
208.87779699999998
 11
116.233446
 21
208.89291
  0
LINE
  8
_0-0_0
  6
CONTINUOUS
 62
    4
 10
116.233446
 20
208.89291
 11
116.243283
 21
208.90851
  0
LINE
  8
_0-0_0
  6
CONTINUOUS
 62
    4
 10
116.243283
 20
208.90851
 11
116.250364
 21
208.92447899999999
  0
LINE
  8
_0-0_0
  6
CONTINUOUS
 62
    4
 10
116.250364
 20
208.92447899999999
 11
116.25463399999999
 21
208.940697
  0
LINE
  8
_0-0_0
  6
CONTINUOUS
 62
    4
 10
116.25463399999999
 20
208.940697
 11
116.256061
 21
208.95703800000001
  0
ENDBLK
  0
BLOCK
  2
-005-BLKF024_7
 70
   64
 10
0
 20
0
 30
0
  0
LINE
  8
_0-0_0
  6
CONTINUOUS
 62
    4
 10
125.409913
 20
196.25727900000001
 11
125.606013
 21
196.26156
  0
LINE
  8
_0-0_0
  6
CONTINUOUS
 62
    4
 10
125.606013
 20
196.26156
 11
125.800621
 21
196.27437
  0
LINE
  8
_0-0_0
  6
CONTINUOUS
 62
    4
 10
125.800621
 20
196.27437
 11
125.99225599999999
 21
196.295612
  0
LINE
  8
_0-0_0
  6
CONTINUOUS
 62
    4
 10
125.99225599999999
 20
196.295612
 11
126.17945799999999
 21
196.32512500000001
  0
LINE
  8
_0-0_0
  6
CONTINUOUS
 62
    4
 10
126.17945799999999
 20
196.32512500000001
 11
126.360804
 21
196.362683
  0
LINE
  8
_0-0_0
  6
CONTINUOUS
 62
    4
 10
126.360804
 20
196.362683
 11
126.534913
 21
196.40799999999998
  0
LINE
  8
_0-0_0
  6
CONTINUOUS
 62
    4
 10
126.534913
 20
196.40799999999998
 11
126.70046
 21
196.460733
  0
LINE
  8
_0-0_0
  6
CONTINUOUS
 62
    4
 10
126.70046
 20
196.460733
 11
126.85618499999999
 21
196.52047899999999
  0
LINE
  8
_0-0_0
  6
CONTINUOUS
 62
    4
 10
126.85618499999999
 20
196.52047899999999
 11
127.00090299999999
 21
196.58678399999999
  0
LINE
  8
_0-0_0
  6
CONTINUOUS
 62
    4
 10
127.00090299999999
 20
196.58678399999999
 11
127.13351299999999
 21
196.659143
  0
LINE
  8
_0-0_0
  6
CONTINUOUS
 62
    4
 10
127.13351299999999
 20
196.659143
 11
127.253005
 21
196.73700500000001
  0
LINE
  8
_0-0_0
  6
CONTINUOUS
 62
    4
 10
127.253005
 20
196.73700500000001
 11
127.35846999999999
 21
196.81977900000001
  0
LINE
  8
_0-0_0
  6
CONTINUOUS
 62
    4
 10
127.35846999999999
 20
196.81977900000001
 11
127.449105
 21
196.906833
  0
LINE
  8
_0-0_0
  6
CONTINUOUS
 62
    4
 10
127.449105
 20
196.906833
 11
127.52422099999999
 21
196.99750599999998
  0
LINE
  8
_0-0_0
  6
CONTINUOUS
 62
    4
 10
127.52422099999999
 20
196.99750599999998
 11
127.583246
 21
197.09110699999999
  0
LINE
  8
_0-0_0
  6
CONTINUOUS
 62
    4
 10
127.583246
 20
197.09110699999999
 11
127.62573
 21
197.186925
  0
LINE
  8
_0-0_0
  6
CONTINUOUS
 62
    4
 10
127.62573
 20
197.186925
 11
127.651351
 21
197.28422900000001
  0
LINE
  8
_0-0_0
  6
CONTINUOUS
 62
    4
 10
127.651351
 20
197.28422900000001
 11
127.659913
 21
197.38227900000001
  0
ENDBLK
  0
BLOCK
  2
-006-BLKF025_8
 70
   64
 10
0
 20
0
 30
0
  0
LINE
  8
_0-0_0
  6
CONTINUOUS
 62
    4
 10
125.409913
 20
196.58203800000001
 11
125.606013
 21
196.586319
  0
LINE
  8
_0-0_0
  6
CONTINUOUS
 62
    4
 10
125.606013
 20
196.586319
 11
125.800621
 21
196.59913
  0
LINE
  8
_0-0_0
  6
CONTINUOUS
 62
    4
 10
125.800621
 20
196.59913
 11
125.99225599999999
 21
196.620372
  0
LINE
  8
_0-0_0
  6
CONTINUOUS
 62
    4
 10
125.99225599999999
 20
196.620372
 11
126.17945799999999
 21
196.64988399999998
  0
LINE
  8
_0-0_0
  6
CONTINUOUS
 62
    4
 10
126.17945799999999
 20
196.64988399999998
 11
126.360804
 21
196.687442
  0
LINE
  8
_0-0_0
  6
CONTINUOUS
 62
    4
 10
126.360804
 20
196.687442
 11
126.534913
 21
196.73276000000001
  0
LINE
  8
_0-0_0
  6
CONTINUOUS
 62
    4
 10
126.534913
 20
196.73276000000001
 11
126.70046
 21
196.785492
  0
LINE
  8
_0-0_0
  6
CONTINUOUS
 62
    4
 10
126.70046
 20
196.785492
 11
126.85618499999999
 21
196.84523799999999
  0
LINE
  8
_0-0_0
  6
CONTINUOUS
 62
    4
 10
126.85618499999999
 20
196.84523799999999
 11
127.00090299999999
 21
196.91154299999999
  0
LINE
  8
_0-0_0
  6
CONTINUOUS
 62
    4
 10
127.00090299999999
 20
196.91154299999999
 11
127.13351299999999
 21
196.983902
  0
LINE
  8
_0-0_0
  6
CONTINUOUS
 62
    4
 10
127.13351299999999
 20
196.983902
 11
127.253005
 21
197.061765
  0
LINE
  8
_0-0_0
  6
CONTINUOUS
 62
    4
 10
127.253005
 20
197.061765
 11
127.35846999999999
 21
197.14453800000001
  0
LINE
  8
_0-0_0
  6
CONTINUOUS
 62
    4
 10
127.35846999999999
 20
197.14453800000001
 11
127.449105
 21
197.231593
  0
LINE
  8
_0-0_0
  6
CONTINUOUS
 62
    4
 10
127.449105
 20
197.231593
 11
127.52422099999999
 21
197.32226600000001
  0
LINE
  8
_0-0_0
  6
CONTINUOUS
 62
    4
 10
127.52422099999999
 20
197.32226600000001
 11
127.583246
 21
197.41586699999999
  0
LINE
  8
_0-0_0
  6
CONTINUOUS
 62
    4
 10
127.583246
 20
197.41586699999999
 11
127.62573
 21
197.511684
  0
LINE
  8
_0-0_0
  6
CONTINUOUS
 62
    4
 10
127.62573
 20
197.511684
 11
127.651351
 21
197.60898800000001
  0
LINE
  8
_0-0_0
  6
CONTINUOUS
 62
    4
 10
127.651351
 20
197.60898800000001
 11
127.659913
 21
197.70703800000001
  0
LINE
  8
_0-0_0
  6
CONTINUOUS
 62
    4
 10
127.659913
 20
197.70703800000001
 11
127.651351
 21
197.805089
  0
ENDBLK
  0
BLOCK
  2
-007-BLKF026_9
 70
   64
 10
0
 20
0
 30
0
  0
LINE
  8
_0-0_0
  6
CONTINUOUS
 62
    4
 10
123.519023
 20
199.76953800000001
 11
123.55170699999999
 21
199.77025199999999
  0
LINE
  8
_0-0_0
  6
CONTINUOUS
 62
    4
 10
123.55170699999999
 20
199.77025199999999
 11
123.584141
 21
199.772387
  0
LINE
  8
_0-0_0
  6
CONTINUOUS
 62
    4
 10
123.584141
 20
199.772387
 11
123.61608099999999
 21
199.77592699999999
  0
LINE
  8
_0-0_0
  6
CONTINUOUS
 62
    4
 10
123.61608099999999
 20
199.77592699999999
 11
123.647281
 21
199.78084599999999
  0
LINE
  8
_0-0_0
  6
CONTINUOUS
 62
    4
 10
123.647281
 20
199.78084599999999
 11
123.67750499999999
 21
199.78710599999999
  0
LINE
  8
_0-0_0
  6
CONTINUOUS
 62
    4
 10
123.67750499999999
 20
199.78710599999999
 11
123.706523
 21
199.79465899999999
  0
LINE
  8
_0-0_0
  6
CONTINUOUS
 62
    4
 10
123.706523
 20
199.79465899999999
 11
123.734115
 21
199.803447
  0
LINE
  8
_0-0_0
  6
CONTINUOUS
 62
    4
 10
123.734115
 20
199.803447
 11
123.760069
 21
199.81340499999998
  0
LINE
  8
_0-0_0
  6
CONTINUOUS
 62
    4
 10
123.760069
 20
199.81340499999998
 11
123.784188
 21
199.82445599999999
  0
LINE
  8
_0-0_0
  6
CONTINUOUS
 62
    4
 10
123.784188
 20
199.82445599999999
 11
123.80629
 21
199.83651599999998
  0
LINE
  8
_0-0_0
  6
CONTINUOUS
 62
    4
 10
123.80629
 20
199.83651599999998
 11
123.826205
 21
199.84949299999999
  0
LINE
  8
_0-0_0
  6
CONTINUOUS
 62
    4
 10
123.826205
 20
199.84949299999999
 11
123.843783
 21
199.86328800000001
  0
LINE
  8
_0-0_0
  6
CONTINUOUS
 62
    4
 10
123.843783
 20
199.86328800000001
 11
123.858889
 21
199.87779699999998
  0
LINE
  8
_0-0_0
  6
CONTINUOUS
 62
    4
 10
123.858889
 20
199.87779699999998
 11
123.871408
 21
199.89291
  0
LINE
  8
_0-0_0
  6
CONTINUOUS
 62
    4
 10
123.871408
 20
199.89291
 11
123.881246
 21
199.90851
  0
LINE
  8
_0-0_0
  6
CONTINUOUS
 62
    4
 10
123.881246
 20
199.90851
 11
123.888326
 21
199.92447899999999
  0
ENDBLK
  0
BLOCK
  2
-008-BLKF027_10
 70
   64
 10
0
 20
0
 30
0
  0
LINE
  8
_0-0_0
  6
CONTINUOUS
 62
    4
 10
127.592415
 20
187.25727900000001
 11
127.85388299999999
 21
187.262987
  0
LINE
  8
_0-0_0
  6
CONTINUOUS
 62
    4
 10
127.85388299999999
 20
187.262987
 11
128.11336
 21
187.280067
  0
LINE
  8
_0-0_0
  6
CONTINUOUS
 62
    4
 10
128.11336
 20
187.280067
 11
128.36887200000001
 21
187.30839
  0
LINE
  8
_0-0_0
  6
CONTINUOUS
 62
    4
 10
128.36887200000001
 20
187.30839
 11
128.61847599999998
 21
187.34773999999998
  0
LINE
  8
_0-0_0
  6
CONTINUOUS
 62
    4
 10
128.61847599999998
 20
187.34773999999998
 11
128.86027000000001
 21
187.397817
  0
LINE
  8
_0-0_0
  6
CONTINUOUS
 62
    4
 10
128.86027000000001
 20
187.397817
 11
129.09241499999998
 21
187.45824099999998
  0
LINE
  8
_0-0_0
  6
CONTINUOUS
 62
    4
 10
129.09241499999998
 20
187.45824099999998
 11
129.31314499999999
 21
187.52855099999999
  0
LINE
  8
_0-0_0
  6
CONTINUOUS
 62
    4
 10
129.31314499999999
 20
187.52855099999999
 11
129.520778
 21
187.608212
  0
LINE
  8
_0-0_0
  6
CONTINUOUS
 62
    4
 10
129.520778
 20
187.608212
 11
129.71373600000001
 21
187.69661899999999
  0
LINE
  8
_0-0_0
  6
CONTINUOUS
 62
    4
 10
129.71373600000001
 20
187.69661899999999
 11
129.89054899999999
 21
187.79309699999998
  0
LINE
  8
_0-0_0
  6
CONTINUOUS
 62
    4
 10
129.89054899999999
 20
187.79309699999998
 11
130.04987099999999
 21
187.896914
  0
LINE
  8
_0-0_0
  6
CONTINUOUS
 62
    4
 10
130.04987099999999
 20
187.896914
 11
130.190491
 21
188.00727900000001
  0
LINE
  8
_0-0_0
  6
CONTINUOUS
 62
    4
 10
130.190491
 20
188.00727900000001
 11
130.311339
 21
188.12335100000001
  0
LINE
  8
_0-0_0
  6
CONTINUOUS
 62
    4
 10
130.311339
 20
188.12335100000001
 11
130.411493
 21
188.24424899999999
  0
LINE
  8
_0-0_0
  6
CONTINUOUS
 62
    4
 10
130.411493
 20
188.24424899999999
 11
130.490193
 21
188.36904999999998
  0
LINE
  8
_0-0_0
  6
CONTINUOUS
 62
    4
 10
130.490193
 20
188.36904999999998
 11
130.51552499999999
 21
188.41985199999999
  0
ENDBLK
  0
BLOCK
  2
-009-BLKF028_11
 70
   64
 10
0
 20
0
 30
0
  0
LINE
  8
_0-0_0
  6
CONTINUOUS
 62
    4
 10
127.592415
 20
187.58203800000001
 11
127.85388299999999
 21
187.587746
  0
LINE
  8
_0-0_0
  6
CONTINUOUS
 62
    4
 10
127.85388299999999
 20
187.587746
 11
128.11336
 21
187.604827
  0
LINE
  8
_0-0_0
  6
CONTINUOUS
 62
    4
 10
128.11336
 20
187.604827
 11
128.36887200000001
 21
187.63315
  0
LINE
  8
_0-0_0
  6
CONTINUOUS
 62
    4
 10
128.36887200000001
 20
187.63315
 11
128.61847599999998
 21
187.6724989999999
  0
LINE
  8
_0-0_0
  6
CONTINUOUS
 62
    4
 10
128.61847599999998
 20
187.6724989999999
 11
128.86027000000001
 21
187.722577
  0
LINE
  8
_0-0_0
  6
CONTINUOUS
 62
    4
 10
128.86027000000001
 20
187.722577
 11
129.09241499999998
 21
187.78299999999998
  0
LINE
  8
_0-0_0
  6
CONTINUOUS
 62
    4
 10
129.09241499999998
 20
187.78299999999998
 11
129.31314499999999
 21
187.85330999999999
  0
LINE
  8
_0-0_0
  6
CONTINUOUS
 62
    4
 10
129.31314499999999
 20
187.85330999999999
 11
129.520778
 21
187.932972
  0
LINE
  8
_0-0_0
  6
CONTINUOUS
 62
    4
 10
129.520778
 20
187.932972
 11
129.71373600000001
 21
188.02137799999999
  0
LINE
  8
_0-0_0
  6
CONTINUOUS
 62
    4
 10
129.71373600000001
 20
188.02137799999999
 11
129.89054899999999
 21
188.11785699999998
  0
LINE
  8
_0-0_0
  6
CONTINUOUS
 62
    4
 10
129.89054899999999
 20
188.11785699999998
 11
130.04987099999999
 21
188.221674
  0
LINE
  8
_0-0_0
  6
CONTINUOUS
 62
    4
 10
130.04987099999999
 20
188.221674
 11
130.190491
 21
188.33203800000001
  0
LINE
  8
_0-0_0
  6
CONTINUOUS
 62
    4
 10
130.190491
 20
188.33203800000001
 11
130.311339
 21
188.44811100000001
  0
LINE
  8
_0-0_0
  6
CONTINUOUS
 62
    4
 10
130.311339
 20
188.44811100000001
 11
130.411493
 21
188.56900799999999
  0
LINE
  8
_0-0_0
  6
CONTINUOUS
 62
    4
 10
130.411493
 20
188.56900799999999
 11
130.490193
 21
188.69381000000001
  0
LINE
  8
_0-0_0
  6
CONTINUOUS
 62
    4
 10
130.490193
 20
188.69381000000001
 11
130.51552499999999
 21
188.74461199999998
  0
ENDBLK
  0
BLOCK
  2
-010-BLKF029_12
 70
   64
 10
0
 20
0
 30
0
  0
LINE
  8
_0-0_0
  6
CONTINUOUS
 62
    4
 10
127.655415
 20
190.76953800000001
 11
127.70117199999999
 21
190.77053699999999
  0
LINE
  8
_0-0_0
  6
CONTINUOUS
 62
    4
 10
127.70117199999999
 20
190.77053699999999
 11
127.746581
 21
190.773526
  0
LINE
  8
_0-0_0
  6
CONTINUOUS
 62
    4
 10
127.746581
 20
190.773526
 11
127.791295
 21
190.77848299999999
  0
LINE
  8
_0-0_0
  6
CONTINUOUS
 62
    4
 10
127.791295
 20
190.77848299999999
 11
127.83497599999999
 21
190.785369
  0
LINE
  8
_0-0_0
  6
CONTINUOUS
 62
    4
 10
127.83497599999999
 20
190.785369
 11
127.87729
 21
190.79413299999998
  0
LINE
  8
_0-0_0
  6
CONTINUOUS
 62
    4
 10
127.87729
 20
190.79413299999998
 11
127.91791499999999
 21
190.804707
  0
LINE
  8
_0-0_0
  6
CONTINUOUS
 62
    4
 10
127.91791499999999
 20
190.804707
 11
127.95654299999999
 21
190.817011
  0
LINE
  8
_0-0_0
  6
CONTINUOUS
 62
    4
 10
127.95654299999999
 20
190.817011
 11
127.992879
 21
190.83095199999999
  0
LINE
  8
_0-0_0
  6
CONTINUOUS
 62
    4
 10
127.992879
 20
190.83095199999999
 11
128.02664599999999
 21
190.84642299999998
  0
LINE
  8
_0-0_0
  6
CONTINUOUS
 62
    4
 10
128.02664599999999
 20
190.84642299999998
 11
128.057589
 21
190.86330699999999
  0
LINE
  8
_0-0_0
  6
CONTINUOUS
 62
    4
 10
128.057589
 20
190.86330699999999
 11
128.08546999999998
 21
190.88147399999999
  0
LINE
  8
_0-0_0
  6
CONTINUOUS
 62
    4
 10
128.08546999999998
 20
190.88147399999999
 11
128.11007900000001
 21
190.900788
  0
LINE
  8
_0-0_0
  6
CONTINUOUS
 62
    4
 10
128.11007900000001
 20
190.900788
 11
128.13122699999999
 21
190.92110099999999
  0
LINE
  8
_0-0_0
  6
CONTINUOUS
 62
    4
 10
128.13122699999999
 20
190.92110099999999
 11
128.13867999999999
 21
190.929471
  0
ENDBLK
  0
BLOCK
  2
-011-BLKF030_13
 70
   64
 10
0
 20
0
 30
0
  0
LINE
  8
_0-0_0
  6
CONTINUOUS
 62
    4
 10
127.828252
 20
178.25727900000001
 11
128.15508600000001
 21
178.26441399999998
  0
LINE
  8
_0-0_0
  6
CONTINUOUS
 62
    4
 10
128.15508600000001
 20
178.26441399999998
 11
128.479433
 21
178.285764
  0
LINE
  8
_0-0_0
  6
CONTINUOUS
 62
    4
 10
128.479433
 20
178.285764
 11
128.79882399999999
 21
178.321168
  0
LINE
  8
_0-0_0
  6
CONTINUOUS
 62
    4
 10
128.79882399999999
 20
178.321168
 11
129.11082799999999
 21
178.37035499999998
  0
LINE
  8
_0-0_0
  6
CONTINUOUS
 62
    4
 10
129.11082799999999
 20
178.37035499999998
 11
129.413071
 21
178.432952
  0
LINE
  8
_0-0_0
  6
CONTINUOUS
 62
    4
 10
129.413071
 20
178.432952
 11
129.70325199999999
 21
178.50848099999998
  0
LINE
  8
_0-0_0
  6
CONTINUOUS
 62
    4
 10
129.70325199999999
 20
178.50848099999998
 11
129.97916399999999
 21
178.596369
  0
LINE
  8
_0-0_0
  6
CONTINUOUS
 62
    4
 10
129.97916399999999
 20
178.596369
 11
130.238706
 21
178.69594499999999
  0
LINE
  8
_0-0_0
  6
CONTINUOUS
 62
    4
 10
130.238706
 20
178.69594499999999
 11
130.479903
 21
178.806454
  0
LINE
  8
_0-0_0
  6
CONTINUOUS
 62
    4
 10
130.479903
 20
178.806454
 11
130.70091899999999
 21
178.927052
  0
LINE
  8
_0-0_0
  6
CONTINUOUS
 62
    4
 10
130.70091899999999
 20
178.927052
 11
130.90007199999999
 21
179.056823
  0
LINE
  8
_0-0_0
  6
CONTINUOUS
 62
    4
 10
130.90007199999999
 20
179.056823
 11
131.07584700000001
 21
179.19477900000001
  0
LINE
  8
_0-0_0
  6
CONTINUOUS
 62
    4
 10
131.07584700000001
 20
179.19477900000001
 11
131.22690600000001
 21
179.33986999999999
  0
LINE
  8
_0-0_0
  6
CONTINUOUS
 62
    4
 10
131.22690600000001
 20
179.33986999999999
 11
131.280145
 21
179.39965799999998
  0
ENDBLK
  0
BLOCK
  2
-012-BLKF031_14
 70
   64
 10
0
 20
0
 30
0
  0
LINE
  8
_0-0_0
  6
CONTINUOUS
 62
    4
 10
127.828252
 20
178.58203800000001
 11
128.15508600000001
 21
178.58917299999998
  0
LINE
  8
_0-0_0
  6
CONTINUOUS
 62
    4
 10
128.15508600000001
 20
178.58917299999998
 11
128.479433
 21
178.61052399999999
  0
LINE
  8
_0-0_0
  6
CONTINUOUS
 62
    4
 10
128.479433
 20
178.61052399999999
 11
128.79882399999999
 21
178.645927
  0
LINE
  8
_0-0_0
  6
CONTINUOUS
 62
    4
 10
128.79882399999999
 20
178.645927
 11
129.11082799999999
 21
178.69511499999998
  0
LINE
  8
_0-0_0
  6
CONTINUOUS
 62
    4
 10
129.11082799999999
 20
178.69511499999998
 11
129.413071
 21
178.757711
  0
LINE
  8
_0-0_0
  6
CONTINUOUS
 62
    4
 10
129.413071
 20
178.757711
 11
129.70325199999999
 21
178.83324099999998
  0
LINE
  8
_0-0_0
  6
CONTINUOUS
 62
    4
 10
129.70325199999999
 20
178.83324099999998
 11
129.97916399999999
 21
178.92112800000001
  0
LINE
  8
_0-0_0
  6
CONTINUOUS
 62
    4
 10
129.97916399999999
 20
178.92112800000001
 11
130.238706
 21
179.02070499999999
  0
LINE
  8
_0-0_0
  6
CONTINUOUS
 62
    4
 10
130.238706
 20
179.02070499999999
 11
130.479903
 21
179.131213
  0
LINE
  8
_0-0_0
  6
CONTINUOUS
 62
    4
 10
130.479903
 20
179.131213
 11
130.70091899999999
 21
179.251812
  0
LINE
  8
_0-0_0
  6
CONTINUOUS
 62
    4
 10
130.70091899999999
 20
179.251812
 11
130.90007199999999
 21
179.381582
  0
LINE
  8
_0-0_0
  6
CONTINUOUS
 62
    4
 10
130.90007199999999
 20
179.381582
 11
131.07584700000001
 21
179.51953800000001
  0
LINE
  8
_0-0_0
  6
CONTINUOUS
 62
    4
 10
131.07584700000001
 20
179.51953800000001
 11
131.22690600000001
 21
179.66462899999999
  0
LINE
  8
_0-0_0
  6
CONTINUOUS
 62
    4
 10
131.22690600000001
 20
179.66462899999999
 11
131.280145
 21
179.72441699999998
  0
ENDBLK
  0
BLOCK
  2
-013-BLKF032_15
 70
   64
 10
0
 20
0
 30
0
  0
LINE
  8
_0-0_0
  6
CONTINUOUS
 62
    4
 10
129.13613499999999
 20
181.76953800000001
 11
129.201502
 21
181.77096499999998
  0
LINE
  8
_0-0_0
  6
CONTINUOUS
 62
    4
 10
129.201502
 20
181.77096499999998
 11
129.26637099999999
 21
181.775235
  0
LINE
  8
_0-0_0
  6
CONTINUOUS
 62
    4
 10
129.26637099999999
 20
181.775235
 11
129.330249
 21
181.782316
  0
LINE
  8
_0-0_0
  6
CONTINUOUS
 62
    4
 10
129.330249
 20
181.782316
 11
129.39265
 21
181.79215400000001
  0
LINE
  8
_0-0_0
  6
CONTINUOUS
 62
    4
 10
129.39265
 20
181.79215400000001
 11
129.453099
 21
181.804673
  0
LINE
  8
_0-0_0
  6
CONTINUOUS
 62
    4
 10
129.453099
 20
181.804673
 11
129.51113499999999
 21
181.81977900000001
  0
LINE
  8
_0-0_0
  6
CONTINUOUS
 62
    4
 10
129.51113499999999
 20
181.81977900000001
 11
129.56631699999999
 21
181.83735599999999
  0
LINE
  8
_0-0_0
  6
CONTINUOUS
 62
    4
 10
129.56631699999999
 20
181.83735599999999
 11
129.61822599999999
 21
181.85727199999999
  0
LINE
  8
_0-0_0
  6
CONTINUOUS
 62
    4
 10
129.61822599999999
 20
181.85727199999999
 11
129.66646499999998
 21
181.87937299999998
  0
LINE
  8
_0-0_0
  6
CONTINUOUS
 62
    4
 10
129.66646499999998
 20
181.87937299999998
 11
129.71066799999999
 21
181.90349299999999
  0
ENDBLK
  0
BLOCK
  2
-014-BLKF033_16
 70
   64
 10
0
 20
0
 30
0
  0
LINE
  8
_0-0_0
  6
CONTINUOUS
 62
    4
 10
125.71591899999999
 20
169.25727900000001
 11
126.17348699999999
 21
169.267268
  0
LINE
  8
_0-0_0
  6
CONTINUOUS
 62
    4
 10
126.17348699999999
 20
169.267268
 11
126.627572
 21
169.29715799999999
  0
LINE
  8
_0-0_0
  6
CONTINUOUS
 62
    4
 10
126.627572
 20
169.29715799999999
 11
127.074719
 21
169.34672299999999
  0
LINE
  8
_0-0_0
  6
CONTINUOUS
 62
    4
 10
127.074719
 20
169.34672299999999
 11
127.511525
 21
169.41558599999999
  0
LINE
  8
_0-0_0
  6
CONTINUOUS
 62
    4
 10
127.511525
 20
169.41558599999999
 11
127.93466499999999
 21
169.50322099999999
  0
LINE
  8
_0-0_0
  6
CONTINUOUS
 62
    4
 10
127.93466499999999
 20
169.50322099999999
 11
128.34091900000001
 21
169.60896199999999
  0
LINE
  8
_0-0_0
  6
CONTINUOUS
 62
    4
 10
128.34091900000001
 20
169.60896199999999
 11
128.72719499999999
 21
169.73200499999998
  0
LINE
  8
_0-0_0
  6
CONTINUOUS
 62
    4
 10
128.72719499999999
 20
169.73200499999998
 11
129.09055399999999
 21
169.87141199999999
  0
LINE
  8
_0-0_0
  6
CONTINUOUS
 62
    4
 10
129.09055399999999
 20
169.87141199999999
 11
129.42823000000001
 21
170.02612300000001
  0
LINE
  8
_0-0_0
  6
CONTINUOUS
 62
    4
 10
129.42823000000001
 20
170.02612300000001
 11
129.73765199999999
 21
170.194961
  0
LINE
  8
_0-0_0
  6
CONTINUOUS
 62
    4
 10
129.73765199999999
 20
170.194961
 11
130.016467
 21
170.376641
  0
LINE
  8
_0-0_0
  6
CONTINUOUS
 62
    4
 10
130.016467
 20
170.376641
 11
130.16817199999999
 21
170.491241
  0
ENDBLK
  0
BLOCK
  2
-015-BLKF034_17
 70
   64
 10
0
 20
0
 30
0
  0
LINE
  8
_0-0_0
  6
CONTINUOUS
 62
    4
 10
125.71591899999999
 20
169.58203800000001
 11
126.17348699999999
 21
169.592027
  0
LINE
  8
_0-0_0
  6
CONTINUOUS
 62
    4
 10
126.17348699999999
 20
169.592027
 11
126.627572
 21
169.62191799999999
  0
LINE
  8
_0-0_0
  6
CONTINUOUS
 62
    4
 10
126.627572
 20
169.62191799999999
 11
127.074719
 21
169.67148299999999
  0
LINE
  8
_0-0_0
  6
CONTINUOUS
 62
    4
 10
127.074719
 20
169.67148299999999
 11
127.511525
 21
169.74034499999999
  0
LINE
  8
_0-0_0
  6
CONTINUOUS
 62
    4
 10
127.511525
 20
169.74034499999999
 11
127.93466499999999
 21
169.82797999999999
  0
LINE
  8
_0-0_0
  6
CONTINUOUS
 62
    4
 10
127.93466499999999
 20
169.82797999999999
 11
128.34091900000001
 21
169.93372199999998
  0
LINE
  8
_0-0_0
  6
CONTINUOUS
 62
    4
 10
128.34091900000001
 20
169.93372199999998
 11
128.72719499999999
 21
170.05676399999998
  0
LINE
  8
_0-0_0
  6
CONTINUOUS
 62
    4
 10
128.72719499999999
 20
170.05676399999998
 11
129.09055399999999
 21
170.19617199999999
  0
LINE
  8
_0-0_0
  6
CONTINUOUS
 62
    4
 10
129.09055399999999
 20
170.19617199999999
 11
129.42823000000001
 21
170.35088300000001
  0
LINE
  8
_0-0_0
  6
CONTINUOUS
 62
    4
 10
129.42823000000001
 20
170.35088300000001
 11
129.73765199999999
 21
170.519721
  0
LINE
  8
_0-0_0
  6
CONTINUOUS
 62
    4
 10
129.73765199999999
 20
170.519721
 11
130.016467
 21
170.7014
  0
LINE
  8
_0-0_0
  6
CONTINUOUS
 62
    4
 10
130.016467
 20
170.7014
 11
130.16817199999999
 21
170.816
  0
ENDBLK
  0
BLOCK
  2
-016-BLKF035_18
 70
   64
 10
0
 20
0
 30
0
  0
LINE
  8
_0-0_0
  6
CONTINUOUS
 62
    4
 10
128.69442900000001
 20
172.76953800000001
 11
128.77286899999998
 21
172.771251
  0
LINE
  8
_0-0_0
  6
CONTINUOUS
 62
    4
 10
128.77286899999998
 20
172.771251
 11
128.85071199999998
 21
172.776375
  0
LINE
  8
_0-0_0
  6
CONTINUOUS
 62
    4
 10
128.85071199999998
 20
172.776375
 11
128.927366
 21
172.784872
  0
LINE
  8
_0-0_0
  6
CONTINUOUS
 62
    4
 10
128.927366
 20
172.784872
 11
129.00224700000001
 21
172.79667699999998
  0
LINE
  8
_0-0_0
  6
CONTINUOUS
 62
    4
 10
129.00224700000001
 20
172.79667699999998
 11
129.07478499999999
 21
172.8117
  0
LINE
  8
_0-0_0
  6
CONTINUOUS
 62
    4
 10
129.07478499999999
 20
172.8117
 11
129.144429
 21
172.82982699999999
  0
LINE
  8
_0-0_0
  6
CONTINUOUS
 62
    4
 10
129.144429
 20
172.82982699999999
 11
129.21064799999999
 21
172.85092
  0
LINE
  8
_0-0_0
  6
CONTINUOUS
 62
    4
 10
129.21064799999999
 20
172.85092
 11
129.27293800000001
 21
172.874818
  0
ENDBLK
  0
BLOCK
  2
-017-BLKF036_19
 70
   64
 10
0
 20
0
 30
0
  0
LINE
  8
_0-0_0
  6
CONTINUOUS
 62
    4
 10
120.62591199999999
 20
160.25727900000001
 11
121.27957999999999
 21
160.27154899999999
  0
LINE
  8
_0-0_0
  6
CONTINUOUS
 62
    4
 10
121.27957999999999
 20
160.27154899999999
 11
121.928274
 21
160.31424999999998
  0
LINE
  8
_0-0_0
  6
CONTINUOUS
 62
    4
 10
121.928274
 20
160.31424999999998
 11
122.56705499999999
 21
160.38505699999998
  0
LINE
  8
_0-0_0
  6
CONTINUOUS
 62
    4
 10
122.56705499999999
 20
160.38505699999998
 11
123.19106299999999
 21
160.48343099999999
  0
LINE
  8
_0-0_0
  6
CONTINUOUS
 62
    4
 10
123.19106299999999
 20
160.48343099999999
 11
123.79554899999999
 21
160.60862499999998
  0
LINE
  8
_0-0_0
  6
CONTINUOUS
 62
    4
 10
123.79554899999999
 20
160.60862499999998
 11
124.37591199999999
 21
160.75968399999999
  0
LINE
  8
_0-0_0
  6
CONTINUOUS
 62
    4
 10
124.37591199999999
 20
160.75968399999999
 11
124.92773599999999
 21
160.935459
  0
LINE
  8
_0-0_0
  6
CONTINUOUS
 62
    4
 10
124.92773599999999
 20
160.935459
 11
125.446819
 21
161.134612
  0
LINE
  8
_0-0_0
  6
CONTINUOUS
 62
    4
 10
125.446819
 20
161.134612
 11
125.929213
 21
161.35562799999999
  0
LINE
  8
_0-0_0
  6
CONTINUOUS
 62
    4
 10
125.929213
 20
161.35562799999999
 11
126.02096099999999
 21
161.40230999999999
  0
ENDBLK
  0
BLOCK
  2
-018-BLKF037_20
 70
   64
 10
0
 20
0
 30
0
  0
LINE
  8
_0-0_0
  6
CONTINUOUS
 62
    4
 10
120.62591199999999
 20
160.58203800000001
 11
121.27957999999999
 21
160.59630799999999
  0
LINE
  8
_0-0_0
  6
CONTINUOUS
 62
    4
 10
121.27957999999999
 20
160.59630799999999
 11
121.928274
 21
160.63900899999998
  0
LINE
  8
_0-0_0
  6
CONTINUOUS
 62
    4
 10
121.928274
 20
160.63900899999998
 11
122.56705499999999
 21
160.70981599999998
  0
LINE
  8
_0-0_0
  6
CONTINUOUS
 62
    4
 10
122.56705499999999
 20
160.70981599999998
 11
123.19106299999999
 21
160.80819099999999
  0
LINE
  8
_0-0_0
  6
CONTINUOUS
 62
    4
 10
123.19106299999999
 20
160.80819099999999
 11
123.79554899999999
 21
160.93338399999998
  0
LINE
  8
_0-0_0
  6
CONTINUOUS
 62
    4
 10
123.79554899999999
 20
160.93338399999998
 11
124.37591199999999
 21
161.08444299999999
  0
LINE
  8
_0-0_0
  6
CONTINUOUS
 62
    4
 10
124.37591199999999
 20
161.08444299999999
 11
124.92773599999999
 21
161.260218
  0
LINE
  8
_0-0_0
  6
CONTINUOUS
 62
    4
 10
124.92773599999999
 20
161.260218
 11
125.446819
 21
161.459372
  0
LINE
  8
_0-0_0
  6
CONTINUOUS
 62
    4
 10
125.446819
 20
161.459372
 11
125.929213
 21
161.68038799999999
  0
LINE
  8
_0-0_0
  6
CONTINUOUS
 62
    4
 10
125.929213
 20
161.68038799999999
 11
126.02096099999999
 21
161.727069
  0
ENDBLK
  0
BLOCK
  2
-019-BLKF038_21
 70
   64
 10
0
 20
0
 30
0
  0
LINE
  8
_0-0_0
  6
CONTINUOUS
 62
    4
 10
126.062606
 20
163.76953800000001
 11
126.160656
 21
163.771679
  0
LINE
  8
_0-0_0
  6
CONTINUOUS
 62
    4
 10
126.160656
 20
163.771679
 11
126.25795999999999
 21
163.778084
  0
LINE
  8
_0-0_0
  6
CONTINUOUS
 62
    4
 10
126.25795999999999
 20
163.778084
 11
126.35377699999999
 21
163.78870499999999
  0
LINE
  8
_0-0_0
  6
CONTINUOUS
 62
    4
 10
126.35377699999999
 20
163.78870499999999
 11
126.44737899999999
 21
163.80346099999999
  0
LINE
  8
_0-0_0
  6
CONTINUOUS
 62
    4
 10
126.44737899999999
 20
163.80346099999999
 11
126.53805199999999
 21
163.82223999999999
  0
LINE
  8
_0-0_0
  6
CONTINUOUS
 62
    4
 10
126.53805199999999
 20
163.82223999999999
 11
126.625106
 21
163.84489899999999
  0
LINE
  8
_0-0_0
  6
CONTINUOUS
 62
    4
 10
126.625106
 20
163.84489899999999
 11
126.707879
 21
163.87126499999999
  0
ENDBLK
  0
BLOCK
  2
-020-BLKF039_22
 70
   64
 10
0
 20
0
 30
0
  0
LINE
  8
_0-0_0
  6
CONTINUOUS
 62
    4
 10
109.40005899999999
 20
151.25727900000001
 11
111.03422899999999
 21
151.29295300000001
  0
LINE
  8
_0-0_0
  6
CONTINUOUS
 62
    4
 10
111.03422899999999
 20
151.29295300000001
 11
112.65596299999999
 21
151.399706
  0
LINE
  8
_0-0_0
  6
CONTINUOUS
 62
    4
 10
112.65596299999999
 20
151.399706
 11
114.25291599999999
 21
151.57672400000001
  0
LINE
  8
_0-0_0
  6
CONTINUOUS
 62
    4
 10
114.25291599999999
 20
151.57672400000001
 11
115.812937
 21
151.82266000000001
  0
LINE
  8
_0-0_0
  6
CONTINUOUS
 62
    4
 10
115.812937
 20
151.82266000000001
 11
117.32415199999999
 21
152.13564299999998
  0
LINE
  8
_0-0_0
  6
CONTINUOUS
 62
    4
 10
117.32415199999999
 20
152.13564299999998
 11
118.77505899999999
 21
152.513291
  0
LINE
  8
_0-0_0
  6
CONTINUOUS
 62
    4
 10
118.77505899999999
 20
152.513291
 11
119.88492599999999
 21
152.86005199999999
  0
ENDBLK
  0
BLOCK
  2
-021-BLKF040_23
 70
   64
 10
0
 20
0
 30
0
  0
LINE
  8
_0-0_0
  6
CONTINUOUS
 62
    4
 10
109.40005899999999
 20
151.58203800000001
 11
111.03422899999999
 21
151.617713
  0
LINE
  8
_0-0_0
  6
CONTINUOUS
 62
    4
 10
111.03422899999999
 20
151.617713
 11
112.65596299999999
 21
151.724466
  0
LINE
  8
_0-0_0
  6
CONTINUOUS
 62
    4
 10
112.65596299999999
 20
151.724466
 11
114.25291599999999
 21
151.90148400000001
  0
LINE
  8
_0-0_0
  6
CONTINUOUS
 62
    4
 10
114.25291599999999
 20
151.90148400000001
 11
115.812937
 21
152.14742000000001
  0
LINE
  8
_0-0_0
  6
CONTINUOUS
 62
    4
 10
115.812937
 20
152.14742000000001
 11
117.32415199999999
 21
152.46040300000001
  0
LINE
  8
_0-0_0
  6
CONTINUOUS
 62
    4
 10
117.32415199999999
 20
152.46040300000001
 11
118.77505899999999
 21
152.83805
  0
LINE
  8
_0-0_0
  6
CONTINUOUS
 62
    4
 10
118.77505899999999
 20
152.83805
 11
119.88492599999999
 21
153.18481099999999
  0
ENDBLK
  0
BLOCK
  2
-022-BLKF041_24
 70
   64
 10
0
 20
0
 30
0
  0
LINE
  8
_0-0_0
  6
CONTINUOUS
 62
    4
 10
120.77756399999999
 20
154.76953800000001
 11
120.89522499999999
 21
154.772107
  0
LINE
  8
_0-0_0
  6
CONTINUOUS
 62
    4
 10
120.89522499999999
 20
154.772107
 11
121.01198899999999
 21
154.77979300000001
  0
LINE
  8
_0-0_0
  6
CONTINUOUS
 62
    4
 10
121.01198899999999
 20
154.77979300000001
 11
121.12697
 21
154.792538
  0
LINE
  8
_0-0_0
  6
CONTINUOUS
 62
    4
 10
121.12697
 20
154.792538
 11
121.239292
 21
154.810246
  0
LINE
  8
_0-0_0
  6
CONTINUOUS
 62
    4
 10
121.239292
 20
154.810246
 11
121.348099
 21
154.83278100000001
  0
LINE
  8
_0-0_0
  6
CONTINUOUS
 62
    4
 10
121.348099
 20
154.83278100000001
 11
121.45256399999999
 21
154.859971
  0
LINE
  8
_0-0_0
  6
CONTINUOUS
 62
    4
 10
121.45256399999999
 20
154.859971
 11
121.49295499999999
 21
154.872106
  0
ENDBLK
  0
BLOCK
  2
-023-BLKF042_25
 70
   64
 10
0
 20
0
 30
0
  0
LINE
  8
_0-0_0
  6
CONTINUOUS
 62
    4
 10
93.728244000000003
 20
142.58203800000001
 11
97.192683999999999
 21
142.65766899999999
  0
LINE
  8
_0-0_0
  6
CONTINUOUS
 62
    4
 10
97.192683999999999
 20
142.65766899999999
 11
100.63075899999999
 21
142.88398399999999
  0
LINE
  8
_0-0_0
  6
CONTINUOUS
 62
    4
 10
100.63075899999999
 20
142.88398399999999
 11
104.01630099999999
 21
143.259263
  0
LINE
  8
_0-0_0
  6
CONTINUOUS
 62
    4
 10
104.01630099999999
 20
143.259263
 11
107.32354399999999
 21
143.78064699999998
  0
LINE
  8
_0-0_0
  6
CONTINUOUS
 62
    4
 10
107.32354399999999
 20
143.78064699999998
 11
110.52732
 21
144.44417100000001
  0
LINE
  8
_0-0_0
  6
CONTINUOUS
 62
    4
 10
110.52732
 20
144.44417100000001
 11
113.603244
 21
145.24478300000001
  0
LINE
  8
_0-0_0
  6
CONTINUOUS
 62
    4
 10
113.603244
 20
145.24478300000001
 11
115.888176
 21
145.957039
  0
ENDBLK
  0
BLOCK
  2
-024-BLKF043_26
 70
   64
 10
0
 20
0
 30
0
  0
LINE
  8
_0-0_0
  6
CONTINUOUS
 62
    4
 10
93.728244000000003
 20
142.25727900000001
 11
97.192683999999999
 21
142.332909
  0
LINE
  8
_0-0_0
  6
CONTINUOUS
 62
    4
 10
97.192683999999999
 20
142.332909
 11
100.63075899999999
 21
142.55922499999999
  0
LINE
  8
_0-0_0
  6
CONTINUOUS
 62
    4
 10
100.63075899999999
 20
142.55922499999999
 11
104.01630099999999
 21
142.934503
  0
LINE
  8
_0-0_0
  6
CONTINUOUS
 62
    4
 10
104.01630099999999
 20
142.934503
 11
107.32354399999999
 21
143.45588799999998
  0
LINE
  8
_0-0_0
  6
CONTINUOUS
 62
    4
 10
107.32354399999999
 20
143.45588799999998
 11
110.52732
 21
144.11941200000001
  0
LINE
  8
_0-0_0
  6
CONTINUOUS
 62
    4
 10
110.52732
 20
144.11941200000001
 11
113.603244
 21
144.92002400000001
  0
LINE
  8
_0-0_0
  6
CONTINUOUS
 62
    4
 10
113.603244
 20
144.92002400000001
 11
115.888176
 21
145.63228
  0
ENDBLK
  0
BLOCK
  2
-025-BLKF044_27
 70
   64
 10
0
 20
0
 30
0
  0
LINE
  8
_0-0_0
  6
CONTINUOUS
 62
    4
 10
111.398007
 20
145.76953800000001
 11
111.52874099999999
 21
145.77239199999999
  0
LINE
  8
_0-0_0
  6
CONTINUOUS
 62
    4
 10
111.52874099999999
 20
145.77239199999999
 11
111.65847999999999
 21
145.780932
  0
LINE
  8
_0-0_0
  6
CONTINUOUS
 62
    4
 10
111.65847999999999
 20
145.780932
 11
111.786236
 21
145.795094
  0
LINE
  8
_0-0_0
  6
CONTINUOUS
 62
    4
 10
111.786236
 20
145.795094
 11
111.911038
 21
145.81476900000001
  0
LINE
  8
_0-0_0
  6
CONTINUOUS
 62
    4
 10
111.911038
 20
145.81476900000001
 11
112.031935
 21
145.839807
  0
LINE
  8
_0-0_0
  6
CONTINUOUS
 62
    4
 10
112.031935
 20
145.839807
 11
112.055564
 21
145.84544299999998
  0
ENDBLK
  0
BLOCK
  2
-026-BLKF051_31
 70
   64
 10
0
 20
0
 30
0
  0
LINE
  8
_0-2_0-10
  6
CONTINUOUS
 62
    7
 10
192.504873
 20
231.311405
 11
192.879873
 21
231.52791199999998
  0
LINE
  8
_0-2_0-10
  6
CONTINUOUS
 62
    7
 10
192.504873
 20
232.17743100000001
 11
192.879873
 21
232.39393699999999
  0
LINE
  8
_0-2_0-10
  6
CONTINUOUS
 62
    7
 10
192.504873
 20
230.44538
 11
192.879873
 21
230.661886
  0
LINE
  8
_0-2_0-10
  6
CONTINUOUS
 62
    7
 10
192.504873
 20
229.57935499999999
 11
192.879873
 21
229.795861
  0
LINE
  8
_0-2_0-10
  6
CONTINUOUS
 62
    7
 10
192.504873
 20
228.71332899999998
 11
192.879873
 21
228.92983599999999
  0
LINE
  8
_0-2_0-10
  6
CONTINUOUS
 62
    7
 10
192.504873
 20
227.847304
 11
192.879873
 21
228.06380999999998
  0
LINE
  8
_0-2_0-10
  6
CONTINUOUS
 62
    7
 10
192.504873
 20
226.981278
 11
192.879873
 21
227.19778500000001
  0
LINE
  8
_0-2_0-10
  6
CONTINUOUS
 62
    7
 10
192.504873
 20
226.11525299999999
 11
192.879873
 21
226.331759
  0
LINE
  8
_0-2_0-10
  6
CONTINUOUS
 62
    7
 10
192.504873
 20
225.24922799999998
 11
192.879873
 21
225.46573399999999
  0
LINE
  8
_0-2_0-10
  6
CONTINUOUS
 62
    7
 10
192.504873
 20
224.38320200000001
 11
192.879873
 21
224.59970799999999
  0
LINE
  8
_0-2_0-10
  6
CONTINUOUS
 62
    7
 10
192.504873
 20
223.517177
 11
192.879873
 21
223.73368300000001
  0
LINE
  8
_0-2_0-10
  6
CONTINUOUS
 62
    7
 10
192.504873
 20
222.65115099999999
 11
192.879873
 21
222.867658
  0
LINE
  8
_0-2_0-10
  6
CONTINUOUS
 62
    7
 10
192.504873
 20
221.78512599999999
 11
192.879873
 21
222.001632
  0
LINE
  8
_0-2_0-10
  6
CONTINUOUS
 62
    7
 10
192.504873
 20
220.91910100000001
 11
192.879873
 21
221.13560699999999
  0
LINE
  8
_0-2_0-10
  6
CONTINUOUS
 62
    7
 10
192.504873
 20
220.053075
 11
192.879873
 21
220.26958099999998
  0
LINE
  8
_0-2_0-10
  6
CONTINUOUS
 62
    7
 10
192.504873
 20
219.18704999999999
 11
192.879873
 21
219.403556
  0
LINE
  8
_0-2_0-10
  6
CONTINUOUS
 62
    7
 10
192.504873
 20
218.32102399999999
 11
192.879873
 21
218.537531
  0
LINE
  8
_0-2_0-10
  6
CONTINUOUS
 62
    7
 10
192.504873
 20
217.45499899999998
 11
192.879873
 21
217.67150499999999
  0
LINE
  8
_0-2_0-10
  6
CONTINUOUS
 62
    7
 10
192.504873
 20
216.588973
 11
192.879873
 21
216.80547999999998
  0
LINE
  8
_0-2_0-10
  6
CONTINUOUS
 62
    7
 10
192.504873
 20
215.722948
 11
192.879873
 21
215.93945400000001
  0
LINE
  8
_0-2_0-10
  6
CONTINUOUS
 62
    7
 10
192.504873
 20
214.85692299999999
 11
192.879873
 21
215.073429
  0
LINE
  8
_0-2_0-10
  6
CONTINUOUS
 62
    7
 10
192.504873
 20
213.99089699999998
 11
192.879873
 21
214.20740399999999
  0
LINE
  8
_0-2_0-10
  6
CONTINUOUS
 62
    7
 10
192.504873
 20
213.12487200000001
 11
192.879873
 21
213.34137799999999
  0
LINE
  8
_0-2_0-10
  6
CONTINUOUS
 62
    7
 10
192.504873
 20
212.258846
 11
192.879873
 21
212.47535300000001
  0
LINE
  8
_0-2_0-10
  6
CONTINUOUS
 62
    7
 10
192.504873
 20
211.39282099999999
 11
192.879873
 21
211.609327
  0
LINE
  8
_0-2_0-10
  6
CONTINUOUS
 62
    7
 10
192.504873
 20
210.52679599999999
 11
192.879873
 21
210.74330199999999
  0
LINE
  8
_0-2_0-10
  6
CONTINUOUS
 62
    7
 10
192.504873
 20
209.66077000000001
 11
192.879873
 21
209.87727699999999
  0
LINE
  8
_0-2_0-10
  6
CONTINUOUS
 62
    7
 10
192.504873
 20
208.794745
 11
192.879873
 21
209.01125099999998
  0
LINE
  8
_0-2_0-10
  6
CONTINUOUS
 62
    7
 10
192.504873
 20
207.928719
 11
192.879873
 21
208.145226
  0
LINE
  8
_0-2_0-10
  6
CONTINUOUS
 62
    7
 10
192.504873
 20
207.06269399999999
 11
192.879873
 21
207.2792
  0
LINE
  8
_0-2_0-10
  6
CONTINUOUS
 62
    7
 10
192.504873
 20
206.19666900000001
 11
192.879873
 21
206.41317499999999
  0
LINE
  8
_0-2_0-10
  6
CONTINUOUS
 62
    7
 10
192.504873
 20
205.330643
 11
192.879873
 21
205.54714999999998
  0
LINE
  8
_0-2_0-10
  6
CONTINUOUS
 62
    7
 10
192.504873
 20
204.464618
 11
192.879873
 21
204.68112400000001
  0
LINE
  8
_0-2_0-10
  6
CONTINUOUS
 62
    7
 10
192.504873
 20
203.59859199999999
 11
192.879873
 21
203.815099
  0
LINE
  8
_0-2_0-10
  6
CONTINUOUS
 62
    7
 10
192.504873
 20
202.73256699999998
 11
192.879873
 21
202.94907299999999
  0
LINE
  8
_0-2_0-10
  6
CONTINUOUS
 62
    7
 10
192.504873
 20
201.866542
 11
192.879873
 21
202.08304799999999
  0
LINE
  8
_0-2_0-10
  6
CONTINUOUS
 62
    7
 10
192.504873
 20
201.000516
 11
192.879873
 21
201.21702300000001
  0
LINE
  8
_0-2_0-10
  6
CONTINUOUS
 62
    7
 10
192.504873
 20
200.13449099999999
 11
192.879873
 21
200.350997
  0
LINE
  8
_0-2_0-10
  6
CONTINUOUS
 62
    7
 10
192.504873
 20
199.26846499999999
 11
192.879873
 21
199.48497199999999
  0
LINE
  8
_0-2_0-10
  6
CONTINUOUS
 62
    7
 10
192.504873
 20
198.40244000000001
 11
192.879873
 21
198.61894599999999
  0
LINE
  8
_0-2_0-10
  6
CONTINUOUS
 62
    7
 10
192.504873
 20
197.536415
 11
192.879873
 21
197.75292099999998
  0
LINE
  8
_0-2_0-10
  6
CONTINUOUS
 62
    7
 10
192.504873
 20
196.670389
 11
192.879873
 21
196.886896
  0
LINE
  8
_0-2_0-10
  6
CONTINUOUS
 62
    7
 10
192.504873
 20
195.8043639999999
 11
192.879873
 21
196.02087
  0
LINE
  8
_0-2_0-10
  6
CONTINUOUS
 62
    7
 10
192.504873
 20
194.93833799999998
 11
192.879873
 21
195.15484499999999
  0
LINE
  8
_0-2_0-10
  6
CONTINUOUS
 62
    7
 10
192.504873
 20
194.072313
 11
192.879873
 21
194.28881899999998
  0
LINE
  8
_0-2_0-10
  6
CONTINUOUS
 62
    7
 10
192.504873
 20
193.206288
 11
192.879873
 21
193.42279400000001
  0
LINE
  8
_0-2_0-10
  6
CONTINUOUS
 62
    7
 10
192.504873
 20
192.34026199999999
 11
192.879873
 21
192.556769
  0
LINE
  8
_0-2_0-10
  6
CONTINUOUS
 62
    7
 10
192.504873
 20
191.47423699999998
 11
192.879873
 21
191.69074299999999
  0
LINE
  8
_0-2_0-10
  6
CONTINUOUS
 62
    7
 10
192.504873
 20
190.60821100000001
 11
192.879873
 21
190.82471799999999
  0
LINE
  8
_0-2_0-10
  6
CONTINUOUS
 62
    7
 10
192.504873
 20
189.742186
 11
192.879873
 21
189.95869200000001
  0
LINE
  8
_0-2_0-10
  6
CONTINUOUS
 62
    7
 10
192.504873
 20
188.87616099999999
 11
192.879873
 21
189.092667
  0
LINE
  8
_0-2_0-10
  6
CONTINUOUS
 62
    7
 10
192.504873
 20
188.01013499999999
 11
192.879873
 21
188.22664199999999
  0
LINE
  8
_0-2_0-10
  6
CONTINUOUS
 62
    7
 10
192.504873
 20
187.14411000000001
 11
192.879873
 21
187.36061599999999
  0
LINE
  8
_0-2_0-10
  6
CONTINUOUS
 62
    7
 10
192.504873
 20
186.278084
 11
192.879873
 21
186.49459100000001
  0
LINE
  8
_0-2_0-10
  6
CONTINUOUS
 62
    7
 10
192.504873
 20
185.41205899999999
 11
192.879873
 21
185.628565
  0
LINE
  8
_0-2_0-10
  6
CONTINUOUS
 62
    7
 10
192.504873
 20
184.54603399999999
 11
192.879873
 21
184.76254
  0
LINE
  8
_0-2_0-10
  6
CONTINUOUS
 62
    7
 10
192.504873
 20
183.68000799999998
 11
192.879873
 21
183.89651499999999
  0
LINE
  8
_0-2_0-10
  6
CONTINUOUS
 62
    7
 10
192.504873
 20
182.813983
 11
192.879873
 21
183.03048899999998
  0
LINE
  8
_0-2_0-10
  6
CONTINUOUS
 62
    7
 10
192.504873
 20
181.947957
 11
192.879873
 21
182.164464
  0
LINE
  8
_0-2_0-10
  6
CONTINUOUS
 62
    7
 10
192.504873
 20
181.08193199999999
 11
192.879873
 21
181.298438
  0
LINE
  8
_0-2_0-10
  6
CONTINUOUS
 62
    7
 10
192.504873
 20
180.21590699999998
 11
192.879873
 21
180.43241299999999
  0
LINE
  8
_0-2_0-10
  6
CONTINUOUS
 62
    7
 10
192.504873
 20
179.34988100000001
 11
192.879873
 21
179.56638699999999
  0
LINE
  8
_0-2_0-10
  6
CONTINUOUS
 62
    7
 10
192.504873
 20
178.483856
 11
192.879873
 21
178.70036200000001
  0
LINE
  8
_0-2_0-10
  6
CONTINUOUS
 62
    7
 10
192.504873
 20
177.61782999999999
 11
192.879873
 21
177.834337
  0
LINE
  8
_0-2_0-10
  6
CONTINUOUS
 62
    7
 10
192.504873
 20
176.75180499999999
 11
192.879873
 21
176.96831099999999
  0
LINE
  8
_0-2_0-10
  6
CONTINUOUS
 62
    7
 10
192.504873
 20
175.88578000000001
 11
192.879873
 21
176.10228599999999
  0
LINE
  8
_0-2_0-10
  6
CONTINUOUS
 62
    7
 10
192.504873
 20
175.019754
 11
192.879873
 21
175.23625999999998
  0
LINE
  8
_0-2_0-10
  6
CONTINUOUS
 62
    7
 10
192.504873
 20
174.15372899999999
 11
192.879873
 21
174.370235
  0
LINE
  8
_0-2_0-10
  6
CONTINUOUS
 62
    7
 10
192.504873
 20
173.28770299999999
 11
192.879873
 21
173.50421
  0
LINE
  8
_0-2_0-10
  6
CONTINUOUS
 62
    7
 10
192.504873
 20
172.42167800000001
 11
192.879873
 21
172.63818399999999
  0
LINE
  8
_0-2_0-10
  6
CONTINUOUS
 62
    7
 10
192.504873
 20
171.555653
 11
192.879873
 21
171.77215899999998
  0
LINE
  8
_0-2_0-10
  6
CONTINUOUS
 62
    7
 10
192.504873
 20
170.689627
 11
192.879873
 21
170.90613300000001
  0
LINE
  8
_0-2_0-10
  6
CONTINUOUS
 62
    7
 10
192.504873
 20
169.82360199999999
 11
192.879873
 21
170.040108
  0
LINE
  8
_0-2_0-10
  6
CONTINUOUS
 62
    7
 10
192.504873
 20
168.95757599999998
 11
192.879873
 21
169.17408299999999
  0
LINE
  8
_0-2_0-10
  6
CONTINUOUS
 62
    7
 10
192.504873
 20
168.091551
 11
192.879873
 21
168.30805699999999
  0
LINE
  8
_0-2_0-10
  6
CONTINUOUS
 62
    7
 10
192.504873
 20
167.225525
 11
192.879873
 21
167.44203200000001
  0
LINE
  8
_0-2_0-10
  6
CONTINUOUS
 62
    7
 10
192.504873
 20
166.35949999999999
 11
192.879873
 21
166.576006
  0
LINE
  8
_0-2_0-10
  6
CONTINUOUS
 62
    7
 10
192.504873
 20
165.49347499999998
 11
192.879873
 21
165.70998099999999
  0
LINE
  8
_0-2_0-10
  6
CONTINUOUS
 62
    7
 10
192.504873
 20
164.62744900000001
 11
192.879873
 21
164.84395599999999
  0
LINE
  8
_0-2_0-10
  6
CONTINUOUS
 62
    7
 10
192.504873
 20
163.761424
 11
192.879873
 21
163.97792999999998
  0
LINE
  8
_0-2_0-10
  6
CONTINUOUS
 62
    7
 10
192.504873
 20
162.895398
 11
192.879873
 21
163.111905
  0
LINE
  8
_0-2_0-10
  6
CONTINUOUS
 62
    7
 10
192.504873
 20
162.02937299999999
 11
192.879873
 21
162.245879
  0
LINE
  8
_0-2_0-10
  6
CONTINUOUS
 62
    7
 10
192.504873
 20
161.16334800000001
 11
192.879873
 21
161.37985399999999
  0
LINE
  8
_0-2_0-10
  6
CONTINUOUS
 62
    7
 10
192.504873
 20
160.297322
 11
192.879873
 21
160.51382899999998
  0
LINE
  8
_0-2_0-10
  6
CONTINUOUS
 62
    7
 10
192.504873
 20
159.431297
 11
192.879873
 21
159.64780300000001
  0
LINE
  8
_0-2_0-10
  6
CONTINUOUS
 62
    7
 10
192.504873
 20
158.56527099999999
 11
192.879873
 21
158.781778
  0
LINE
  8
_0-2_0-10
  6
CONTINUOUS
 62
    7
 10
192.504873
 20
157.69924599999998
 11
192.879873
 21
157.91575199999999
  0
LINE
  8
_0-2_0-10
  6
CONTINUOUS
 62
    7
 10
192.504873
 20
156.833221
 11
192.879873
 21
157.04972699999999
  0
LINE
  8
_0-2_0-10
  6
CONTINUOUS
 62
    7
 10
192.504873
 20
155.967195
 11
192.879873
 21
156.18370200000001
  0
LINE
  8
_0-2_0-10
  6
CONTINUOUS
 62
    7
 10
192.504873
 20
155.10116999999999
 11
192.879873
 21
155.317676
  0
LINE
  8
_0-2_0-10
  6
CONTINUOUS
 62
    7
 10
192.504873
 20
154.23514399999999
 11
192.879873
 21
154.45165099999999
  0
LINE
  8
_0-2_0-10
  6
CONTINUOUS
 62
    7
 10
192.504873
 20
153.36911900000001
 11
192.879873
 21
153.58562499999999
  0
LINE
  8
_0-2_0-10
  6
CONTINUOUS
 62
    7
 10
192.504873
 20
152.503094
 11
192.879873
 21
152.71960000000001
  0
LINE
  8
_0-2_0-10
  6
CONTINUOUS
 62
    7
 10
192.504873
 20
151.63706799999999
 11
192.879873
 21
151.853575
  0
LINE
  8
_0-2_0-10
  6
CONTINUOUS
 62
    7
 10
192.504873
 20
150.77104299999999
 11
192.879873
 21
150.987549
  0
LINE
  8
_0-2_0-10
  6
CONTINUOUS
 62
    7
 10
192.504873
 20
149.90501699999998
 11
192.879873
 21
150.12152399999999
  0
LINE
  8
_0-2_0-10
  6
CONTINUOUS
 62
    7
 10
192.504873
 20
149.038992
 11
192.879873
 21
149.25549799999998
  0
LINE
  8
_0-2_0-10
  6
CONTINUOUS
 62
    7
 10
192.504873
 20
148.17296699999999
 11
192.879873
 21
148.389473
  0
LINE
  8
_0-2_0-10
  6
CONTINUOUS
 62
    7
 10
192.504873
 20
147.30694099999999
 11
192.879873
 21
147.523448
  0
LINE
  8
_0-2_0-10
  6
CONTINUOUS
 62
    7
 10
192.504873
 20
146.44091599999998
 11
192.879873
 21
146.65742199999999
  0
LINE
  8
_0-2_0-10
  6
CONTINUOUS
 62
    7
 10
192.504873
 20
145.57489000000001
 11
192.879873
 21
145.79139699999998
  0
LINE
  8
_0-2_0-10
  6
CONTINUOUS
 62
    7
 10
192.504873
 20
144.708865
 11
192.879873
 21
144.92537100000001
  0
LINE
  8
_0-2_0-10
  6
CONTINUOUS
 62
    7
 10
192.504873
 20
143.84283999999999
 11
192.879873
 21
144.059346
  0
LINE
  8
_0-2_0-10
  6
CONTINUOUS
 62
    7
 10
192.504873
 20
142.97681399999999
 11
192.879873
 21
143.19332099999999
  0
LINE
  8
_0-2_0-10
  6
CONTINUOUS
 62
    7
 10
192.504873
 20
142.11078900000001
 11
192.879873
 21
142.32729499999999
  0
LINE
  8
_0-2_0-10
  6
CONTINUOUS
 62
    7
 10
192.504873
 20
141.244763
 11
192.879873
 21
141.46127000000001
  0
LINE
  8
_0-2_0-10
  6
CONTINUOUS
 62
    7
 10
192.504873
 20
140.37873799999999
 11
192.879873
 21
140.595244
  0
LINE
  8
_0-2_0-10
  6
CONTINUOUS
 62
    7
 10
192.504873
 20
139.51271299999999
 11
192.879873
 21
139.729219
  0
LINE
  8
_0-2_0-10
  6
CONTINUOUS
 62
    7
 10
192.504873
 20
138.64668699999998
 11
192.879873
 21
138.86319399999999
  0
LINE
  8
_0-2_0-10
  6
CONTINUOUS
 62
    7
 10
192.504873
 20
137.780662
 11
192.879873
 21
137.99716799999998
  0
LINE
  8
_0-2_0-10
  6
CONTINUOUS
 62
    7
 10
192.504873
 20
136.914636
 11
192.879873
 21
137.131143
  0
LINE
  8
_0-2_0-10
  6
CONTINUOUS
 62
    7
 10
192.504873
 20
136.04861099999999
 11
192.879873
 21
136.265117
  0
LINE
  8
_0-2_0-10
  6
CONTINUOUS
 62
    7
 10
192.504873
 20
135.18258599999998
 11
192.879873
 21
135.39909199999999
  0
LINE
  8
_0-2_0-10
  6
CONTINUOUS
 62
    7
 10
192.504873
 20
134.31656
 11
192.879873
 21
134.53306599999999
  0
LINE
  8
_0-2_0-10
  6
CONTINUOUS
 62
    7
 10
192.504873
 20
133.450535
 11
192.879873
 21
133.66704100000001
  0
LINE
  8
_0-2_0-10
  6
CONTINUOUS
 62
    7
 10
192.504873
 20
132.58450899999999
 11
192.879873
 21
132.801016
  0
LINE
  8
_0-2_0-10
  6
CONTINUOUS
 62
    7
 10
192.504873
 20
131.71848399999998
 11
192.879873
 21
131.93498999999999
  0
LINE
  8
_0-2_0-10
  6
CONTINUOUS
 62
    7
 10
192.504873
 20
130.85245900000001
 11
192.879873
 21
131.06896499999999
  0
LINE
  8
_0-2_0-10
  6
CONTINUOUS
 62
    7
 10
192.504873
 20
129.986433
 11
192.879873
 21
130.20293899999998
  0
LINE
  8
_0-2_0-10
  6
CONTINUOUS
 62
    7
 10
192.504873
 20
129.12040799999999
 11
192.879873
 21
129.336914
  0
LINE
  8
_0-2_0-10
  6
CONTINUOUS
 62
    7
 10
192.504873
 20
128.25438199999999
 11
192.879873
 21
128.47088899999999
  0
LINE
  8
_0-2_0-10
  6
CONTINUOUS
 62
    7
 10
192.504873
 20
127.38835699999999
 11
192.879873
 21
127.60486299999999
  0
LINE
  8
_0-2_0-10
  6
CONTINUOUS
 62
    7
 10
192.504873
 20
126.522332
 11
192.879873
 21
126.738838
  0
LINE
  8
_0-2_0-10
  6
CONTINUOUS
 62
    7
 10
192.504873
 20
125.656306
 11
192.879873
 21
125.87281199999999
  0
LINE
  8
_0-2_0-10
  6
CONTINUOUS
 62
    7
 10
192.504873
 20
124.79028099999999
 11
192.879873
 21
125.006787
  0
LINE
  8
_0-2_0-10
  6
CONTINUOUS
 62
    7
 10
192.504873
 20
123.924255
 11
192.879873
 21
124.14076199999999
  0
LINE
  8
_0-2_0-10
  6
CONTINUOUS
 62
    7
 10
192.504873
 20
123.05822999999999
 11
192.879873
 21
123.274736
  0
LINE
  8
_0-2_0-10
  6
CONTINUOUS
 62
    7
 10
192.504873
 20
122.192204
 11
192.879873
 21
122.40871099999999
  0
LINE
  8
_0-2_0-10
  6
CONTINUOUS
 62
    7
 10
192.504873
 20
121.32617899999999
 11
192.879873
 21
121.542685
  0
LINE
  8
_0-2_0-10
  6
CONTINUOUS
 62
    7
 10
192.504873
 20
120.460154
 11
192.879873
 21
120.67665999999999
  0
ENDBLK
  0
BLOCK
  2
-027-BLKF018_35
 70
   64
 10
0
 20
0
 30
0
  0
LINE
  8
_0-2_0-10
  6
CONTINUOUS
 62
    4
 10
111.728244
 20
214.25727900000001
 11
111.85897699999999
 21
214.26013299999999
  0
LINE
  8
_0-2_0-10
  6
CONTINUOUS
 62
    4
 10
111.85897699999999
 20
214.26013299999999
 11
111.98871599999999
 21
214.268673
  0
LINE
  8
_0-2_0-10
  6
CONTINUOUS
 62
    4
 10
111.98871599999999
 20
214.268673
 11
112.116472
 21
214.282834
  0
LINE
  8
_0-2_0-10
  6
CONTINUOUS
 62
    4
 10
112.116472
 20
214.282834
 11
112.241274
 21
214.30250899999998
  0
LINE
  8
_0-2_0-10
  6
CONTINUOUS
 62
    4
 10
112.241274
 20
214.30250899999998
 11
112.362171
 21
214.327548
  0
LINE
  8
_0-2_0-10
  6
CONTINUOUS
 62
    4
 10
112.362171
 20
214.327548
 11
112.478244
 21
214.35776000000001
  0
LINE
  8
_0-2_0-10
  6
CONTINUOUS
 62
    4
 10
112.478244
 20
214.35776000000001
 11
112.58860799999999
 21
214.39291499999998
  0
LINE
  8
_0-2_0-10
  6
CONTINUOUS
 62
    4
 10
112.58860799999999
 20
214.39291499999998
 11
112.692425
 21
214.43274500000001
  0
LINE
  8
_0-2_0-10
  6
CONTINUOUS
 62
    4
 10
112.692425
 20
214.43274500000001
 11
112.788904
 21
214.47694899999999
  0
LINE
  8
_0-2_0-10
  6
CONTINUOUS
 62
    4
 10
112.788904
 20
214.47694899999999
 11
112.87730999999999
 21
214.52518800000001
  0
LINE
  8
_0-2_0-10
  6
CONTINUOUS
 62
    4
 10
112.87730999999999
 20
214.52518800000001
 11
112.95697199999999
 21
214.57709600000001
  0
LINE
  8
_0-2_0-10
  6
CONTINUOUS
 62
    4
 10
112.95697199999999
 20
214.57709600000001
 11
113.02728199999999
 21
214.63227900000001
  0
LINE
  8
_0-2_0-10
  6
CONTINUOUS
 62
    4
 10
113.02728199999999
 20
214.63227900000001
 11
113.08770499999999
 21
214.69031499999999
  0
LINE
  8
_0-2_0-10
  6
CONTINUOUS
 62
    4
 10
113.08770499999999
 20
214.69031499999999
 11
113.13778299999999
 21
214.750764
  0
LINE
  8
_0-2_0-10
  6
CONTINUOUS
 62
    4
 10
113.13778299999999
 20
214.750764
 11
113.177132
 21
214.813164
  0
LINE
  8
_0-2_0-10
  6
CONTINUOUS
 62
    4
 10
113.177132
 20
214.813164
 11
113.205455
 21
214.87704299999998
  0
LINE
  8
_0-2_0-10
  6
CONTINUOUS
 62
    4
 10
113.205455
 20
214.87704299999998
 11
113.222536
 21
214.941912
  0
LINE
  8
_0-2_0-10
  6
CONTINUOUS
 62
    4
 10
113.222536
 20
214.941912
 11
113.228244
 21
215.00727900000001
  0
ENDBLK
  0
BLOCK
  2
-028-EDTIP_ARROW_S
 70
   64
 10
0
 20
0
 30
0
  0
LINE
  8
_0-0_0
  6
CONTINUOUS
 62
    7
 10
0
 20
0
 11
-1
 21
0
  0
LINE
  8
_0-0_0
  6
CONTINUOUS
 62
    7
 10
0
 20
0
 11
-0.9659259999999999
 21
0.258819
  0
LINE
  8
_0-0_0
  6
CONTINUOUS
 62
    7
 10
0
 20
0
 11
-0.9659259999999999
 21
-0.258819
  0
ENDBLK
  0
BLOCK
  2
-029-EDTIP_ARROW_E
 70
   64
 10
0
 20
0
 30
0
  0
LINE
  8
_0-0_0
  6
CONTINUOUS
 62
    7
 10
0
 20
0
 11
-1
 21
0
  0
LINE
  8
_0-0_0
  6
CONTINUOUS
 62
    7
 10
0
 20
0
 11
-0.9659259999999999
 21
-0.258819
  0
LINE
  8
_0-0_0
  6
CONTINUOUS
 62
    7
 10
0
 20
0
 11
-0.9659259999999999
 21
0.258819
  0
ENDBLK
  0
BLOCK
  2
-030-_D28
 70
   64
 10
0
 20
0
 30
0
  0
LINE
  8
_0-0_0
  6
CONTINUOUS
 62
    7
 10
244.6271435221106
 20
236.04474490109708
 11
233.57502652211169
 21
236.04474490109708
  0
LINE
  8
_0-0_0
  6
CONTINUOUS
 62
    7
 10
244.6271435221106
 20
86.044744901097004
 11
233.57502652211169
 21
86.044744901097004
  0
LINE
  8
_0-0_0
  6
CONTINUOUS
 62
    7
 10
234.57502652211161
 20
233.04474490109708
 11
234.57502652211169
 21
89.044744901097004
  0
INSERT
  2
-028-EDTIP_ARROW_S
  8
_0-0_0
 10
234.57502652211161
 20
236.04474490109708
 41
3
 42
3
 50
90
  0
INSERT
  2
-029-EDTIP_ARROW_E
  8
_0-0_0
 10
234.57502652211169
 20
86.044744901097004
 41
3
 42
3
 50
270
  0
TEXT
  8
_0-0_0
 62
    7
 10
234.07502652211161
 20
158.79474490109689
 40
3
 41
1
 50
90
  1
150
  0
POINT
  8
_0-3_Defpoints
 62
    7
 10
245.6271435221106
 20
236.04474490109708
  0
POINT
  8
_0-3_Defpoints
 62
    7
 10
245.6271435221106
 20
86.044744901097004
  0
POINT
  8
_0-3_Defpoints
 62
    7
 10
234.57502652211169
 20
86.044744901097004
  0
ENDBLK
  0
BLOCK
  2
-031-_D31
 70
   64
 10
0
 20
0
 30
0
  0
LINE
  8
_0-0_0
  6
CONTINUOUS
 62
    7
 10
245.62714352211048
 20
237.044744901097
 11
245.62714352211048
 21
248.18551156776359
  0
LINE
  8
_0-0_0
  6
CONTINUOUS
 62
    7
 10
303.14094885544392
 20
237.044744901097
 11
303.14094885544392
 21
248.18551156776359
  0
LINE
  8
_0-0_0
  6
CONTINUOUS
 62
    7
 10
248.62714352211048
 20
247.18551156776359
 11
300.14094885544392
 21
247.18551156776359
  0
INSERT
  2
-028-EDTIP_ARROW_S
  8
_0-0_0
 10
245.62714352211048
 20
247.18551156776359
 41
3
 42
3
 50
180
  0
INSERT
  2
-029-EDTIP_ARROW_E
  8
_0-0_0
 10
303.14094885544392
 20
247.18551156776359
 41
3
 42
3
 50
0
  0
TEXT
  8
_0-0_0
 62
    7
 10
272.88404618877717
 20
247.68551156776359
 40
3
 41
1
 50
0
  1
58
  0
POINT
  8
_0-3_Defpoints
 62
    7
 10
245.62714352211048
 20
236.044744901097
  0
POINT
  8
_0-3_Defpoints
 62
    7
 10
303.14094885544392
 20
236.044744901097
  0
POINT
  8
_0-3_Defpoints
 62
    7
 10
303.14094885544392
 20
247.18551156776359
  0
ENDBLK
  0
BLOCK
  2
-032-_D32
 70
   64
 10
0
 20
0
 30
0
  0
LINE
  8
_0-0_0
  6
CONTINUOUS
 62
    7
 10
303.14094885544392
 20
237.044744901097
 11
303.14094885544392
 21
248.17884490109599
  0
LINE
  8
_0-0_0
  6
CONTINUOUS
 62
    7
 10
355.94094885544382
 20
237.044744901097
 11
355.94094885544382
 21
248.17884490109599
  0
LINE
  8
_0-0_0
  6
CONTINUOUS
 62
    7
 10
306.14094885544392
 20
247.17884490109599
 11
352.94094885544382
 21
247.17884490109599
  0
INSERT
  2
-028-EDTIP_ARROW_S
  8
_0-0_0
 10
303.14094885544392
 20
247.17884490109599
 41
3
 42
3
 50
180
  0
INSERT
  2
-029-EDTIP_ARROW_E
  8
_0-0_0
 10
355.94094885544382
 20
247.17884490109599
 41
3
 42
3
 50
0
  0
TEXT
  8
_0-0_0
 62
    7
 10
328.04094885544378
 20
247.67884490109599
 40
3
 41
1
 50
0
  1
53
  0
POINT
  8
_0-3_Defpoints
 62
    7
 10
303.14094885544392
 20
236.044744901097
  0
POINT
  8
_0-3_Defpoints
 62
    7
 10
355.94094885544382
 20
236.04474490109689
  0
POINT
  8
_0-3_Defpoints
 62
    7
 10
355.94094885544382
 20
247.17884490109599
  0
ENDBLK
  0
BLOCK
  2
-033-_D33
 70
   64
 10
0
 20
0
 30
0
  0
LINE
  8
_0-0_0
  6
CONTINUOUS
 62
    7
 10
303.14094885544392
 20
237.044744901097
 11
303.14094885544392
 21
242.61179490109648
  0
LINE
  8
_0-0_0
  6
CONTINUOUS
 62
    7
 10
347.9409488554437
 20
237.044744901097
 11
347.9409488554437
 21
242.61179490109648
  0
LINE
  8
_0-0_0
  6
CONTINUOUS
 62
    7
 10
306.14094885544392
 20
241.61179490109648
 11
344.9409488554437
 21
241.61179490109648
  0
INSERT
  2
-028-EDTIP_ARROW_S
  8
_0-0_0
 10
303.14094885544392
 20
241.61179490109648
 41
3
 42
3
 50
180
  0
INSERT
  2
-029-EDTIP_ARROW_E
  8
_0-0_0
 10
347.9409488554437
 20
241.61179490109648
 41
3
 42
3
 50
0
  0
TEXT
  8
_0-0_0
 62
    7
 10
324.04094885544378
 20
242.11179490109648
 40
3
 41
1
 50
0
  1
45
  0
POINT
  8
_0-3_Defpoints
 62
    7
 10
303.14094885544392
 20
236.044744901097
  0
POINT
  8
_0-3_Defpoints
 62
    7
 10
347.9409488554437
 20
236.044744901097
  0
POINT
  8
_0-3_Defpoints
 62
    7
 10
347.9409488554437
 20
241.61179490109648
  0
ENDBLK
  0
BLOCK
  2
-034-_D34
 70
   64
 10
0
 20
0
 30
0
  0
LINE
  8
_0-0_0
  6
CONTINUOUS
 62
    7
 10
304.14094885544398
 20
236.04474490109708
 11
365.99347672904809
 21
236.04474490109708
  0
LINE
  8
_0-0_0
  6
CONTINUOUS
 62
    7
 10
304.14094885544398
 20
212.54474490109708
 11
365.99347672904809
 21
212.54474490109708
  0
LINE
  8
_0-0_0
  6
CONTINUOUS
 62
    7
 10
364.99347672904809
 20
233.04474490109708
 11
364.99347672904809
 21
215.54474490109708
  0
INSERT
  2
-028-EDTIP_ARROW_S
  8
_0-0_0
 10
364.99347672904809
 20
236.04474490109708
 41
3
 42
3
 50
90
  0
INSERT
  2
-029-EDTIP_ARROW_E
  8
_0-0_0
 10
364.99347672904809
 20
212.54474490109708
 41
3
 42
3
 50
270
  0
TEXT
  8
_0-0_0
 62
    7
 10
364.49347672904809
 20
222.79474490109689
 40
3
 41
1
 50
90
  1
24
  0
POINT
  8
_0-3_Defpoints
 62
    7
 10
303.14094885544398
 20
236.04474490109708
  0
POINT
  8
_0-3_Defpoints
 62
    7
 10
303.14094885544398
 20
212.54474490109708
  0
POINT
  8
_0-3_Defpoints
 62
    7
 10
364.99347672904809
 20
212.54474490109708
  0
ENDBLK
  0
BLOCK
  2
-035-_D35
 70
   64
 10
0
 20
0
 30
0
  0
LINE
  8
_0-0_0
  6
CONTINUOUS
 62
    7
 10
345.60761552211062
 20
115.5380782344304
 11
365.9885355221121
 21
115.5380782344304
  0
LINE
  8
_0-0_0
  6
CONTINUOUS
 62
    7
 10
345.6009488554439
 20
212.5447449010972
 11
365.9885355221121
 21
212.5447449010972
  0
LINE
  8
_0-0_0
  6
CONTINUOUS
 62
    7
 10
364.98853552211221
 20
118.5380782344304
 11
364.9885355221121
 21
209.5447449010972
  0
INSERT
  2
-028-EDTIP_ARROW_S
  8
_0-0_0
 10
364.98853552211221
 20
115.5380782344304
 41
3
 42
3
 50
270
  0
INSERT
  2
-029-EDTIP_ARROW_E
  8
_0-0_0
 10
364.9885355221121
 20
212.5447449010972
 41
3
 42
3
 50
90
  0
TEXT
  8
_0-0_0
 62
    7
 10
364.4885355221121
 20
162.54141156776358
 40
3
 41
1
 50
90
  1
97
  0
POINT
  8
_0-3_Defpoints
 62
    7
 10
344.60761552211062
 20
115.5380782344304
  0
POINT
  8
_0-3_Defpoints
 62
    7
 10
344.6009488554439
 20
212.5447449010972
  0
POINT
  8
_0-3_Defpoints
 62
    7
 10
364.9885355221121
 20
212.5447449010972
  0
ENDBLK
  0
BLOCK
  2
-036-_D36
 70
   64
 10
0
 20
0
 30
0
  0
LINE
  8
_0-0_0
  6
CONTINUOUS
 62
    7
 10
288.14094885544392
 20
73.295770234430307
 11
288.14094885544392
 21
60.509867567763627
  0
LINE
  8
_0-0_0
  6
CONTINUOUS
 62
    7
 10
303.14094885544392
 20
88.122436901096989
 11
303.14094885544392
 21
60.509867567763627
  0
LINE
  8
_0-0_0
  6
CONTINUOUS
 62
    7
 10
291.1409488554438
 20
61.50986756776362
 11
300.14094885544392
 21
61.50986756776362
  0
INSERT
  2
-028-EDTIP_ARROW_S
  8
_0-0_0
 10
288.14094885544392
 20
61.50986756776362
 41
3
 42
3
 50
180
  0
INSERT
  2
-029-EDTIP_ARROW_E
  8
_0-0_0
 10
303.14094885544392
 20
61.50986756776362
 41
3
 42
3
 50
0
  0
TEXT
  8
_0-0_0
 62
    7
 10
294.1409488554438
 20
62.009867567763627
 40
3
 41
1
 50
0
  1
15
  0
POINT
  8
_0-3_Defpoints
 62
    7
 10
288.14094885544392
 20
74.295770234430293
  0
POINT
  8
_0-3_Defpoints
 62
    7
 10
303.14094885544392
 20
89.122436901096989
  0
POINT
  8
_0-3_Defpoints
 62
    7
 10
303.14094885544392
 20
61.50986756776362
  0
ENDBLK
  0
BLOCK
  2
-037-_D37
 70
   64
 10
0
 20
0
 30
0
  0
LINE
  8
_0-0_0
  6
CONTINUOUS
 62
    7
 10
40.924971522110439
 20
236.04474490109708
 11
16.993760855443749
 21
236.04474490109708
  0
LINE
  8
_0-0_0
  6
CONTINUOUS
 62
    7
 10
34.92497152211046
 20
74.295770234430335
 11
16.993760855443788
 21
74.295770234430321
  0
LINE
  8
_0-0_0
  6
CONTINUOUS
 62
    7
 10
17.993760855443749
 20
233.04474490109708
 11
17.993760855443788
 21
77.295770234430321
  0
INSERT
  2
-028-EDTIP_ARROW_S
  8
_0-0_0
 10
17.993760855443749
 20
236.04474490109708
 41
3
 42
3
 50
90
  0
INSERT
  2
-029-EDTIP_ARROW_E
  8
_0-0_0
 10
17.993760855443788
 20
74.295770234430321
 41
3
 42
3
 50
270
  0
TEXT
  8
_0-0_0
 62
    7
 10
17.493760855443809
 20
152.92025756776359
 40
3
 41
1
 50
90
  1
162
  0
POINT
  8
_0-3_Defpoints
 62
    7
 10
41.924971522110439
 20
236.04474490109708
  0
POINT
  8
_0-3_Defpoints
 62
    7
 10
35.924971522110446
 20
74.295770234430335
  0
POINT
  8
_0-3_Defpoints
 62
    7
 10
17.993760855443788
 20
74.295770234430321
  0
ENDBLK
  0
BLOCK
  2
-038-_D38
 70
   64
 10
0
 20
0
 30
0
  0
LINE
  8
_0-0_0
  6
CONTINUOUS
 62
    7
 10
35.924971522110439
 20
77.567710234430307
 11
35.924971522110439
 21
60.509867567763642
  0
LINE
  8
_0-0_0
  6
CONTINUOUS
 62
    7
 10
191.9250076520226
 20
77.567710800033268
 11
191.9250076520226
 21
60.509867567763642
  0
LINE
  8
_0-0_0
  6
CONTINUOUS
 62
    7
 10
38.924971522110439
 20
61.509867567763642
 11
188.9250076520226
 21
61.509867567763642
  0
INSERT
  2
-028-EDTIP_ARROW_S
  8
_0-0_0
 10
35.924971522110439
 20
61.509867567763642
 41
3
 42
3
 50
180
  0
INSERT
  2
-029-EDTIP_ARROW_E
  8
_0-0_0
 10
191.9250076520226
 20
61.509867567763642
 41
3
 42
3
 50
0
  0
TEXT
  8
_0-0_0
 62
    7
 10
111.6749895870665
 20
62.009867567763642
 40
3
 41
1
 50
0
  1
156
  0
POINT
  8
_0-3_Defpoints
 62
    7
 10
35.924971522110439
 20
78.567710234430293
  0
POINT
  8
_0-3_Defpoints
 62
    7
 10
191.9250076520226
 20
78.567710800033253
  0
POINT
  8
_0-3_Defpoints
 62
    7
 10
191.9250076520226
 20
61.509867567763642
  0
ENDBLK
  0
BLOCK
  2
-039-_D39
 70
   64
 10
0
 20
0
 30
0
  0
LINE
  8
_0-0_0
  6
CONTINUOUS
 62
    7
 10
41.924971522110418
 20
237.044744901097
 11
41.924971522110418
 21
248.1788449010979
  0
LINE
  8
_0-0_0
  6
CONTINUOUS
 62
    7
 10
185.92497152211041
 20
237.044744901097
 11
185.92497152211041
 21
248.1788449010979
  0
LINE
  8
_0-0_0
  6
CONTINUOUS
 62
    7
 10
44.924971522110432
 20
247.1788449010979
 11
182.92497152211041
 21
247.1788449010979
  0
INSERT
  2
-028-EDTIP_ARROW_S
  8
_0-0_0
 10
41.924971522110418
 20
247.1788449010979
 41
3
 42
3
 50
180
  0
INSERT
  2
-029-EDTIP_ARROW_E
  8
_0-0_0
 10
185.92497152211041
 20
247.1788449010979
 41
3
 42
3
 50
0
  0
TEXT
  8
_0-0_0
 62
    7
 10
111.67497152211039
 20
247.6788449010979
 40
3
 41
1
 50
0
  1
144
  0
POINT
  8
_0-3_Defpoints
 62
    7
 10
41.924971522110418
 20
236.044744901097
  0
POINT
  8
_0-3_Defpoints
 62
    7
 10
185.92497152211041
 20
236.04474490109689
  0
POINT
  8
_0-3_Defpoints
 62
    7
 10
185.92497152211041
 20
247.1788449010979
  0
ENDBLK
  0
ENDSEC
  0
SECTION
  2
ENTITIES
  0
LINE
  8
_0-2_0-10
  6
CONTINUOUS
 62
    4
 10
302.39094787639112
 20
88.795769542923295
 11
287.89094787639112
 21
74.295769542923281
  0
LINE
  8
_0-2_0-10
  6
CONTINUOUS
 62
    3
 10
6.9999980430582127
 20
290.49999861698597
 11
412.99999804305809
 21
290.49999861698597
  0
LINE
  8
_0-2_0-10
  6
CONTINUOUS
 62
    3
 10
209.99999804305821
 20
6.4999986169859766
 11
209.99999804305821
 21
8.4999986169859766
  0
LINE
  8
_0-2_0-10
  6
CONTINUOUS
 62
    3
 10
410.99999804305809
 20
148.49999861698597
 11
412.99999804305809
 21
148.49999861698597
  0
LINE
  8
_0-2_0-10
  6
CONTINUOUS
 62
    3
 10
412.99999804305809
 20
6.4999986169859766
 11
412.99999804305809
 21
290.49999861698597
  0
LINE
  8
_0-2_0-10
  6
CONTINUOUS
 62
    3
 10
6.9999980430582127
 20
6.4999986169859766
 11
6.9999980430582127
 21
290.49999861698597
  0
LINE
  8
_0-2_0-10
  6
CONTINUOUS
 62
    3
 10
6.9999980430582127
 20
148.49999861698597
 11
8.9999980430582127
 21
148.49999861698597
  0
LINE
  8
_0-2_0-10
  6
CONTINUOUS
 62
    3
 10
6.9999980430582127
 20
6.4999986169859766
 11
412.99999804305809
 21
6.4999986169859766
  0
LINE
  8
_0-2_0-10
  6
CONTINUOUS
 62
    3
 10
245.37714254305768
 20
236.04474420958999
 11
302.89094787639112
 21
236.04474420958999
  0
LINE
  8
_0-2_0-10
  6
CONTINUOUS
 62
    3
 10
245.37714254305768
 20
236.04474420958999
 11
245.37714254305768
 21
86.044744209589964
  0
LINE
  8
_0-2_0-10
  6
CONTINUOUS
 62
    5
 10
293.39094787639101
 20
235.54474420958999
 11
296.89094787639112
 21
235.54474420958999
  0
ARC
  8
_0-2_0-10
  6
CONTINUOUS
 62
    5
 10
297.39094787639101
 20
235.54474420958999
 40
0.5
 50
90
 51
180
  0
LINE
  8
_0-2_0-10
  6
CONTINUOUS
 62
    3
 10
245.8771425430576
 20
236.04474420958999
 11
245.8771425430576
 21
86.044744209589964
  0
LINE
  8
_0-2_0-10
  6
CONTINUOUS
 62
    3
 10
298.89094787639112
 20
86.044744209589964
 11
302.29094787639098
 21
89.444744209589941
  0
LINE
  8
_0-2_0-10
  6
CONTINUOUS
 62
    7
 10
284.0554918763911
 20
164.04474420958987
 11
356.36192120972441
 21
164.04474420958987
  0
ARC
  8
_0-2_0-10
  6
CONTINUOUS
 62
    6
 10
344.69094787639102
 20
209.54474420958999
 40
3
 50
0
 51
90
  0
ARC
  8
_0-2_0-10
  6
CONTINUOUS
 62
    6
 10
344.69094787639102
 20
118.54474420958999
 40
3
 50
270
 51
0
  0
LINE
  8
_0-2_0-10
  6
CONTINUOUS
 62
    6
 10
344.69094787639102
 20
115.54474420958999
 11
301.69094787639102
 21
115.54474420958999
  0
LINE
  8
_0-2_0-10
  6
CONTINUOUS
 62
    6
 10
301.69094787639102
 20
212.54474420958999
 11
344.69094787639102
 21
212.54474420958999
  0
LINE
  8
_0-2_0-10
  6
CONTINUOUS
 62
    6
 10
297.19094787639102
 20
224.34474420958997
 11
297.19094787639102
 21
103.74474420958988
  0
LINE
  8
_0-2_0-10
  6
CONTINUOUS
 62
    6
 10
297.69094787639102
 20
224.34474420958997
 11
297.69094787639102
 21
216.54474420958999
  0
ARC
  8
_0-2_0-10
  6
CONTINUOUS
 62
    6
 10
301.69094787639102
 20
216.54474420958999
 40
4
 50
180
 51
270
  0
ARC
  8
_0-2_0-10
  6
CONTINUOUS
 62
    6
 10
301.69094787639102
 20
111.54474420958999
 40
4
 50
90
 51
180
  0
LINE
  8
_0-2_0-10
  6
CONTINUOUS
 62
    6
 10
297.69094787639102
 20
111.54474420958999
 11
297.69094787639102
 21
103.74474420958988
  0
LINE
  8
_0-2_0-10
  6
CONTINUOUS
 62
    6
 10
297.89094787639112
 20
235.04474420958999
 11
298.39094787639112
 21
235.04474420958999
  0
LINE
  8
_0-2_0-10
  6
CONTINUOUS
 62
    3
 10
245.37714254305768
 20
86.044744209589964
 11
298.89094787639112
 21
86.044744209589964
  0
LINE
  8
_0-2_0-10
  6
CONTINUOUS
 62
    3
 10
302.29094787639098
 20
91.231793542923313
 11
302.29094787639098
 21
89.444744209589941
  0
LINE
  8
_0-2_0-10
  6
CONTINUOUS
 62
    5
 10
296.89094787639112
 20
235.54474420958999
 11
296.89094787639112
 21
226.42840820958997
  0
LINE
  8
_0-2_0-10
  6
CONTINUOUS
 62
    5
 10
297.39094787639101
 20
226.04474420958999
 11
261.16872920972429
 21
216.33903087625668
  0
LINE
  8
_0-2_0-10
  6
CONTINUOUS
 62
    5
 10
297.39094787639101
 20
236.04474420958999
 11
302.89094787639112
 21
236.04474420958999
  0
LINE
  8
_0-2_0-10
  6
CONTINUOUS
 62
    5
 10
297.39094787639101
 20
235.54474420958999
 11
297.39094787639101
 21
225.34474420958997
  0
ARC
  8
_0-2_0-10
  6
CONTINUOUS
 62
    5
 10
296.89094787639112
 20
226.42840820958997
 40
0.5
 50
285
 51
0
  0
LINE
  8
_0-2_0-10
  6
CONTINUOUS
 62
    5
 10
260.55635587639102
 20
216.69258420958988
 11
259.39167054305772
 21
221.0392495429233
  0
LINE
  8
_0-2_0-10
  6
CONTINUOUS
 62
    5
 10
259.87463320972432
 20
221.16866020958988
 11
259.39167054305772
 21
221.0392495429233
  0
LINE
  8
_0-2_0-10
  6
CONTINUOUS
 62
    5
 10
261.03931987639089
 20
216.82199354292328
 11
259.87463320972432
 21
221.16866020958988
  0
LINE
  8
_0-2_0-10
  6
CONTINUOUS
 62
    5
 10
260.68576654305769
 20
216.46844020958999
 11
260.68576654305769
 21
212.11065220959
  0
LINE
  8
_0-2_0-10
  6
CONTINUOUS
 62
    5
 10
260.55635587639102
 20
212.33479620958999
 11
259.73241187639109
 21
215.40979754292328
  0
LINE
  8
_0-2_0-10
  6
CONTINUOUS
 62
    5
 10
259.39167054305772
 20
221.0392495429233
 11
259.39167054305772
 21
217.99798820958997
  0
LINE
  8
_0-2_0-10
  6
CONTINUOUS
 62
    5
 10
268.28376254305771
 20
213.51266687625658
 11
268.28376254305771
 21
213.3388388762566
  0
LINE
  8
_0-2_0-10
  6
CONTINUOUS
 62
    5
 10
267.65788120972439
 20
213.72000687625657
 11
261.16872920972429
 21
211.98124287625668
  0
LINE
  8
_0-2_0-10
  6
CONTINUOUS
 62
    5
 10
268.28376254305771
 20
213.3388388762566
 11
268.41317320972427
 21
212.85587620958989
  0
LINE
  8
_0-2_0-10
  6
CONTINUOUS
 62
    5
 10
268.41317320972427
 20
213.14045087625657
 11
268.41317320972427
 21
212.85587620958989
  0
ARC
  8
_0-2_0-10
  6
CONTINUOUS
 62
    5
 10
261.03931987639089
 20
212.46420554292328
 40
0.5
 50
194.99999999999985
 51
285
  0
ARC
  8
_0-2_0-10
  6
CONTINUOUS
 62
    5
 10
261.03931987639089
 20
216.82199354292328
 40
0.5
 50
194.99999999999985
 51
285
  0
LINE
  8
_0-2_0-10
  6
CONTINUOUS
 62
    5
 10
292.39094787639112
 20
234.54474420958999
 11
292.39094787639112
 21
225.22263620958997
  0
ARC
  8
_0-2_0-10
  6
CONTINUOUS
 62
    5
 10
267.81317320972431
 20
213.14045087625657
 40
0.5999999999999999
 50
0
 51
104.9999999999999
  0
ARC
  8
_0-2_0-10
  6
CONTINUOUS
 62
    5
 10
293.39094787639101
 20
234.54474420958999
 40
1
 50
90
 51
180
  0
ARC
  8
_0-2_0-10
  6
CONTINUOUS
 62
    5
 10
269.39167054305772
 20
217.99798820958997
 40
10
 50
180
 51
194.99999999999988
  0
LINE
  8
_0-2_0-10
  6
CONTINUOUS
 62
    5
 10
296.89094787639112
 20
226.42840820958997
 11
261.03931987639089
 21
216.82199354292328
  0
LINE
  8
_0-2_0-10
  6
CONTINUOUS
 62
    4
 10
297.39094787639101
 20
235.04474420958999
 11
297.39094787639101
 21
225.34474420958997
  0
LINE
  8
_0-2_0-10
  6
CONTINUOUS
 62
    4
 10
297.89094787639112
 20
235.54474420958999
 11
302.89094787639112
 21
235.54474420958999
  0
LINE
  8
_0-2_0-10
  6
CONTINUOUS
 62
    4
 10
297.89094787639112
 20
235.04474420958999
 11
302.89094787639112
 21
235.04474420958999
  0
ARC
  8
_0-2_0-10
  6
CONTINUOUS
 62
    4
 10
297.89094787639112
 20
235.04474420958999
 40
0.5
 50
90
 51
180
  0
LINE
  8
_0-2_0-10
  6
CONTINUOUS
 62
    4
 10
302.39094787639112
 20
91.204998876256638
 11
297.76153720972439
 21
92.445445542923295
  0
LINE
  8
_0-2_0-10
  6
CONTINUOUS
 62
    4
 10
302.5203572097244
 20
91.687961542923275
 11
297.89094787639112
 21
92.928408209589974
  0
LINE
  8
_0-2_0-10
  6
CONTINUOUS
 62
    4
 10
302.74450120972431
 20
88.442214876256628
 11
288.24450120972431
 21
73.942214876256628
  0
ARC
  8
_0-2_0-10
  6
CONTINUOUS
 62
    4
 10
297.89094787639112
 20
92.928408209589974
 40
0.5
 50
180
 51
255.00000000000011
  0
LINE
  8
_0-2_0-10
  6
CONTINUOUS
 62
    4
 10
293.27596254305768
 20
86.044744209589964
 11
291.10222387639112
 21
83.871006876256643
  0
ARC
  8
_0-2_0-10
  6
CONTINUOUS
 62
    4
 10
293.22354387639097
 20
81.749685542923316
 40
3
 50
135.00000000000011
 51
224.99999999999988
  0
LINE
  8
_0-2_0-10
  6
CONTINUOUS
 62
    4
 10
291.10222387639112
 20
79.62836554292329
 11
292.16288387639087
 21
78.567705542923306
  0
LINE
  8
_0-2_0-10
  6
CONTINUOUS
 62
    4
 10
296.69094787639102
 20
224.84474420958997
 11
296.69094787639102
 21
103.24474420958988
  0
LINE
  8
_0-2_0-10
  6
CONTINUOUS
 62
    4
 10
296.19094787639102
 20
103.24474420958988
 11
296.19094787639102
 21
119.48358154292328
  0
LINE
  8
_0-2_0-10
  6
CONTINUOUS
 62
    4
 10
302.89094787639112
 20
88.795769542923295
 11
302.89094787639112
 21
91.204998876256638
  0
LINE
  8
_0-2_0-10
  6
CONTINUOUS
 62
    4
 10
302.39094787639112
 20
88.795769542923295
 11
302.39094787639112
 21
91.204998876256638
  0
ARC
  8
_0-2_0-10
  6
CONTINUOUS
 62
    4
 10
302.39094787639112
 20
91.204998876256638
 40
0.5
 50
0
 51
75.000000000000056
  0
ARC
  8
_0-2_0-10
  6
CONTINUOUS
 62
    4
 10
302.39094787639112
 20
88.795769542923295
 40
0.5
 50
315.00000000000011
 51
0
  0
LINE
  8
_0-2_0-10
  6
CONTINUOUS
 62
    4
 10
288.24450120972431
 20
73.942214876256628
 11
287.89094787639112
 21
74.295769542923281
  0
LINE
  8
_0-2_0-10
  6
CONTINUOUS
 62
    4
 10
302.89094787639112
 20
235.54474420958999
 11
302.89094787639112
 21
235.04474420958999
  0
LINE
  8
_0-2_0-10
  6
CONTINUOUS
 62
    4
 10
288.433567876391
 20
211.50558687625658
 11
288.70588787639098
 21
211.08625220958998
  0
LINE
  8
_0-2_0-10
  6
CONTINUOUS
 62
    4
 10
296.19094787639102
 20
216.04474420958999
 11
292.6269212097244
 21
214.22878287625658
  0
LINE
  8
_0-2_0-10
  6
CONTINUOUS
 62
    4
 10
296.41794254305767
 20
215.59924154292329
 11
292.85391720972427
 21
213.7832788762567
  0
ARC
  8
_0-2_0-10
  6
CONTINUOUS
 62
    4
 10
296.19094787639102
 20
216.04474420958999
 40
0.5
 50
297.00000000000022
 51
0
  0
LINE
  8
_0-2_0-10
  6
CONTINUOUS
 62
    4
 10
292.6269212097244
 20
214.22878287625658
 11
288.433567876391
 21
211.50558687625658
  0
LINE
  8
_0-2_0-10
  6
CONTINUOUS
 62
    4
 10
292.89924120972438
 20
213.8094468762566
 11
288.70588787639098
 21
211.08625220958998
  0
LINE
  8
_0-2_0-10
  6
CONTINUOUS
 62
    4
 10
288.433567876391
 20
199.50558687625658
 11
288.70588787639098
 21
199.08625220958998
  0
LINE
  8
_0-2_0-10
  6
CONTINUOUS
 62
    4
 10
296.19094787639102
 20
204.04474420958999
 11
292.6269212097244
 21
202.22878287625658
  0
LINE
  8
_0-2_0-10
  6
CONTINUOUS
 62
    4
 10
296.41794254305767
 20
203.59924154292329
 11
292.85391720972427
 21
201.78327887625658
  0
ARC
  8
_0-2_0-10
  6
CONTINUOUS
 62
    4
 10
296.19094787639102
 20
204.04474420958999
 40
0.5
 50
297.00000000000022
 51
0
  0
LINE
  8
_0-2_0-10
  6
CONTINUOUS
 62
    4
 10
292.6269212097244
 20
202.22878287625658
 11
288.433567876391
 21
199.50558687625658
  0
LINE
  8
_0-2_0-10
  6
CONTINUOUS
 62
    4
 10
292.89924120972438
 20
201.8094468762566
 11
288.70588787639098
 21
199.08625220958998
  0
LINE
  8
_0-2_0-10
  6
CONTINUOUS
 62
    4
 10
288.433567876391
 20
187.50558687625658
 11
288.70588787639098
 21
187.0862522095899
  0
LINE
  8
_0-2_0-10
  6
CONTINUOUS
 62
    4
 10
296.19094787639102
 20
192.04474420958987
 11
292.6269212097244
 21
190.22878287625658
  0
LINE
  8
_0-2_0-10
  6
CONTINUOUS
 62
    4
 10
296.41794254305767
 20
191.59924154292318
 11
292.85391720972427
 21
189.78327887625658
  0
ARC
  8
_0-2_0-10
  6
CONTINUOUS
 62
    4
 10
296.19094787639102
 20
192.04474420958987
 40
0.5
 50
297.00000000000022
 51
0
  0
LINE
  8
_0-2_0-10
  6
CONTINUOUS
 62
    4
 10
292.6269212097244
 20
190.22878287625658
 11
288.433567876391
 21
187.50558687625658
  0
LINE
  8
_0-2_0-10
  6
CONTINUOUS
 62
    4
 10
292.89924120972438
 20
189.80944687625529
 11
288.70588787639098
 21
187.0862522095899
  0
LINE
  8
_0-2_0-10
  6
CONTINUOUS
 62
    4
 10
288.433567876391
 20
175.50558687625658
 11
288.70588787639098
 21
175.08625220958998
  0
LINE
  8
_0-2_0-10
  6
CONTINUOUS
 62
    4
 10
296.19094787639102
 20
180.04474420958999
 11
292.6269212097244
 21
178.22878287625658
  0
LINE
  8
_0-2_0-10
  6
CONTINUOUS
 62
    4
 10
296.41794254305767
 20
179.59924154292329
 11
292.85391720972427
 21
177.78327887625658
  0
ARC
  8
_0-2_0-10
  6
CONTINUOUS
 62
    4
 10
296.19094787639102
 20
180.04474420958999
 40
0.5
 50
297.00000000000022
 51
0
  0
LINE
  8
_0-2_0-10
  6
CONTINUOUS
 62
    4
 10
292.6269212097244
 20
178.22878287625658
 11
288.433567876391
 21
175.50558687625658
  0
LINE
  8
_0-2_0-10
  6
CONTINUOUS
 62
    4
 10
292.89924120972438
 20
177.8094468762566
 11
288.70588787639098
 21
175.08625220958998
  0
LINE
  8
_0-2_0-10
  6
CONTINUOUS
 62
    4
 10
288.433567876391
 20
163.50558687625658
 11
288.70588787639098
 21
163.0862522095899
  0
LINE
  8
_0-2_0-10
  6
CONTINUOUS
 62
    4
 10
296.19094787639102
 20
168.04474420958987
 11
292.6269212097244
 21
166.22878287625658
  0
LINE
  8
_0-2_0-10
  6
CONTINUOUS
 62
    4
 10
296.41794254305767
 20
167.59924154292329
 11
292.85391720972427
 21
165.78327887625658
  0
ARC
  8
_0-2_0-10
  6
CONTINUOUS
 62
    4
 10
296.19094787639102
 20
168.04474420958987
 40
0.5
 50
297.00000000000022
 51
0
  0
LINE
  8
_0-2_0-10
  6
CONTINUOUS
 62
    4
 10
292.6269212097244
 20
166.22878287625658
 11
288.433567876391
 21
163.50558687625658
  0
LINE
  8
_0-2_0-10
  6
CONTINUOUS
 62
    4
 10
292.89924120972438
 20
165.8094468762566
 11
288.70588787639098
 21
163.0862522095899
  0
LINE
  8
_0-2_0-10
  6
CONTINUOUS
 62
    4
 10
288.433567876391
 20
151.50558687625658
 11
288.70588787639098
 21
151.0862522095899
  0
LINE
  8
_0-2_0-10
  6
CONTINUOUS
 62
    4
 10
296.19094787639102
 20
156.04474420958999
 11
292.6269212097244
 21
154.22878287625528
  0
LINE
  8
_0-2_0-10
  6
CONTINUOUS
 62
    4
 10
296.41794254305767
 20
155.59924154292329
 11
292.85391720972427
 21
153.78327887625658
  0
ARC
  8
_0-2_0-10
  6
CONTINUOUS
 62
    4
 10
296.19094787639102
 20
156.04474420958999
 40
0.5
 50
297.00000000000022
 51
0
  0
LINE
  8
_0-2_0-10
  6
CONTINUOUS
 62
    4
 10
292.6269212097244
 20
154.22878287625528
 11
288.433567876391
 21
151.50558687625658
  0
LINE
  8
_0-2_0-10
  6
CONTINUOUS
 62
    4
 10
292.89924120972438
 20
153.80944687625529
 11
288.70588787639098
 21
151.0862522095899
  0
LINE
  8
_0-2_0-10
  6
CONTINUOUS
 62
    4
 10
288.433567876391
 20
139.50558687625658
 11
288.70588787639098
 21
139.0862522095899
  0
LINE
  8
_0-2_0-10
  6
CONTINUOUS
 62
    4
 10
296.19094787639102
 20
144.04474420958987
 11
292.6269212097244
 21
142.22878287625658
  0
LINE
  8
_0-2_0-10
  6
CONTINUOUS
 62
    4
 10
296.41794254305767
 20
143.59924154292329
 11
292.85391720972427
 21
141.78327887625658
  0
ARC
  8
_0-2_0-10
  6
CONTINUOUS
 62
    4
 10
296.19094787639102
 20
144.04474420958987
 40
0.5
 50
297.00000000000022
 51
0
  0
LINE
  8
_0-2_0-10
  6
CONTINUOUS
 62
    4
 10
292.6269212097244
 20
142.22878287625658
 11
288.433567876391
 21
139.50558687625658
  0
LINE
  8
_0-2_0-10
  6
CONTINUOUS
 62
    4
 10
292.89924120972438
 20
141.8094468762566
 11
288.70588787639098
 21
139.0862522095899
  0
LINE
  8
_0-2_0-10
  6
CONTINUOUS
 62
    4
 10
288.433567876391
 20
127.50558687625658
 11
288.70588787639098
 21
127.08625220958988
  0
LINE
  8
_0-2_0-10
  6
CONTINUOUS
 62
    4
 10
296.19094787639102
 20
132.04474420958999
 11
292.6269212097244
 21
130.22878287625658
  0
LINE
  8
_0-2_0-10
  6
CONTINUOUS
 62
    4
 10
296.41794254305767
 20
131.59924154292329
 11
292.85391720972427
 21
129.78327887625658
  0
ARC
  8
_0-2_0-10
  6
CONTINUOUS
 62
    4
 10
296.19094787639102
 20
132.04474420958999
 40
0.5
 50
297.00000000000022
 51
0
  0
LINE
  8
_0-2_0-10
  6
CONTINUOUS
 62
    4
 10
292.6269212097244
 20
130.22878287625658
 11
288.433567876391
 21
127.50558687625658
  0
LINE
  8
_0-2_0-10
  6
CONTINUOUS
 62
    4
 10
292.89924120972438
 20
129.8094468762566
 11
288.70588787639098
 21
127.08625220958988
  0
LINE
  8
_0-2_0-10
  6
CONTINUOUS
 62
    4
 10
288.433567876391
 20
115.50558687625658
 11
288.70588787639098
 21
115.08625220958988
  0
LINE
  8
_0-2_0-10
  6
CONTINUOUS
 62
    4
 10
296.19094787639102
 20
120.04474420958999
 11
292.6269212097244
 21
118.22878287625658
  0
LINE
  8
_0-2_0-10
  6
CONTINUOUS
 62
    4
 10
296.41794254305767
 20
119.59924154292329
 11
292.85391720972427
 21
117.78327887625658
  0
ARC
  8
_0-2_0-10
  6
CONTINUOUS
 62
    4
 10
296.19094787639102
 20
120.04474420958999
 40
0.5
 50
297.00000000000022
 51
0
  0
LINE
  8
_0-2_0-10
  6
CONTINUOUS
 62
    4
 10
292.6269212097244
 20
118.22878287625658
 11
288.433567876391
 21
115.50558687625658
  0
LINE
  8
_0-2_0-10
  6
CONTINUOUS
 62
    4
 10
292.89924120972438
 20
117.80944687625658
 11
288.70588787639098
 21
115.08625220958988
  0
LINE
  8
_0-2_0-10
  6
CONTINUOUS
 62
    4
 10
296.19094787639102
 20
222.64474420958998
 11
296.69094787639102
 21
222.64474420958998
  0
LINE
  8
_0-2_0-10
  6
CONTINUOUS
 62
    4
 10
297.39094787639101
 20
231.94474420958988
 11
297.89094787639112
 21
231.94474420958988
  0
LINE
  8
_0-2_0-10
  6
CONTINUOUS
 62
    3
 10
267.13675854305762
 20
236.04474420958999
 11
267.13675854305762
 21
218.45579754292327
  0
LINE
  8
_0-2_0-10
  6
CONTINUOUS
 62
    3
 10
267.13675854305762
 20
213.58037220958988
 11
267.13675854305762
 21
86.044744209589964
  0
LINE
  8
_0-2_0-10
  6
CONTINUOUS
 62
    5
 10
297.39094787639101
 20
235.54474420958999
 11
302.89094787639112
 21
235.54474420958999
  0
LINE
  8
_0-2_0-10
  6
CONTINUOUS
 62
    4
 10
297.89094787639112
 20
235.04474420958999
 11
297.89094787639112
 21
215.02487620958999
  0
LINE
  8
_0-2_0-10
  6
CONTINUOUS
 62
    4
 10
297.39094787639101
 20
102.74474420958988
 11
297.39094787639101
 21
92.928408209589974
  0
LINE
  8
_0-2_0-10
  6
CONTINUOUS
 62
    4
 10
296.19094787639102
 20
216.04474420958999
 11
296.19094787639102
 21
224.84474420958997
  0
LINE
  8
_0-2_0-10
  6
CONTINUOUS
 62
    4
 10
296.19094787639102
 20
204.04474420958999
 11
296.19094787639102
 21
215.48358154292327
  0
LINE
  8
_0-2_0-10
  6
CONTINUOUS
 62
    4
 10
296.19094787639102
 20
192.04474420958987
 11
296.19094787639102
 21
203.48358154292327
  0
LINE
  8
_0-2_0-10
  6
CONTINUOUS
 62
    4
 10
296.19094787639102
 20
180.04474420958999
 11
296.19094787639102
 21
191.48358154292327
  0
LINE
  8
_0-2_0-10
  6
CONTINUOUS
 62
    4
 10
296.19094787639102
 20
168.04474420958987
 11
296.19094787639102
 21
179.48358154292327
  0
LINE
  8
_0-2_0-10
  6
CONTINUOUS
 62
    4
 10
296.19094787639102
 20
156.04474420958999
 11
296.19094787639102
 21
167.48358154292327
  0
LINE
  8
_0-2_0-10
  6
CONTINUOUS
 62
    4
 10
296.19094787639102
 20
144.04474420958987
 11
296.19094787639102
 21
155.48358154292327
  0
LINE
  8
_0-2_0-10
  6
CONTINUOUS
 62
    4
 10
296.19094787639102
 20
132.04474420958999
 11
296.19094787639102
 21
143.48358154292327
  0
LINE
  8
_0-2_0-10
  6
CONTINUOUS
 62
    4
 10
296.19094787639102
 20
120.04474420958999
 11
296.19094787639102
 21
131.48358154292327
  0
LINE
  8
_0-2_0-10
  6
CONTINUOUS
 62
    3
 10
302.89094787639112
 20
115.54474420958999
 11
302.89094787639112
 21
91.744744209589953
  0
ARC
  8
_0-2_0-10
  6
CONTINUOUS
 62
    3
 10
302.59094787639099
 20
91.744744209589953
 40
0.2999999999999999
 50
309.9276920000002
 51
0
  0
LINE
  8
_0-2_0-10
  6
CONTINUOUS
 62
    4
 10
295.70029454305768
 20
203.79474420958999
 11
295.9272905430576
 21
203.34924154292329
  0
LINE
  8
_0-2_0-10
  6
CONTINUOUS
 62
    4
 10
295.70029454305768
 20
191.79474420958999
 11
295.9272905430576
 21
191.34924154292329
  0
LINE
  8
_0-2_0-10
  6
CONTINUOUS
 62
    4
 10
295.70029454305768
 20
179.79474420958987
 11
295.9272905430576
 21
179.34924154292318
  0
LINE
  8
_0-2_0-10
  6
CONTINUOUS
 62
    4
 10
295.70029454305768
 20
167.79474420958999
 11
295.9272905430576
 21
167.34924154292329
  0
LINE
  8
_0-2_0-10
  6
CONTINUOUS
 62
    4
 10
295.70029454305768
 20
155.79474420958987
 11
295.9272905430576
 21
155.34924154292318
  0
LINE
  8
_0-2_0-10
  6
CONTINUOUS
 62
    4
 10
295.70029454305768
 20
143.79474420958999
 11
295.9272905430576
 21
143.34924154292329
  0
LINE
  8
_0-2_0-10
  6
CONTINUOUS
 62
    4
 10
295.70029454305768
 20
131.79474420958987
 11
295.9272905430576
 21
131.34924154292329
  0
LINE
  8
_0-2_0-10
  6
CONTINUOUS
 62
    4
 10
295.70029454305768
 20
119.79474420958999
 11
295.9272905430576
 21
119.34924154292329
  0
INSERT
  2
-026-BLKF051_31
  8
_0-2_0-10
 10
-11.296021456942355
 20
-74.564639790410012
 41
1.333333333333333
 42
1.333333333333333
 50
0
  0
LINE
  8
_0-2_0-10
  6
CONTINUOUS
 62
    4
 10
296.19094787639102
 20
108.54474420958999
 11
296.69094787639102
 21
108.54474420958999
  0
LINE
  8
_0-2_0-10
  6
CONTINUOUS
 62
    6
 10
297.69094787639102
 20
224.34474420958997
 11
297.19094787639102
 21
224.34474420958997
  0
LINE
  8
_0-2_0-10
  6
CONTINUOUS
 62
    4
 10
296.69094787639102
 20
224.84474420958997
 11
297.39094787639101
 21
224.84474420958997
  0
LINE
  8
_0-2_0-10
  6
CONTINUOUS
 62
    4
 10
296.69094787639102
 20
225.34474420958997
 11
297.39094787639101
 21
225.34474420958997
  0
ARC
  8
_0-2_0-10
  6
CONTINUOUS
 62
    4
 10
296.69094787639102
 20
224.84474420958997
 40
0.5
 50
90
 51
180
  0
ARC
  8
_0-2_0-10
  6
CONTINUOUS
 62
    4
 10
297.39094787639101
 20
225.34474420958997
 40
0.5
 50
270
 51
0
  0
LINE
  8
_0-2_0-10
  6
CONTINUOUS
 62
    5
 10
296.19094787639102
 20
220.29890820958999
 11
268.41317320972427
 21
212.85587620958989
  0
LINE
  8
_0-2_0-10
  6
CONTINUOUS
 62
    7
 10
300.93679054305772
 20
235.54474420958999
 11
301.80281587639098
 21
235.04474420958999
  0
LINE
  8
_0-2_0-10
  6
CONTINUOUS
 62
    4
 10
296.69094787639102
 20
103.24474420958988
 11
297.39094787639101
 21
103.24474420958988
  0
LINE
  8
_0-2_0-10
  6
CONTINUOUS
 62
    4
 10
296.69094787639102
 20
102.74474420958988
 11
297.39094787639101
 21
102.74474420958988
  0
ARC
  8
_0-2_0-10
  6
CONTINUOUS
 62
    4
 10
296.69094787639102
 20
103.24474420958988
 40
0.5
 50
180
 51
270
  0
ARC
  8
_0-2_0-10
  6
CONTINUOUS
 62
    4
 10
297.39094787639101
 20
102.74474420958988
 40
0.5
 50
0
 51
90
  0
LINE
  8
_0-2_0-10
  6
CONTINUOUS
 62
    6
 10
297.69094787639102
 20
103.74474420958988
 11
297.19094787639102
 21
103.74474420958988
  0
LINE
  8
_0-2_0-10
  6
CONTINUOUS
 62
    4
 10
297.89094787639112
 20
113.06461354292189
 11
297.89094787639112
 21
92.928408209589974
  0
LINE
  8
_0-2_0-10
  6
CONTINUOUS
 62
    2
 10
355.69094787639102
 20
170.1447442095899
 11
355.69094787639102
 21
157.94474420958988
  0
ARC
  8
_0-2_0-10
  6
CONTINUOUS
 62
    2
 10
355.29094787639087
 20
170.1447442095899
 40
0.4
 50
0
 51
90
  0
ARC
  8
_0-2_0-10
  6
CONTINUOUS
 62
    2
 10
355.29094787639087
 20
157.94474420958988
 40
0.4
 50
270
 51
0
  0
LINE
  8
_0-2_0-10
  6
CONTINUOUS
 62
    7
 10
313.69094787639102
 20
215.00715220958997
 11
313.76040654305762
 21
215.40107487625658
  0
LINE
  8
_0-2_0-10
  6
CONTINUOUS
 62
    7
 10
313.69094787639102
 20
215.00715220958997
 11
315.66056254305772
 21
214.6598548762567
  0
ARC
  8
_0-2_0-10
  6
CONTINUOUS
 62
    7
 10
315.73002254305771
 20
215.05377887625658
 40
0.4
 50
260
 51
297.39251799999999
  0
ARC
  8
_0-2_0-10
  6
CONTINUOUS
 62
    7
 10
320.33086120972427
 20
206.17502420958999
 40
9.5999999999999996
 50
42.607482000000118
 51
117.392518
  0
LINE
  8
_0-2_0-10
  6
CONTINUOUS
 62
    7
 10
313.76040654305762
 20
215.40107487625658
 11
315.73002254305771
 21
215.05377887625658
  0
ARC
  8
_0-2_0-10
  6
CONTINUOUS
 62
    7
 10
320.33086120972427
 20
206.17502420958999
 40
10
 50
42.607482000000118
 51
117.392518
  0
LINE
  8
_0-2_0-10
  6
CONTINUOUS
 62
    7
 10
327.69094787639102
 20
212.54474420958999
 11
339.69094787639102
 21
212.54474420958999
  0
LINE
  8
_0-2_0-10
  6
CONTINUOUS
 62
    7
 10
327.69094787639102
 20
212.94474420958999
 11
339.69094787639102
 21
212.94474420958999
  0
LINE
  8
_0-2_0-10
  6
CONTINUOUS
 62
    7
 10
339.69094787639102
 20
212.94474420958999
 11
339.69094787639102
 21
212.54474420958999
  0
LINE
  8
_0-2_0-10
  6
CONTINUOUS
 62
    6
 10
347.69094787639102
 20
142.78233620958999
 11
347.69094787639102
 21
118.54474420958999
  0
LINE
  8
_0-2_0-10
  6
CONTINUOUS
 62
    7
 10
25.993729209724307
 20
164.04474420958987
 11
201.35621054305761
 21
164.04474420958987
  0
LINE
  8
_0-2_0-10
  6
CONTINUOUS
 62
    7
 10
113.67497054305759
 20
244.53554154292328
 11
113.67497054305759
 21
131.79474420958987
  0
LINE
  8
_0-2_0-10
  6
CONTINUOUS
 62
    7
 10
113.67497054305759
 20
127.11173220958988
 11
113.67497054305759
 21
70.682408209589965
  0
LINE
  8
_0-2_0-10
  6
CONTINUOUS
 62
    3
 10
50.674970543057611
 20
236.04474420958999
 11
50.674970543057611
 21
86.044744209589964
  0
LINE
  8
_0-2_0-10
  6
CONTINUOUS
 62
    3
 10
176.67497054305761
 20
236.04474420958999
 11
176.67497054305761
 21
86.044744209589964
  0
LINE
  8
_0-2_0-10
  6
CONTINUOUS
 62
    3
 10
185.67497054305761
 20
236.04474420958999
 11
176.17497054305761
 21
236.04474420958999
  0
LINE
  8
_0-2_0-10
  6
CONTINUOUS
 62
    3
 10
185.67497054305761
 20
236.04474420958999
 11
185.67497054305761
 21
86.044744209589964
  0
LINE
  8
_0-2_0-10
  6
CONTINUOUS
 62
    3
 10
41.674970543057611
 20
236.04474420958999
 11
41.674970543057611
 21
86.044744209589964
  0
LINE
  8
_0-2_0-10
  6
CONTINUOUS
 62
    7
 10
46.174970543057611
 20
198.81771487625658
 11
46.174970543057611
 21
189.27177354292328
  0
ARC
  8
_0-2_0-10
  6
CONTINUOUS
 62
    3
 10
46.174970543057611
 20
194.04474420958987
 40
2.149999999999999
 50
8.0209329999999834
 51
171.97906699999998
  0
ARC
  8
_0-2_0-10
  6
CONTINUOUS
 62
    3
 10
46.174970543057611
 20
194.04474420958987
 40
2.149999999999999
 50
188.02093299999987
 51
351.97906699999987
  0
LINE
  8
_0-2_0-10
  6
CONTINUOUS
 62
    7
 10
41.401999876390959
 20
194.04474420958987
 11
50.947941209724319
 21
194.04474420958987
  0
LINE
  8
_0-2_0-10
  6
CONTINUOUS
 62
    3
 10
185.67497054305761
 20
86.044744209589964
 11
176.17497054305761
 21
86.044744209589964
  0
LINE
  8
_0-2_0-10
  6
CONTINUOUS
 62
    4
 10
191.67497054305761
 20
91.204998876256638
 11
191.67497054305761
 21
78.567709542923282
  0
LINE
  8
_0-2_0-10
  6
CONTINUOUS
 62
    4
 10
191.17497054305761
 20
91.204998876256638
 11
191.17497054305761
 21
78.567709542923282
  0
LINE
  8
_0-2_0-10
  6
CONTINUOUS
 62
    4
 10
191.17497054305761
 20
78.567709542923282
 11
191.67497054305761
 21
78.567709542923282
  0
LINE
  8
_0-2_0-10
  6
CONTINUOUS
 62
    4
 10
35.674970543057639
 20
91.204998876256638
 11
35.674970543057639
 21
78.567709542923282
  0
LINE
  8
_0-2_0-10
  6
CONTINUOUS
 62
    4
 10
36.174970543057639
 20
91.204998876256638
 11
36.174970543057639
 21
78.567709542923282
  0
LINE
  8
_0-2_0-10
  6
CONTINUOUS
 62
    4
 10
36.174970543057639
 20
78.567709542923282
 11
35.674970543057639
 21
78.567709542923282
  0
ARC
  8
_0-2_0-10
  6
CONTINUOUS
 62
    4
 10
113.6749905430576
 20
788.52060020959004
 40
714.22483062346668
 50
263.73026100000021
 51
276.26973899999967
  0
ARC
  8
_0-2_0-10
  6
CONTINUOUS
 62
    4
 10
113.6749905430576
 20
788.8741535429234
 40
714.22483062346668
 50
263.77061099999991
 51
276.22938599999997
  0
LINE
  8
_0-2_0-10
  6
CONTINUOUS
 62
    4
 10
35.674970543057639
 20
91.204998876256638
 11
41.674970543057611
 21
91.204998876256638
  0
LINE
  8
_0-2_0-10
  6
CONTINUOUS
 62
    4
 10
36.174970543057639
 20
88.795769542923295
 11
41.674970543057611
 21
88.795769542923295
  0
LINE
  8
_0-2_0-10
  6
CONTINUOUS
 62
    4
 10
96.521374543057632
 20
91.204998876256638
 11
176.17497054305761
 21
91.204998876256638
  0
LINE
  8
_0-2_0-10
  6
CONTINUOUS
 62
    4
 10
96.179127876390964
 20
88.795769542923295
 11
176.17497054305761
 21
88.795769542923295
  0
LINE
  8
_0-2_0-10
  6
CONTINUOUS
 62
    7
 10
181.17497054305761
 20
198.81771487625658
 11
181.17497054305761
 21
189.27177354292328
  0
ARC
  8
_0-2_0-10
  6
CONTINUOUS
 62
    3
 10
181.17497054305761
 20
194.04474420958987
 40
2.149999999999999
 50
8.0209329999999834
 51
171.97906699999998
  0
ARC
  8
_0-2_0-10
  6
CONTINUOUS
 62
    3
 10
181.17497054305761
 20
194.04474420958987
 40
2.149999999999999
 50
188.02093299999987
 51
351.97906699999987
  0
LINE
  8
_0-2_0-10
  6
CONTINUOUS
 62
    7
 10
185.94794120972429
 20
194.04474420958987
 11
176.40199987639098
 21
194.04474420958987
  0
ARC
  8
_0-2_0-10
  6
CONTINUOUS
 62
    4
 10
113.67497054305759
 20
164.04474420958987
 40
55.5
 50
257.77050399999961
 51
306.86989799999992
  0
LINE
  8
_0-2_0-10
  6
CONTINUOUS
 62
    4
 10
129.6017798763909
 20
211.54474420958999
 11
137.67497054305761
 21
211.54474420958999
  0
LINE
  8
_0-2_0-10
  6
CONTINUOUS
 62
    4
 10
129.55150920972428
 20
211.11173220959
 11
137.67497054305761
 21
211.11173220959
  0
LINE
  8
_0-2_0-10
  6
CONTINUOUS
 62
    4
 10
127.0455278763909
 20
199.54474420958987
 11
149.71147187639098
 21
199.54474420958987
  0
LINE
  8
_0-2_0-10
  6
CONTINUOUS
 62
    4
 10
126.8996932097243
 20
199.11173220959
 11
149.71147187639098
 21
199.11173220959
  0
LINE
  8
_0-2_0-10
  6
CONTINUOUS
 62
    4
 10
128.2775812097243
 20
203.79474420958999
 11
143.212059876391
 21
203.79474420958999
  0
LINE
  8
_0-2_0-10
  6
CONTINUOUS
 62
    4
 10
123.6271585430576
 20
191.79474420958999
 11
153.39600920972429
 21
191.79474420958999
  0
LINE
  8
_0-2_0-10
  6
CONTINUOUS
 62
    4
 10
121.2813585430576
 20
187.54474420958999
 11
155.91719587639099
 21
187.54474420958999
  0
LINE
  8
_0-2_0-10
  6
CONTINUOUS
 62
    4
 10
121.0345185430576
 20
187.11173220959
 11
155.91719587639099
 21
187.11173220959
  0
LINE
  8
_0-2_0-10
  6
CONTINUOUS
 62
    4
 10
116.94742120972429
 20
179.79474420958987
 11
158.91119854305759
 21
179.79474420958987
  0
LINE
  8
_0-2_0-10
  6
CONTINUOUS
 62
    4
 10
114.91747987639089
 20
175.54474420958987
 11
158.82719854305759
 21
175.54474420958987
  0
LINE
  8
_0-2_0-10
  6
CONTINUOUS
 62
    4
 10
114.7298012097243
 20
175.11173220959
 11
158.82719854305759
 21
175.11173220959
  0
LINE
  8
_0-2_0-10
  6
CONTINUOUS
 62
    4
 10
112.5442518763909
 20
167.79474420958999
 11
160.885491876391
 21
167.79474420958999
  0
LINE
  8
_0-2_0-10
  6
CONTINUOUS
 62
    4
 10
112.0410465430576
 20
163.54474420958999
 11
159.141647876391
 21
163.54474420958999
  0
LINE
  8
_0-2_0-10
  6
CONTINUOUS
 62
    4
 10
112.01865854305759
 20
163.11173220959
 11
159.141647876391
 21
163.11173220959
  0
LINE
  8
_0-2_0-10
  6
CONTINUOUS
 62
    4
 10
112.00768387639089
 20
155.79474420958987
 11
160.2965505430576
 21
155.79474420958987
  0
LINE
  8
_0-2_0-10
  6
CONTINUOUS
 62
    4
 10
112.2096932097243
 20
151.54474420958987
 11
156.32520387639098
 21
151.54474420958987
  0
LINE
  8
_0-2_0-10
  6
CONTINUOUS
 62
    4
 10
112.2320332097243
 20
151.11173220959
 11
156.32520387639098
 21
151.11173220959
  0
LINE
  8
_0-2_0-10
  6
CONTINUOUS
 62
    4
 10
112.46406520972429
 20
143.79474420958999
 11
156.7874532097243
 21
143.79474420958999
  0
LINE
  8
_0-2_0-10
  6
CONTINUOUS
 62
    4
 10
112.3101945430576
 20
139.54474420958999
 11
149.53852787639098
 21
139.54474420958999
  0
LINE
  8
_0-2_0-10
  6
CONTINUOUS
 62
    4
 10
112.27475187639089
 20
139.11173220958988
 11
149.53852787639098
 21
139.11173220958988
  0
LINE
  8
_0-2_0-10
  6
CONTINUOUS
 62
    4
 10
110.97135054305759
 20
131.79474420958987
 11
149.74073054305759
 21
131.79474420958987
  0
LINE
  8
_0-2_0-10
  6
CONTINUOUS
 62
    4
 10
109.63807320972429
 20
127.54474420958989
 11
134.57072387639101
 21
127.54474420958989
  0
LINE
  8
_0-2_0-10
  6
CONTINUOUS
 62
    4
 10
109.48044520972429
 20
127.11173220958988
 11
134.57072387639101
 21
127.11173220958988
  0
LINE
  8
_0-2_0-10
  6
CONTINUOUS
 62
    4
 10
106.46432920972429
 20
119.79474420958999
 11
137.23465454305758
 21
119.79474420958999
  0
ARC
  8
_0-2_0-10
  6
CONTINUOUS
 62
    4
 10
113.67497054305759
 20
164.04474420958987
 40
55.5
 50
53.130102000000029
 51
64.778521000000083
  0
ARC
  8
_0-2_0-10
  6
CONTINUOUS
 62
    4
 10
113.67497054305759
 20
164.04474420958987
 40
55.5
 50
35.781760999999931
 51
46.365534999999084
  0
LINE
  8
_0-2_0-10
  6
CONTINUOUS
 62
    7
 10
143.22154387639099
 20
120.04474420958999
 11
138.72154387639091
 21
120.04474420958999
  0
LINE
  8
_0-2_0-10
  6
CONTINUOUS
 62
    4
 10
146.67497054305761
 20
120.54474420958999
 11
144.32704920972429
 21
120.54474420958999
  0
LINE
  8
_0-2_0-10
  6
CONTINUOUS
 62
    4
 10
151.14495854305769
 20
123.54474420958989
 11
147.744551876391
 21
123.54474420958989
  0
LINE
  8
_0-2_0-10
  6
CONTINUOUS
 62
    7
 10
155.55703987639088
 20
132.04474420958999
 11
151.057039876391
 21
132.04474420958999
  0
LINE
  8
_0-2_0-10
  6
CONTINUOUS
 62
    4
 10
158.21259454305769
 20
132.54474420958999
 11
156.60405054305761
 21
132.54474420958999
  0
LINE
  8
_0-2_0-10
  6
CONTINUOUS
 62
    4
 10
160.67071454305769
 20
135.54474420958999
 11
158.3786825430576
 21
135.54474420958999
  0
LINE
  8
_0-2_0-10
  6
CONTINUOUS
 62
    4
 10
165.924371876391
 20
147.54474420958987
 11
164.54948787639099
 21
147.54474420958987
  0
LINE
  8
_0-2_0-10
  6
CONTINUOUS
 62
    4
 10
164.61611187639098
 20
144.54474420958999
 11
163.29689987639099
 21
144.54474420958999
  0
LINE
  8
_0-2_0-10
  6
CONTINUOUS
 62
    7
 10
162.47447587639101
 20
144.04474420958987
 11
157.97447587639101
 21
144.04474420958987
  0
LINE
  8
_0-2_0-10
  6
CONTINUOUS
 62
    4
 10
168.156159876391
 20
159.54474420958987
 11
166.9562105430576
 21
159.54474420958987
  0
LINE
  8
_0-2_0-10
  6
CONTINUOUS
 62
    7
 10
165.829191876391
 20
156.04474420958999
 11
161.32919187639089
 21
156.04474420958999
  0
LINE
  8
_0-2_0-10
  6
CONTINUOUS
 62
    4
 10
167.74159587639098
 20
171.54474420958999
 11
166.10712120972431
 21
171.54474420958999
  0
LINE
  8
_0-2_0-10
  6
CONTINUOUS
 62
    7
 10
166.27134920972429
 20
168.04474420958987
 11
161.77134920972429
 21
168.04474420958987
  0
LINE
  8
_0-2_0-10
  6
CONTINUOUS
 62
    4
 10
165.924371876391
 20
180.54474420958987
 11
164.59990787639088
 21
180.54474420958987
  0
LINE
  8
_0-2_0-10
  6
CONTINUOUS
 62
    7
 10
164.08675587639089
 20
180.04474420958999
 11
159.586755876391
 21
180.04474420958999
  0
LINE
  8
_0-2_0-10
  6
CONTINUOUS
 62
    4
 10
158.21259454305769
 20
195.54474420958999
 11
156.19906654305759
 21
195.54474420958999
  0
LINE
  8
_0-2_0-10
  6
CONTINUOUS
 62
    7
 10
158.40372254305759
 20
192.04474420958987
 11
153.90372254305759
 21
192.04474420958987
  0
LINE
  8
_0-2_0-10
  6
CONTINUOUS
 62
    4
 10
146.67497054305761
 20
207.54474420958999
 11
145.712059876391
 21
207.54474420958999
  0
LINE
  8
_0-2_0-10
  6
CONTINUOUS
 62
    4
 10
151.14495854305769
 20
204.54474420958999
 11
148.43825054305759
 21
204.54474420958999
  0
LINE
  8
_0-2_0-10
  6
CONTINUOUS
 62
    7
 10
148.212059876391
 20
204.04474420958999
 11
143.712059876391
 21
204.04474420958999
  0
ARC
  8
_0-2_0-10
  6
CONTINUOUS
 62
    4
 10
113.67497054305759
 20
164.04474420958987
 40
55.5
 50
313.634465000001
 51
324.21823900000009
  0
ARC
  8
_0-2_0-10
  6
CONTINUOUS
 62
    4
 10
113.67497054305759
 20
164.04474420958987
 40
55.5
 50
329.75646699999902
 51
338.369889
  0
ARC
  8
_0-2_0-10
  6
CONTINUOUS
 62
    4
 10
113.67497054305759
 20
164.04474420958987
 40
55.5
 50
8.7275869999999784
 51
16.523205999999994
  0
LINE
  8
_0-2_0-10
  6
CONTINUOUS
 62
    4
 10
143.712059876391
 20
205.54474420958999
 11
143.712059876391
 21
204.04474420958999
  0
LINE
  8
_0-2_0-10
  6
CONTINUOUS
 62
    4
 10
154.22945054305759
 20
193.89204154292329
 11
153.90372254305759
 21
192.04474420958987
  0
LINE
  8
_0-2_0-10
  6
CONTINUOUS
 62
    4
 10
163.808987876391
 20
170.47310687625659
 11
161.77134920972429
 21
168.04474420958987
  0
ARC
  8
_0-2_0-10
  6
CONTINUOUS
 62
    4
 10
145.712059876391
 20
205.54474420958999
 40
2
 50
90
 51
180
  0
LINE
  8
_0-2_0-10
  6
CONTINUOUS
 62
    4
 10
158.39802387639099
 20
192.10988287625659
 11
158.40372254305759
 21
192.04474420958987
  0
ARC
  8
_0-2_0-10
  6
CONTINUOUS
 62
    4
 10
156.19906654305759
 20
193.54474420958999
 40
2
 50
90
 51
170
  0
LINE
  8
_0-2_0-10
  6
CONTINUOUS
 62
    4
 10
164.11272387639098
 20
180.15722020958989
 11
164.08675587639089
 21
180.04474420958999
  0
LINE
  8
_0-2_0-10
  6
CONTINUOUS
 62
    4
 10
166.32841454305759
 20
168.17918287625658
 11
166.27134920972429
 21
168.04474420958987
  0
LINE
  8
_0-2_0-10
  6
CONTINUOUS
 62
    4
 10
164.38505987639101
 20
158.60892287625659
 11
161.32919187639089
 21
156.04474420958999
  0
LINE
  8
_0-2_0-10
  6
CONTINUOUS
 62
    4
 10
161.68160520972429
 20
146.64050420958989
 11
157.97447587639101
 21
144.04474420958987
  0
LINE
  8
_0-2_0-10
  6
CONTINUOUS
 62
    4
 10
165.93600920972428
 20
156.21568820958998
 11
165.829191876391
 21
156.04474420958999
  0
ARC
  8
_0-2_0-10
  6
CONTINUOUS
 62
    4
 10
166.10712120972431
 20
168.54474420958999
 40
3
 50
90
 51
139.9999999999998
  0
ARC
  8
_0-2_0-10
  6
CONTINUOUS
 62
    4
 10
166.9562105430576
 20
155.54474420958987
 40
4
 50
90
 51
130.00000000000019
  0
LINE
  8
_0-2_0-10
  6
CONTINUOUS
 62
    4
 10
155.19916787639098
 20
134.6330335429233
 11
151.057039876391
 21
132.04474420958999
  0
LINE
  8
_0-2_0-10
  6
CONTINUOUS
 62
    4
 10
144.23758387639099
 20
122.73509754292328
 11
138.72154387639091
 21
120.04474420958999
  0
ARC
  8
_0-2_0-10
  6
CONTINUOUS
 62
    4
 10
164.54948787639099
 20
142.54474420958999
 40
5
 50
90
 51
124.9999999999998
  0
LINE
  8
_0-2_0-10
  6
CONTINUOUS
 62
    4
 10
162.721427876391
 20
144.30047087625527
 11
162.47447587639101
 21
144.04474420958987
  0
ARC
  8
_0-2_0-10
  6
CONTINUOUS
 62
    4
 10
158.3786825430576
 20
129.54474420958987
 40
6
 50
90
 51
121.99999999999978
  0
LINE
  8
_0-2_0-10
  6
CONTINUOUS
 62
    4
 10
156.04485854305769
 20
132.37378154292329
 11
155.55703987639088
 21
132.04474420958999
  0
ARC
  8
_0-2_0-10
  6
CONTINUOUS
 62
    4
 10
147.744551876391
 20
115.54474420958999
 40
8
 50
90
 51
116.00000000000018
  0
ARC
  8
_0-2_0-10
  6
CONTINUOUS
 62
    4
 10
146.67497054305761
 20
208.04474420958999
 40
0.5
 50
270
 51
53.130102000000022
  0
ARC
  8
_0-2_0-10
  6
CONTINUOUS
 62
    4
 10
158.21259454305769
 20
196.1447442095899
 40
0.5999999999999999
 50
270
 51
35.781760999999924
  0
ARC
  8
_0-2_0-10
  6
CONTINUOUS
 62
    4
 10
167.74159587639098
 20
172.34474420958997
 40
0.8
 50
270
 51
8.727586999999966
  0
ARC
  8
_0-2_0-10
  6
CONTINUOUS
 62
    4
 10
168.156159876391
 20
160.44474420958988
 40
0.9
 50
270
 51
356.21951400000102
  0
ARC
  8
_0-2_0-10
  6
CONTINUOUS
 62
    4
 10
165.924371876391
 20
148.54474420958987
 40
1
 50
270
 51
343.47679399999907
  0
ARC
  8
_0-2_0-10
  6
CONTINUOUS
 62
    4
 10
160.67071454305769
 20
136.6447442095899
 40
1.0999999999999989
 50
270
 51
329.75646699999902
  0
ARC
  8
_0-2_0-10
  6
CONTINUOUS
 62
    4
 10
151.14495854305769
 20
124.74474420958988
 40
1.199999999999999
 50
270
 51
313.634465000001
  0
ARC
  8
_0-2_0-10
  6
CONTINUOUS
 62
    4
 10
146.67497054305761
 20
120.04474420958999
 40
0.5
 50
306.86989799999992
 51
90.000000000000028
  0
ARC
  8
_0-2_0-10
  6
CONTINUOUS
 62
    4
 10
158.21259454305769
 20
131.94474420958988
 40
0.5999999999999999
 50
324.21823900000015
 51
90.000000000000028
  0
ARC
  8
_0-2_0-10
  6
CONTINUOUS
 62
    4
 10
164.61611187639098
 20
143.84474420958858
 40
0.6999999999999999
 50
338.369889
 51
90.000000000000028
  0
ARC
  8
_0-2_0-10
  6
CONTINUOUS
 62
    4
 10
165.924371876391
 20
179.54474420958987
 40
1
 50
16.523205999999998
 51
90
  0
ARC
  8
_0-2_0-10
  6
CONTINUOUS
 62
    4
 10
151.14495854305769
 20
203.34474420958997
 40
1.199999999999999
 50
46.365534999999091
 51
90
  0
ARC
  8
_0-2_0-10
  6
CONTINUOUS
 62
    4
 10
148.43825054305759
 20
204.24474420958998
 40
0.2999999999999999
 50
90
 51
214.99999999999909
  0
ARC
  8
_0-2_0-10
  6
CONTINUOUS
 62
    4
 10
158.79650254305761
 20
192.1447442095899
 40
0.4
 50
90
 51
185
  0
ARC
  8
_0-2_0-10
  6
CONTINUOUS
 62
    4
 10
164.59990787639088
 20
180.04474420958999
 40
0.5
 50
90
 51
166.99999999999886
  0
ARC
  8
_0-2_0-10
  6
CONTINUOUS
 62
    4
 10
166.88071854305761
 20
167.94474420958988
 40
0.5999999999999999
 50
90
 51
156.99999999999988
  0
ARC
  8
_0-2_0-10
  6
CONTINUOUS
 62
    4
 10
166.52964254305769
 20
155.84474420958997
 40
0.6999999999999999
 50
90
 51
147.99999999999988
  0
ARC
  8
_0-2_0-10
  6
CONTINUOUS
 62
    4
 10
163.29689987639099
 20
143.74474420958989
 40
0.8
 50
90
 51
136.00000000000019
  0
ARC
  8
_0-2_0-10
  6
CONTINUOUS
 62
    4
 10
156.60405054305761
 20
131.54474420958987
 40
1
 50
90
 51
123.9999999999991
  0
ARC
  8
_0-2_0-10
  6
CONTINUOUS
 62
    4
 10
144.32704920972429
 20
119.34474420958858
 40
1.199999999999999
 50
90
 51
124.43955699999999
  0
INSERT
  2
-027-BLKF018_35
  8
_0-2_0-10
 10
-11.296021456942355
 20
-74.564639790410012
 41
1.333333333333333
 42
1.333333333333333
 50
0
  0
INSERT
  2
-000-BLKF019_2
  8
_0-2_0-10
 10
-11.296021456942355
 20
-74.564639790410012
 41
1.333333333333333
 42
1.333333333333333
 50
0
  0
LINE
  8
_0-2_0-10
  6
CONTINUOUS
 62
    4
 10
139.67497054305761
 20
212.54473987765797
 11
139.67497054305761
 21
212.11173220959
  0
INSERT
  2
-001-BLKF020_3
  8
_0-2_0-10
 10
-11.296021456942355
 20
-74.564639790410012
 41
1.333333333333333
 42
1.333333333333333
 50
0
  0
INSERT
  2
-002-BLKF021_4
  8
_0-2_0-10
 10
-11.296021456942355
 20
-74.564639790410012
 41
1.333333333333333
 42
1.333333333333333
 50
0
  0
LINE
  8
_0-2_0-10
  6
CONTINUOUS
 62
    4
 10
148.212059876391
 20
204.04474420958999
 11
151.759351876391
 21
201.51171487625668
  0
LINE
  8
_0-2_0-10
  6
CONTINUOUS
 62
    4
 10
152.21147187639098
 20
200.79474420958999
 11
152.21147187639098
 21
200.36173220959
  0
INSERT
  2
-003-BLKF022_5
  8
_0-2_0-10
 10
-11.296021456942355
 20
-74.564639790410012
 41
1.333333333333333
 42
1.333333333333333
 50
0
  0
INSERT
  2
-004-BLKF023_6
  8
_0-2_0-10
 10
-11.296021456942355
 20
-74.564639790410012
 41
1.333333333333333
 42
1.333333333333333
 50
0
  0
INSERT
  2
-005-BLKF024_7
  8
_0-2_0-10
 10
-11.296021456942355
 20
-74.564639790410012
 41
1.333333333333333
 42
1.333333333333333
 50
0
  0
LINE
  8
_0-2_0-10
  6
CONTINUOUS
 62
    4
 10
158.40372254305759
 20
192.04474420958987
 11
158.90577987639099
 21
189.17547887625659
  0
LINE
  8
_0-2_0-10
  6
CONTINUOUS
 62
    4
 10
158.91719587639099
 20
189.04474420958987
 11
158.91719587639099
 21
188.62381087625658
  0
INSERT
  2
-006-BLKF025_8
  8
_0-2_0-10
 10
-11.296021456942355
 20
-74.564639790410012
 41
1.333333333333333
 42
1.333333333333333
 50
0
  0
LINE
  8
_0-2_0-10
  6
CONTINUOUS
 62
    4
 10
153.88841320972429
 20
192.00133220958988
 11
153.90372254305759
 21
192.04474420958987
  0
INSERT
  2
-007-BLKF026_9
  8
_0-2_0-10
 10
-11.296021456942355
 20
-74.564639790410012
 41
1.333333333333333
 42
1.333333333333333
 50
0
  0
INSERT
  2
-008-BLKF027_10
  8
_0-2_0-10
 10
-11.296021456942355
 20
-74.564639790410012
 41
1.333333333333333
 42
1.333333333333333
 50
0
  0
LINE
  8
_0-2_0-10
  6
CONTINUOUS
 62
    4
 10
162.72467854305759
 20
177.09484287625659
 11
164.08675587639089
 21
180.04474420958999
  0
LINE
  8
_0-2_0-10
  6
CONTINUOUS
 62
    4
 10
162.72467854305759
 20
176.6618295429233
 11
164.08675587639089
 21
179.61173220959
  0
LINE
  8
_0-2_0-10
  6
CONTINUOUS
 62
    4
 10
164.08675587639089
 20
180.04474420958999
 11
164.08675587639089
 21
179.61173220959
  0
INSERT
  2
-009-BLKF028_11
  8
_0-2_0-10
 10
-11.296021456942355
 20
-74.564639790410012
 41
1.333333333333333
 42
1.333333333333333
 50
0
  0
LINE
  8
_0-2_0-10
  6
CONTINUOUS
 62
    4
 10
159.55555187639089
 20
180.00798820958999
 11
159.586755876391
 21
180.04474420958999
  0
INSERT
  2
-010-BLKF029_12
  8
_0-2_0-10
 10
-11.296021456942355
 20
-74.564639790410012
 41
1.333333333333333
 42
1.333333333333333
 50
0
  0
INSERT
  2
-011-BLKF030_13
  8
_0-2_0-10
 10
-11.296021456942355
 20
-74.564639790410012
 41
1.333333333333333
 42
1.333333333333333
 50
0
  0
LINE
  8
_0-2_0-10
  6
CONTINUOUS
 62
    4
 10
163.74417187639099
 20
165.06791620958989
 11
166.27134920972429
 21
168.04474420958987
  0
LINE
  8
_0-2_0-10
  6
CONTINUOUS
 62
    4
 10
163.74417187639099
 20
164.63490420958987
 11
166.27134920972429
 21
167.61173220959
  0
LINE
  8
_0-2_0-10
  6
CONTINUOUS
 62
    4
 10
166.27134920972429
 20
168.04474420958987
 11
166.27134920972429
 21
167.61173220959
  0
INSERT
  2
-012-BLKF031_14
  8
_0-2_0-10
 10
-11.296021456942355
 20
-74.564639790410012
 41
1.333333333333333
 42
1.333333333333333
 50
0
  0
LINE
  8
_0-2_0-10
  6
CONTINUOUS
 62
    4
 10
161.65153587639099
 20
167.97335087625657
 11
161.77134920972429
 21
168.04474420958987
  0
INSERT
  2
-013-BLKF032_15
  8
_0-2_0-10
 10
-11.296021456942355
 20
-74.564639790410012
 41
1.333333333333333
 42
1.333333333333333
 50
0
  0
INSERT
  2
-014-BLKF033_16
  8
_0-2_0-10
 10
-11.296021456942355
 20
-74.564639790410012
 41
1.333333333333333
 42
1.333333333333333
 50
0
  0
LINE
  8
_0-2_0-10
  6
CONTINUOUS
 62
    4
 10
162.26154120972429
 20
153.19002687625658
 11
165.829191876391
 21
156.04474420958999
  0
LINE
  8
_0-2_0-10
  6
CONTINUOUS
 62
    4
 10
162.26154120972429
 20
152.75701487625659
 11
165.829191876391
 21
155.61173220959
  0
LINE
  8
_0-2_0-10
  6
CONTINUOUS
 62
    4
 10
165.829191876391
 20
156.04474420958999
 11
165.829191876391
 21
155.61173220959
  0
INSERT
  2
-015-BLKF034_17
  8
_0-2_0-10
 10
-11.296021456942355
 20
-74.564639790410012
 41
1.333333333333333
 42
1.333333333333333
 50
0
  0
LINE
  8
_0-2_0-10
  6
CONTINUOUS
 62
    4
 10
161.0678958763909
 20
155.93511754292327
 11
161.32919187639089
 21
156.04474420958999
  0
INSERT
  2
-016-BLKF035_18
  8
_0-2_0-10
 10
-11.296021456942355
 20
-74.564639790410012
 41
1.333333333333333
 42
1.333333333333333
 50
0
  0
INSERT
  2
-017-BLKF036_19
  8
_0-2_0-10
 10
-11.296021456942355
 20
-74.564639790410012
 41
1.333333333333333
 42
1.333333333333333
 50
0
  0
LINE
  8
_0-2_0-10
  6
CONTINUOUS
 62
    4
 10
156.73192654305759
 20
141.07145220958989
 11
162.47447587639101
 21
144.04474420958987
  0
LINE
  8
_0-2_0-10
  6
CONTINUOUS
 62
    4
 10
156.73192654305759
 20
140.63844020958998
 11
162.47447587639101
 21
143.61173220959
  0
LINE
  8
_0-2_0-10
  6
CONTINUOUS
 62
    4
 10
162.47447587639101
 20
144.04474420958987
 11
162.47447587639101
 21
143.61173220959
  0
INSERT
  2
-018-BLKF037_20
  8
_0-2_0-10
 10
-11.296021456942355
 20
-74.564639790410012
 41
1.333333333333333
 42
1.333333333333333
 50
0
  0
LINE
  8
_0-2_0-10
  6
CONTINUOUS
 62
    4
 10
157.6478172097243
 20
143.93038020958988
 11
157.97447587639101
 21
144.04474420958987
  0
INSERT
  2
-019-BLKF038_21
  8
_0-2_0-10
 10
-11.296021456942355
 20
-74.564639790410012
 41
1.333333333333333
 42
1.333333333333333
 50
0
  0
INSERT
  2
-020-BLKF039_22
  8
_0-2_0-10
 10
-11.296021456942355
 20
-74.564639790410012
 41
1.333333333333333
 42
1.333333333333333
 50
0
  0
LINE
  8
_0-2_0-10
  6
CONTINUOUS
 62
    4
 10
148.5505465430576
 20
129.68177487625658
 11
155.55703987639088
 21
132.04474420958999
  0
LINE
  8
_0-2_0-10
  6
CONTINUOUS
 62
    4
 10
148.5505465430576
 20
129.24876287625659
 11
155.55703987639088
 21
131.61173220958988
  0
LINE
  8
_0-2_0-10
  6
CONTINUOUS
 62
    4
 10
155.55703987639088
 20
132.04474420958999
 11
155.55703987639088
 21
131.61173220958988
  0
INSERT
  2
-021-BLKF040_23
  8
_0-2_0-10
 10
-11.296021456942355
 20
-74.564639790410012
 41
1.333333333333333
 42
1.333333333333333
 50
0
  0
LINE
  8
_0-2_0-10
  6
CONTINUOUS
 62
    4
 10
150.69458520972429
 20
131.93150154292328
 11
151.057039876391
 21
132.04474420958999
  0
ARC
  8
_0-2_0-10
  6
CONTINUOUS
 62
    4
 10
113.67497054305759
 20
164.04474420958987
 40
53
 50
303.88187499999997
 51
304.43955699999997
  0
INSERT
  2
-022-BLKF041_24
  8
_0-2_0-10
 10
-11.296021456942355
 20
-74.564639790410012
 41
1.333333333333333
 42
1.333333333333333
 50
0
  0
INSERT
  2
-023-BLKF042_25
  8
_0-2_0-10
 10
-11.296021456942355
 20
-74.564639790410012
 41
1.333333333333333
 42
1.333333333333333
 50
0
  0
LINE
  8
_0-2_0-10
  6
CONTINUOUS
 62
    4
 10
143.2215425430576
 20
119.61173354292328
 11
143.2215425430576
 21
120.04474420958999
  0
INSERT
  2
-024-BLKF043_26
  8
_0-2_0-10
 10
-11.296021456942355
 20
-74.564639790410012
 41
1.333333333333333
 42
1.333333333333333
 50
0
  0
LINE
  8
_0-2_0-10
  6
CONTINUOUS
 62
    4
 10
138.11139720972428
 20
119.89595087625659
 11
138.72154387639091
 21
120.04474420958999
  0
LINE
  8
_0-2_0-10
  6
CONTINUOUS
 62
    4
 10
175.92497054305761
 20
235.54474420958999
 11
176.17497054305761
 21
235.54474420958999
  0
ARC
  8
_0-2_0-10
  6
CONTINUOUS
 62
    4
 10
113.67497054305759
 20
164.04474420958987
 40
60.799999999999997
 50
256.90237800000011
 51
53.933103000000009
  0
LINE
  8
_0-2_0-10
  6
CONTINUOUS
 62
    4
 10
96.7293452097243
 20
92.544744209589964
 11
176.17497054305761
 21
92.544744209589964
  0
LINE
  8
_0-2_0-10
  6
CONTINUOUS
 62
    3
 10
176.17497054305761
 20
236.04474420958999
 11
176.17497054305761
 21
86.044744209589964
  0
LINE
  8
_0-2_0-10
  6
CONTINUOUS
 62
    4
 10
185.67497054305761
 20
91.204998876256638
 11
191.67497054305761
 21
91.204998876256638
  0
LINE
  8
_0-2_0-10
  6
CONTINUOUS
 62
    4
 10
185.67497054305761
 20
88.795769542923295
 11
191.17497054305761
 21
88.795769542923295
  0
LINE
  8
_0-2_0-10
  6
CONTINUOUS
 62
    7
 10
129.56130654305761
 20
236.04474420958999
 11
129.6847652097243
 21
233.66627887625659
  0
LINE
  8
_0-2_0-10
  6
CONTINUOUS
 62
    7
 10
129.6847652097243
 20
233.66627887625659
 11
129.77880520972431
 21
231.78872554292328
  0
LINE
  8
_0-2_0-10
  6
CONTINUOUS
 62
    7
 10
129.77880520972431
 20
231.78872554292328
 11
129.86591320972431
 21
229.91299487625659
  0
LINE
  8
_0-2_0-10
  6
CONTINUOUS
 62
    7
 10
129.86591320972431
 20
229.91299487625659
 11
129.94262520972429
 21
228.03999754292328
  0
LINE
  8
_0-2_0-10
  6
CONTINUOUS
 62
    7
 10
129.94262520972429
 20
228.03999754292328
 11
130.0054745430576
 21
226.17064687625668
  0
LINE
  8
_0-2_0-10
  6
CONTINUOUS
 62
    7
 10
130.0054745430576
 20
226.17064687625668
 11
130.05099587639099
 21
224.30585487625657
  0
LINE
  8
_0-2_0-10
  6
CONTINUOUS
 62
    7
 10
130.05099587639099
 20
224.30585487625657
 11
130.07572254305759
 21
222.44652954292328
  0
LINE
  8
_0-2_0-10
  6
CONTINUOUS
 62
    7
 10
130.07572254305759
 20
222.44652954292328
 11
130.0761905430576
 21
220.59358687625658
  0
LINE
  8
_0-2_0-10
  6
CONTINUOUS
 62
    7
 10
130.0761905430576
 20
220.59358687625658
 11
130.04893320972431
 21
218.74793487625657
  0
LINE
  8
_0-2_0-10
  6
CONTINUOUS
 62
    7
 10
130.04893320972431
 20
218.74793487625657
 11
129.99048520972431
 21
216.91048554292328
  0
LINE
  8
_0-2_0-10
  6
CONTINUOUS
 62
    7
 10
129.99048520972431
 20
216.91048554292328
 11
129.8973812097243
 21
215.08215220958999
  0
LINE
  8
_0-2_0-10
  6
CONTINUOUS
 62
    7
 10
129.8973812097243
 20
215.08215220958999
 11
129.7661545430576
 21
213.26384420958999
  0
LINE
  8
_0-2_0-10
  6
CONTINUOUS
 62
    7
 10
129.7661545430576
 20
213.26384420958999
 11
129.59333987639089
 21
211.45647487625669
  0
LINE
  8
_0-2_0-10
  6
CONTINUOUS
 62
    7
 10
129.59333987639089
 20
211.45647487625669
 11
129.3754732097243
 21
209.66095487625659
  0
LINE
  8
_0-2_0-10
  6
CONTINUOUS
 62
    7
 10
129.3754732097243
 20
209.66095487625659
 11
129.10908787639098
 21
207.8781948762566
  0
LINE
  8
_0-2_0-10
  6
CONTINUOUS
 62
    7
 10
129.10908787639098
 20
207.8781948762566
 11
128.7907172097243
 21
206.10910687625667
  0
LINE
  8
_0-2_0-10
  6
CONTINUOUS
 62
    7
 10
128.7907172097243
 20
206.10910687625667
 11
128.41689720972431
 21
204.35460287625659
  0
LINE
  8
_0-2_0-10
  6
CONTINUOUS
 62
    7
 10
128.41689720972431
 20
204.35460287625659
 11
127.98415987639089
 21
202.61559487625669
  0
LINE
  8
_0-2_0-10
  6
CONTINUOUS
 62
    7
 10
127.98415987639089
 20
202.61559487625669
 11
127.4890425430576
 21
200.89299354292327
  0
LINE
  8
_0-2_0-10
  6
CONTINUOUS
 62
    7
 10
127.4890425430576
 20
200.89299354292327
 11
126.92807854305759
 21
199.1877095429233
  0
LINE
  8
_0-2_0-10
  6
CONTINUOUS
 62
    7
 10
126.92807854305759
 20
199.1877095429233
 11
126.29780120972429
 21
197.50065620958997
  0
LINE
  8
_0-2_0-10
  6
CONTINUOUS
 62
    7
 10
126.29780120972429
 20
197.50065620958997
 11
125.73594920972419
 21
196.14929754292327
  0
LINE
  8
_0-2_0-10
  6
CONTINUOUS
 62
    7
 10
125.73594920972419
 20
196.14929754292327
 11
125.1319252097243
 21
194.80910554292327
  0
LINE
  8
_0-2_0-10
  6
CONTINUOUS
 62
    7
 10
125.1319252097243
 20
194.80910554292327
 11
124.49119987639099
 21
193.47871087625659
  0
LINE
  8
_0-2_0-10
  6
CONTINUOUS
 62
    7
 10
124.49119987639099
 20
193.47871087625659
 11
123.8192465430576
 21
192.15674954292327
  0
LINE
  8
_0-2_0-10
  6
CONTINUOUS
 62
    7
 10
123.8192465430576
 20
192.15674954292327
 11
123.12153720972419
 21
190.84185487625657
  0
LINE
  8
_0-2_0-10
  6
CONTINUOUS
 62
    7
 10
123.12153720972419
 20
190.84185487625657
 11
122.40354254305759
 21
189.53266154292327
  0
LINE
  8
_0-2_0-10
  6
CONTINUOUS
 62
    7
 10
122.40354254305759
 20
189.53266154292327
 11
121.67073720972429
 21
188.22780154292328
  0
LINE
  8
_0-2_0-10
  6
CONTINUOUS
 62
    7
 10
121.67073720972429
 20
188.22780154292328
 11
120.92859187639089
 21
186.92591087625658
  0
LINE
  8
_0-2_0-10
  6
CONTINUOUS
 62
    7
 10
120.92859187639089
 20
186.92591087625658
 11
120.1825785430576
 21
185.62562287625658
  0
LINE
  8
_0-2_0-10
  6
CONTINUOUS
 62
    7
 10
120.1825785430576
 20
185.62562287625658
 11
119.43817054305759
 21
184.32557087625659
  0
LINE
  8
_0-2_0-10
  6
CONTINUOUS
 62
    7
 10
119.43817054305759
 20
184.32557087625659
 11
118.7008398763909
 21
183.0243895429233
  0
LINE
  8
_0-2_0-10
  6
CONTINUOUS
 62
    7
 10
118.7008398763909
 20
183.0243895429233
 11
117.9760585430576
 21
181.72071220958989
  0
LINE
  8
_0-2_0-10
  6
CONTINUOUS
 62
    7
 10
117.9760585430576
 20
181.72071220958989
 11
117.2692998763909
 21
180.4131722095899
  0
LINE
  8
_0-2_0-10
  6
CONTINUOUS
 62
    7
 10
117.2692998763909
 20
180.4131722095899
 11
116.5860332097243
 21
179.10040554292328
  0
LINE
  8
_0-2_0-10
  6
CONTINUOUS
 62
    7
 10
116.5860332097243
 20
179.10040554292328
 11
115.93173320972429
 21
177.78104420958999
  0
LINE
  8
_0-2_0-10
  6
CONTINUOUS
 62
    7
 10
115.93173320972429
 20
177.78104420958999
 11
115.31187187639089
 21
176.45372287625659
  0
LINE
  8
_0-2_0-10
  6
CONTINUOUS
 62
    7
 10
115.31187187639089
 20
176.45372287625659
 11
114.7319212097243
 21
175.11707620958998
  0
LINE
  8
_0-2_0-10
  6
CONTINUOUS
 62
    7
 10
114.7319212097243
 20
175.11707620958998
 11
114.19735320972429
 21
173.76973620958989
  0
LINE
  8
_0-2_0-10
  6
CONTINUOUS
 62
    7
 10
114.19735320972429
 20
173.76973620958989
 11
113.71363987639099
 21
172.41033887625658
  0
LINE
  8
_0-2_0-10
  6
CONTINUOUS
 62
    7
 10
113.71363987639099
 20
172.41033887625658
 11
113.28625454305759
 21
171.03751620958999
  0
LINE
  8
_0-2_0-10
  6
CONTINUOUS
 62
    7
 10
113.28625454305759
 20
171.03751620958999
 11
112.92066787639089
 21
169.64990420958997
  0
LINE
  8
_0-2_0-10
  6
CONTINUOUS
 62
    7
 10
112.92066787639089
 20
169.64990420958997
 11
112.60507587639099
 21
168.16479220958999
  0
LINE
  8
_0-2_0-10
  6
CONTINUOUS
 62
    7
 10
112.60507587639099
 20
168.16479220958999
 11
112.3582452097243
 21
166.66309620958998
  0
LINE
  8
_0-2_0-10
  6
CONTINUOUS
 62
    7
 10
112.3582452097243
 20
166.66309620958998
 11
112.17363987639089
 21
165.14631620958999
  0
LINE
  8
_0-2_0-10
  6
CONTINUOUS
 62
    7
 10
112.17363987639089
 20
165.14631620958999
 11
112.04472787639089
 21
163.61595220958997
  0
LINE
  8
_0-2_0-10
  6
CONTINUOUS
 62
    7
 10
112.04472787639089
 20
163.61595220958997
 11
111.96497720972429
 21
162.07350420958999
  0
LINE
  8
_0-2_0-10
  6
CONTINUOUS
 62
    7
 10
111.96497720972429
 20
162.07350420958999
 11
111.9278518763909
 21
160.52047220958988
  0
LINE
  8
_0-2_0-10
  6
CONTINUOUS
 62
    7
 10
111.9278518763909
 20
160.52047220958988
 11
111.92682120972429
 21
158.95835487625657
  0
LINE
  8
_0-2_0-10
  6
CONTINUOUS
 62
    7
 10
111.92682120972429
 20
158.95835487625657
 11
111.9553492097243
 21
157.38865220958999
  0
LINE
  8
_0-2_0-10
  6
CONTINUOUS
 62
    7
 10
111.9553492097243
 20
157.38865220958999
 11
112.00690387639089
 21
155.81286420958997
  0
LINE
  8
_0-2_0-10
  6
CONTINUOUS
 62
    7
 10
112.00690387639089
 20
155.81286420958997
 11
112.07495187639099
 21
154.23248954292327
  0
LINE
  8
_0-2_0-10
  6
CONTINUOUS
 62
    7
 10
112.07495187639099
 20
154.23248954292327
 11
112.15295987639089
 21
152.6490295429233
  0
LINE
  8
_0-2_0-10
  6
CONTINUOUS
 62
    7
 10
112.15295987639089
 20
152.6490295429233
 11
112.2343932097242
 21
151.06398287625657
  0
LINE
  8
_0-2_0-10
  6
CONTINUOUS
 62
    7
 10
112.2343932097242
 20
151.06398287625657
 11
112.3127198763909
 21
149.47884820958989
  0
LINE
  8
_0-2_0-10
  6
CONTINUOUS
 62
    7
 10
112.3127198763909
 20
149.47884820958989
 11
112.38140654305759
 21
147.89512820958998
  0
LINE
  8
_0-2_0-10
  6
CONTINUOUS
 62
    7
 10
112.38140654305759
 20
147.89512820958998
 11
112.433919876391
 21
146.31431887625657
  0
LINE
  8
_0-2_0-10
  6
CONTINUOUS
 62
    7
 10
112.433919876391
 20
146.31431887625657
 11
112.4637252097243
 21
144.73792287625659
  0
LINE
  8
_0-2_0-10
  6
CONTINUOUS
 62
    7
 10
112.4637252097243
 20
144.73792287625659
 11
112.4642905430576
 21
143.16743887625659
  0
LINE
  8
_0-2_0-10
  6
CONTINUOUS
 62
    7
 10
112.4642905430576
 20
143.16743887625659
 11
112.4290825430576
 21
141.60436554292328
  0
LINE
  8
_0-2_0-10
  6
CONTINUOUS
 62
    7
 10
112.4290825430576
 20
141.60436554292328
 11
112.3515665430576
 21
140.05020420958999
  0
LINE
  8
_0-2_0-10
  6
CONTINUOUS
 62
    7
 10
112.3515665430576
 20
140.05020420958999
 11
112.22520920972429
 21
138.50645354292328
  0
LINE
  8
_0-2_0-10
  6
CONTINUOUS
 62
    7
 10
112.22520920972429
 20
138.50645354292328
 11
112.0434785430576
 21
136.97461220958999
  0
LINE
  8
_0-2_0-10
  6
CONTINUOUS
 62
    7
 10
112.0434785430576
 20
136.97461220958999
 11
111.74158787639089
 21
135.12887487625658
  0
LINE
  8
_0-2_0-10
  6
CONTINUOUS
 62
    7
 10
111.74158787639089
 20
135.12887487625658
 11
111.3557425430576
 21
133.30123087625659
  0
LINE
  8
_0-2_0-10
  6
CONTINUOUS
 62
    7
 10
111.3557425430576
 20
133.30123087625659
 11
110.89357720972429
 21
131.48993887625658
  0
LINE
  8
_0-2_0-10
  6
CONTINUOUS
 62
    7
 10
110.89357720972429
 20
131.48993887625658
 11
110.362727876391
 21
129.69325354292328
  0
LINE
  8
_0-2_0-10
  6
CONTINUOUS
 62
    7
 10
110.362727876391
 20
129.69325354292328
 11
109.77082920972429
 21
127.90943087625659
  0
LINE
  8
_0-2_0-10
  6
CONTINUOUS
 62
    7
 10
109.77082920972429
 20
127.90943087625659
 11
109.125515876391
 21
126.13672420958988
  0
LINE
  8
_0-2_0-10
  6
CONTINUOUS
 62
    7
 10
109.125515876391
 20
126.13672420958988
 11
108.43442254305759
 21
124.37339220958989
  0
LINE
  8
_0-2_0-10
  6
CONTINUOUS
 62
    7
 10
108.43442254305759
 20
124.37339220958989
 11
107.7051838763909
 21
122.61768954292328
  0
LINE
  8
_0-2_0-10
  6
CONTINUOUS
 62
    7
 10
107.7051838763909
 20
122.61768954292328
 11
106.9454345430576
 21
120.86787087625658
  0
LINE
  8
_0-2_0-10
  6
CONTINUOUS
 62
    7
 10
106.9454345430576
 20
120.86787087625658
 11
106.1628105430576
 21
119.12219220958998
  0
LINE
  8
_0-2_0-10
  6
CONTINUOUS
 62
    7
 10
106.1628105430576
 20
119.12219220958998
 11
105.36494654305759
 21
117.37890954292328
  0
LINE
  8
_0-2_0-10
  6
CONTINUOUS
 62
    7
 10
105.36494654305759
 20
117.37890954292328
 11
104.5594772097243
 21
115.63627887625658
  0
LINE
  8
_0-2_0-10
  6
CONTINUOUS
 62
    7
 10
104.5594772097243
 20
115.63627887625658
 11
103.7540358763909
 21
113.89255487625658
  0
LINE
  8
_0-2_0-10
  6
CONTINUOUS
 62
    7
 10
103.7540358763909
 20
113.89255487625658
 11
102.9562598763909
 21
112.14599220958989
  0
LINE
  8
_0-2_0-10
  6
CONTINUOUS
 62
    7
 10
102.9562598763909
 20
112.14599220958989
 11
102.17378254305759
 21
110.39484820958989
  0
LINE
  8
_0-2_0-10
  6
CONTINUOUS
 62
    7
 10
102.17378254305759
 20
110.39484820958989
 11
101.41423987639099
 21
108.63737887625659
  0
LINE
  8
_0-2_0-10
  6
CONTINUOUS
 62
    7
 10
101.41423987639099
 20
108.63737887625659
 11
100.6852652097243
 21
106.87183754292328
  0
LINE
  8
_0-2_0-10
  6
CONTINUOUS
 62
    7
 10
100.6852652097243
 20
106.87183754292328
 11
99.994493209724296
 21
105.09648154292199
  0
LINE
  8
_0-2_0-10
  6
CONTINUOUS
 62
    7
 10
99.994493209724296
 20
105.09648154292199
 11
99.349561209724285
 21
103.30956687625658
  0
LINE
  8
_0-2_0-10
  6
CONTINUOUS
 62
    7
 10
99.349561209724285
 20
103.30956687625658
 11
98.758102543057646
 21
101.50934687625658
  0
LINE
  8
_0-2_0-10
  6
CONTINUOUS
 62
    7
 10
98.758102543057646
 20
101.50934687625658
 11
98.227751876390968
 21
99.694078876256639
  0
LINE
  8
_0-2_0-10
  6
CONTINUOUS
 62
    7
 10
98.227751876390968
 20
99.694078876256639
 11
98.058506543057603
 21
99.057393542923307
  0
LINE
  8
_0-2_0-10
  6
CONTINUOUS
 62
    7
 10
98.058506543057603
 20
99.057393542923307
 11
97.897218543057604
 21
98.418764209589951
  0
LINE
  8
_0-2_0-10
  6
CONTINUOUS
 62
    7
 10
97.897218543057604
 20
98.418764209589951
 11
97.74349054305766
 21
97.778288209589959
  0
LINE
  8
_0-2_0-10
  6
CONTINUOUS
 62
    7
 10
97.74349054305766
 20
97.778288209589959
 11
97.596923876390988
 21
97.136062876256644
  0
LINE
  8
_0-2_0-10
  6
CONTINUOUS
 62
    7
 10
97.596923876390988
 20
97.136062876256644
 11
97.457121209724306
 21
96.492185542923294
  0
LINE
  8
_0-2_0-10
  6
CONTINUOUS
 62
    7
 10
97.457121209724306
 20
96.492185542923294
 11
97.323683876390944
 21
95.846753542923295
  0
LINE
  8
_0-2_0-10
  6
CONTINUOUS
 62
    7
 10
97.323683876390944
 20
95.846753542923295
 11
97.196214543057649
 21
95.199862876256602
  0
LINE
  8
_0-2_0-10
  6
CONTINUOUS
 62
    7
 10
97.196214543057649
 20
95.199862876256602
 11
97.074315876390954
 21
94.551610876256631
  0
LINE
  8
_0-2_0-10
  6
CONTINUOUS
 62
    7
 10
97.074315876390954
 20
94.551610876256631
 11
96.957589209724304
 21
93.902096209589956
  0
LINE
  8
_0-2_0-10
  6
CONTINUOUS
 62
    7
 10
96.957589209724304
 20
93.902096209589956
 11
96.845637209724316
 21
93.251414876256632
  0
LINE
  8
_0-2_0-10
  6
CONTINUOUS
 62
    7
 10
96.845637209724316
 20
93.251414876256632
 11
96.738061209724307
 21
92.599665542923276
  0
LINE
  8
_0-2_0-10
  6
CONTINUOUS
 62
    7
 10
96.738061209724307
 20
92.599665542923276
 11
96.634463876390967
 21
91.946942876256642
  0
LINE
  8
_0-2_0-10
  6
CONTINUOUS
 62
    7
 10
96.634463876390967
 20
91.946942876256642
 11
96.534447876390956
 21
91.293346876256634
  0
LINE
  8
_0-2_0-10
  6
CONTINUOUS
 62
    7
 10
96.534447876390956
 20
91.293346876256634
 11
96.437614543057634
 21
90.638972209589951
  0
LINE
  8
_0-2_0-10
  6
CONTINUOUS
 62
    7
 10
96.437614543057634
 20
90.638972209589951
 11
96.343566543057633
 21
89.983917542923279
  0
LINE
  8
_0-2_0-10
  6
CONTINUOUS
 62
    7
 10
96.343566543057633
 20
89.983917542923279
 11
96.251905209724284
 21
89.328278876256632
  0
LINE
  8
_0-2_0-10
  6
CONTINUOUS
 62
    7
 10
96.251905209724284
 20
89.328278876256632
 11
96.162233209724305
 21
88.672156209589957
  0
LINE
  8
_0-2_0-10
  6
CONTINUOUS
 62
    7
 10
96.162233209724305
 20
88.672156209589957
 11
96.074153209724315
 21
88.015642876256606
  0
LINE
  8
_0-2_0-10
  6
CONTINUOUS
 62
    7
 10
96.074153209724315
 20
88.015642876256606
 11
95.987266543057629
 21
87.358838876256641
  0
LINE
  8
_0-2_0-10
  6
CONTINUOUS
 62
    7
 10
95.987266543057629
 20
87.358838876256641
 11
95.901175876390965
 21
86.701840209589974
  0
LINE
  8
_0-2_0-10
  6
CONTINUOUS
 62
    7
 10
95.901175876390965
 20
86.701840209589974
 11
95.815482543057626
 21
86.044744209589964
  0
LINE
  8
_0-2_0-10
  6
CONTINUOUS
 62
    3
 10
95.815482543057626
 20
86.044744209589964
 11
41.674970543057611
 21
86.044744209589964
  0
LINE
  8
_0-2_0-10
  6
CONTINUOUS
 62
    3
 10
129.56130654305761
 20
236.04474420958999
 11
41.674970543057611
 21
236.04474420958999
  0
LINE
  8
_0-2_0-10
  6
CONTINUOUS
 62
    4
 10
113.67497054305759
 20
115.54474420958999
 11
109.0557158763909
 21
115.64558554292328
  0
LINE
  8
_0-2_0-10
  6
CONTINUOUS
 62
    4
 10
109.0557158763909
 20
115.64558554292328
 11
104.69641320972429
 21
115.93254154292328
  0
INSERT
  2
-025-BLKF044_27
  8
_0-2_0-10
 10
-11.296021456942355
 20
-74.564639790410012
 41
1.333333333333333
 42
1.333333333333333
 50
0
  0
LINE
  8
_0-2_0-10
  6
CONTINUOUS
 62
    5
 10
129.88457320972429
 20
214.90469754292328
 11
163.49453587639101
 21
211.96420554292328
  0
LINE
  8
_0-2_0-10
  6
CONTINUOUS
 62
    5
 10
130.06159987639088
 20
219.60560554292328
 11
160.9154492097243
 21
216.90624420958999
  0
LINE
  8
_0-2_0-10
  6
CONTINUOUS
 62
    5
 10
130.0635078763909
 20
219.73484820958998
 11
160.92668520972429
 21
217.03466954292329
  0
LINE
  8
_0-2_0-10
  6
CONTINUOUS
 62
    5
 10
130.034119876391
 20
224.99716820959
 11
175.42497054305761
 21
221.02598287625667
  0
LINE
  8
_0-2_0-10
  6
CONTINUOUS
 62
    5
 10
163.65380120972429
 20
213.78461887625658
 11
163.49453587639101
 21
211.96420554292328
  0
LINE
  8
_0-2_0-10
  6
CONTINUOUS
 62
    5
 10
175.92497054305761
 20
236.04474420958999
 11
129.56130654305761
 21
236.04474420958999
  0
LINE
  8
_0-2_0-10
  6
CONTINUOUS
 62
    5
 10
164.19016654305769
 20
213.27711887625659
 11
175.42497054305761
 21
212.29420154292327
  0
LINE
  8
_0-2_0-10
  6
CONTINUOUS
 62
    5
 10
164.1468292097243
 20
212.79880820958987
 11
175.381391876391
 21
211.81591087625659
  0
ARC
  8
_0-2_0-10
  6
CONTINUOUS
 62
    5
 10
164.13787320972429
 20
212.67940287625657
 40
0.5999999999999999
 50
84.999999999999985
 51
159.63549
  0
ARC
  8
_0-2_0-10
  6
CONTINUOUS
 62
    5
 10
164.094535876391
 20
212.20109087625658
 40
0.5999999999999999
 50
84.999999999999985
 51
159.10912099999879
  0
ARC
  8
_0-2_0-10
  6
CONTINUOUS
 62
    5
 10
160.65398120972429
 20
213.91766020958999
 40
3
 50
355
 51
85
  0
ARC
  8
_0-2_0-10
  6
CONTINUOUS
 62
    5
 10
160.66521720972428
 20
214.04608554292329
 40
3
 50
355
 51
85
  0
LINE
  8
_0-2_0-10
  6
CONTINUOUS
 62
    5
 10
175.92497054305761
 20
236.04474420958999
 11
175.92497054305761
 21
212.3140082095899
  0
LINE
  8
_0-2_0-10
  6
CONTINUOUS
 62
    5
 10
175.42497054305761
 20
236.04474420958999
 11
175.42497054305761
 21
212.29420154292327
  0
ARC
  8
_0-2_0-10
  6
CONTINUOUS
 62
    5
 10
175.42497054305761
 20
212.3140082095899
 40
0.5
 50
265
 51
0.0000000000000127
  0
LINE
  8
_0-2_0-10
  6
CONTINUOUS
 62
    5
 10
175.42497054305761
 20
216.79022687625658
 11
175.92497054305761
 21
216.79022687625658
  0
LINE
  8
_0-2_0-10
  6
CONTINUOUS
 62
    5
 10
175.42497054305761
 20
224.45708287625657
 11
175.92497054305761
 21
224.45708287625657
  0
LINE
  8
_0-2_0-10
  6
CONTINUOUS
 62
    7
 10
139.23173904133631
 20
213.31036694923798
 11
139.171897314115
 21
213.2067180399967
  0
LINE
  8
_0-2_0-10
  6
CONTINUOUS
 62
    7
 10
136.91057987639101
 20
214.29000154292327
 11
136.67985984457891
 21
213.89038272804057
  0
LINE
  8
_0-2_0-10
  6
CONTINUOUS
 62
    7
 10
121.2191986609163
 20
187.11173220959
 11
116.53838520972429
 21
179.00432554292328
  0
LINE
  8
_0-2_0-10
  6
CONTINUOUS
 62
    7
 10
134.162631876391
 20
214.5304148762566
 11
134.13536711379231
 21
214.48319092604998
  0
LINE
  8
_0-2_0-10
  6
CONTINUOUS
 62
    7
 10
149.4845505430577
 20
211.06875754292329
 11
149.43084233099631
 21
210.97573218858329
  0
LINE
  8
_0-2_0-10
  6
CONTINUOUS
 62
    7
 10
148.60466100681489
 20
204.54474420958999
 11
148.2856477382603
 21
203.99219702354068
  0
LINE
  8
_0-2_0-10
  6
CONTINUOUS
 62
    7
 10
109.6721940913323
 20
127.11173220958988
 11
109.5453425430576
 21
126.89201887625658
  0
LINE
  8
_0-2_0-10
  6
CONTINUOUS
 62
    7
 10
147.39897428695098
 20
115.63305583289799
 11
147.50509720972431
 21
115.44924554292329
  0
LINE
  8
_0-2_0-10
  6
CONTINUOUS
 62
    7
 10
123.6305612097243
 20
191.80115487625658
 11
123.6342624098323
 21
191.79474420958999
  0
LINE
  8
_0-2_0-10
  6
CONTINUOUS
 62
    7
 10
129.9378385430576
 20
215.87663087625659
 11
130.5316704366123
 21
214.84808384662869
  0
LINE
  8
_0-2_0-10
  6
CONTINUOUS
 62
    7
 10
136.6123158763909
 20
214.31609620959
 11
136.8866703920456
 21
213.84090025065668
  0
LINE
  8
_0-2_0-10
  6
CONTINUOUS
 62
    7
 10
100.6089625430576
 20
106.67573354292328
 11
100.7192025430576
 21
106.48479220958988
  0
ARC
  8
_0-2_0-10
  6
CONTINUOUS
 62
    7
 10
113.67497054305759
 20
164.04474420958987
 40
59
 50
257.14623200000016
 51
56.96953899999972
  0
LINE
  8
_0-2_0-10
  6
CONTINUOUS
 62
    4
 10
138.61614654305759
 20
213.42709754292329
 11
134.4454252097243
 21
214.42500420958998
  0
LINE
  8
_0-2_0-10
  6
CONTINUOUS
 62
    4
 10
134.4454252097243
 20
214.42500420958998
 11
133.64013454305759
 21
214.57612820958999
  0
ARC
  8
_0-2_0-10
  6
CONTINUOUS
 62
    4
 10
160.67071454305769
 20
191.44474420958988
 40
1.0999999999999989
 50
30.243533000007044
 51
90.000000000006735
  0
LINE
  8
_0-2_0-10
  6
CONTINUOUS
 62
    4
 10
160.67071454305769
 20
192.54474420958999
 11
158.79650254305761
 21
192.54474420958999
  0
LINE
  8
_0-2_0-10
  6
CONTINUOUS
 62
    4
 10
159.586755876391
 20
180.04474420958999
 11
160.5551795028202
 21
182.32620646656857
  0
ARC
  8
_0-2_0-10
  6
CONTINUOUS
 62
    4
 10
162.39618920972429
 20
181.54474420958987
 40
2
 50
89.999999999996944
 51
156.9999999999971
  0
LINE
  8
_0-2_0-10
  6
CONTINUOUS
 62
    4
 10
162.39618920972429
 20
183.54474420958999
 11
164.61611187639098
 21
183.54474420958999
  0
ARC
  8
_0-2_0-10
  6
CONTINUOUS
 62
    4
 10
164.61612828543499
 20
184.24473386200727
 40
0.6999896526106665
 50
269.99865688161992
 51
21.63133019468503
  0
ARC
  8
_0-2_0-10
  6
CONTINUOUS
 62
    4
 10
113.67497054305759
 20
164.04474420958987
 40
55.5
 50
21.630110999999981
 51
30.243532999999889
  0
ARC
  8
_0-2_0-10
  6
CONTINUOUS
 62
    4
 10
112.5326736054336
 20
164.04474358173928
 40
56.639861314161329
 50
356.29570313359101
 51
3.7042983683290544
  0
ARC
  8
_0-2_0-10
  6
CONTINUOUS
 62
    4
 10
168.156159876391
 20
167.64474420958998
 40
0.9
 50
3.780486000006952
 51
90.000000000006735
  0
LINE
  8
_0-2_0-10
  6
CONTINUOUS
 62
    4
 10
168.156159876391
 20
168.54474420958999
 11
166.88071854305761
 21
168.54474420958999
  0
ARC
  8
_0-2_0-10
  6
CONTINUOUS
 62
    4
 10
113.04236729835629
 20
164.18644048306327
 40
56.146795890436003
 50
343.52176565353397
 51
351.22744482619901
  0
ARC
  8
_0-2_0-10
  6
CONTINUOUS
 62
    4
 10
167.74159587639098
 20
155.74474420958989
 40
0.8
 50
351.27241299999798
 51
89.999999999998209
  0
LINE
  8
_0-2_0-10
  6
CONTINUOUS
 62
    4
 10
167.74159587639098
 20
156.54474420958987
 11
166.52964254305769
 21
156.54474420958987
  0
LINE
  8
_0-2_0-10
  6
CONTINUOUS
 62
    4
 10
113.669919121155
 20
115.11162193518988
 11
109.0557158763909
 21
115.21257220958989
  0
LINE
  8
_0-2_0-10
  6
CONTINUOUS
 62
    4
 10
109.0557158763909
 20
115.21257220958989
 11
104.5022158763909
 21
115.51231220958858
  0
LINE
  8
_0-2_0-10
  6
CONTINUOUS
 62
    7
 10
181.17497054305761
 20
194.04474420958987
 11
190.25659668445359
 21
181.58070892134188
  0
LINE
  8
_0-1_0-00
  6
CONTINUOUS
 62
    3
 10
217.9999980430592
 20
16.499998616985976
 11
412.99999804305809
 21
16.499998616985976
  0
TEXT
  8
_0-1_0-00
 62
    7
 10
224.4999990209472
 20
9.189999308492986
 40
3.8999999999999999
 41
1
 50
0
  1
マックス株式会社
  0
LINE
  8
_0-1_0-00
  6
CONTINUOUS
 62
    3
 10
217.9999980430592
 20
16.499998616985976
 11
217.9999980430592
 21
6.4999986169859766
  0
LINE
  8
_0-1_0-00
  6
CONTINUOUS
 62
    3
 10
277.99999804305917
 20
16.499998616985976
 11
277.99999804305917
 21
6.4999986169859766
  0
LINE
  8
_0-1_0-00
  6
CONTINUOUS
 62
    3
 10
337.99999804305917
 20
16.499998616985976
 11
337.99999804305917
 21
6.4999986169859766
  0
TEXT
  8
_0-1_0-00
 62
    7
 10
288.83299902094722
 20
9.189999308492986
 40
3.8999999999999999
 41
1
 50
0
  1
2024/1/9
  0
TEXT
  8
_0-1_0-00
 62
    7
 10
339.4999990209472
 20
12.113999308492992
 40
2.3399999999999989
 41
1
 50
0
  1
名称
  0
TEXT
  8
_0-1_0-00
 62
    7
 10
279.4999990209472
 20
12.113999308492992
 40
2.3399999999999989
 41
1
 50
0
  1
日付
  0
TEXT
  8
_0-2_0-10
 62
    7
 10
193.19497184690959
 20
183.12908434146058
 40
3.1199999999999992
 41
1
 50
0
  1
2-φ4.3
  0
LINE
  8
_0-2_0-10
  6
CONTINUOUS
 62
    7
 10
211.9747946308922
 20
181.58070892134188
 11
190.25659668445359
 21
181.58070892134188
  0
LINE
  8
_0-2_0-10
  6
CONTINUOUS
 62
    6
 10
347.69094787639102
 20
209.54474420958999
 11
347.69094787639102
 21
142.78233606751928
  0
ARC
  8
_0-2_0-10
  6
CONTINUOUS
 62
    4
 10
307.69094787639102
 20
164.04474420958987
 40
45.299999999999997
 50
8.2497240000000306
 51
27.993333928196108
  0
LINE
  8
_0-2_0-10
  6
CONTINUOUS
 62
    2
 10
347.69094787639102
 20
170.54474420958999
 11
355.29094787639087
 21
170.54474420958999
  0
LINE
  8
_0-2_0-10
  6
CONTINUOUS
 62
    2
 10
347.69094787639102
 20
157.54474420958999
 11
355.29094787639087
 21
157.54474420958999
  0
ARC
  8
_0-2_0-10
  6
CONTINUOUS
 62
    4
 10
307.69094787639102
 20
164.04474420958987
 40
45.299999999999997
 50
332.00666623047192
 51
351.75027599999998
  0
LINE
  8
_0-2_0-10
  6
CONTINUOUS
 62
    3
 10
302.89094787639112
 20
236.04474420958999
 11
302.89094787639112
 21
228.55996038387527
  0
INSERT
  2
-030-_D28
  8
_0-0_0
 10
-0.2500009790527997
 20
-0.0000006915070116
 41
1
 42
1
 50
0
  0
CIRCLE
  8
_0-1_0-00
  6
CONTINUOUS
 62
    7
 10
245.710475876391
 20
86.044744209589964
 40
0.0066666666666667
  0
CIRCLE
  8
_0-1_0-00
  6
CONTINUOUS
 62
    7
 10
245.710475876391
 20
236.04474420958987
 40
0.0066666666666667
  0
CIRCLE
  8
_0-1_0-00
  6
CONTINUOUS
 62
    7
 10
230.640986543059
 20
236.04474420958987
 40
0.0066666666666667
  0
INSERT
  2
-031-_D31
  8
_0-0_0
 10
-0.2500009790527997
 20
-0.0000006915070116
 41
1
 42
1
 50
0
  0
INSERT
  2
-032-_D32
  8
_0-0_0
 10
-0.2500009790527997
 20
-0.0000006915070116
 41
1
 42
1
 50
0
  0
INSERT
  2
-033-_D33
  8
_0-0_0
 10
-0.2500009790527997
 20
-0.0000006915070116
 41
1
 42
1
 50
0
  0
INSERT
  2
-034-_D34
  8
_0-0_0
 10
-0.2500009790527997
 20
-0.0000006915070116
 41
1
 42
1
 50
0
  0
INSERT
  2
-035-_D35
  8
_0-0_0
 10
-0.2500009790527997
 20
-0.0000006915070116
 41
1
 42
1
 50
0
  0
INSERT
  2
-036-_D36
  8
_0-0_0
 10
-0.2500009790527997
 20
-0.0000006915070116
 41
1
 42
1
 50
0
  0
INSERT
  2
-037-_D37
  8
_0-0_0
 10
-0.2500009790527997
 20
-0.0000006915070116
 41
1
 42
1
 50
0
  0
INSERT
  2
-038-_D38
  8
_0-0_0
 10
-0.2500009790527997
 20
-0.0000006915070116
 41
1
 42
1
 50
0
  0
INSERT
  2
-039-_D39
  8
_0-0_0
 10
-0.2500009790527997
 20
-0.0000006915070116
 41
1
 42
1
 50
0
  0
LINE
  8
_0-2_0-10
  6
CONTINUOUS
 62
    3
 10
209.99999804305821
 20
288.49999861698597
 11
209.99999804305821
 21
290.49999861698597
  0
TEXT
  8
_0-1_0-00
 62
    7
 10
14.366930917327238
 20
14.214043035107579
 40
3.5099999999999988
 41
1
 50
0
  1
型番：VC100JKP-FD□　　※)□はカラーを示します。
  0
TEXT
  8
_0-1_0-00
 62
    7
 10
350.4999990209472
 20
9.189999308492986
 40
3.8999999999999999
 41
1
 50
0
  1
対外風型フード付換気口
  0
ENDSEC
  0
EOF
