  0
SECTION
  2
HEADER
  9
$ACADVER
  1
AC1009
  9
$INSBASE
 10
0
 20
0
 30
0
  9
$EXTMIN
 10
0
 20
0
  9
$EXTMAX
 10
420
 20
297
  9
$LIMMIN
 10
0
 20
0
  9
$LIMMAX
 10
420
 20
297
  9
$LTSCALE
 40
1
  0
ENDSEC
  0
SECTION
  2
TABLES
  0
TABLE
  2
LTYPE
 70
     9
  0
LTYPE
  2
CONTINUOUS
 70
    64
  3
実線
 72
    65
 73
     0
 40
0.0
  0
LTYPE
  2
DASHED1
 70
    64
  3
--  --  --  --  --  --  --  --  
 72
    65
 73
     2
 40
2.5
 49
1.25
 49
-1.25
  0
LTYPE
  2
DASHED2
 70
    64
  3
----    ----    ----    ----    
 72
    65
 73
     2
 40
5.0
 49
2.5
 49
-2.5
  0
LTYPE
  2
DASHED3
 70
    64
  3
------  ------  ------  ------  
 72
    65
 73
     2
 40
5.0
 49
3.75
 49
-1.25
  0
LTYPE
  2
CENTER1
 70
    64
  3
----- - ----- - ----- - ----- - 
 72
    65
 73
     4
 40
10.0
 49
6.25
 49
-1.25
 49
1.25
 49
-1.25
  0
LTYPE
  2
CENTER2
 70
    64
  3
----------  --  ----------  --  
 72
    65
 73
     4
 40
20.0
 49
12.5
 49
-2.5
 49
2.5
 49
-2.5
  0
LTYPE
  2
PHANTOM1
 70
    64
  3
--- - - --- - - --- - - --- - - 
 72
    65
 73
     6
 40
10.0
 49
3.25
 49
-1.25
 49
1.25
 49
-1.25
 49
1.25
 49
-1.25
  0
LTYPE
  2
PHANTOM2
 70
    64
  3
--------  -  -  --------  -  -  
 72
    65
 73
     6
 40
20.0
 49
10.0
 49
-2.5
 49
1.25
 49
-2.5
 49
1.25
 49
-2.5
  0
LTYPE
  2
DOT
 70
    64
  3
-   -   -   -   -   -   -   -   
 72
    65
 73
     2
 40
2.5
 49
0.625
 49
-1.875
  0
LTYPE
  2
DUMMY
 70
    64
  3
ダミー
 72
    65
 73
     0
 40
0.0
  0
LTYPE
  2
RAND1
 70
    64
  3
ランダム線1
 72
    65
 73
     4
 40
10.0
 49
1.0
 49
-2.0
 49
3.0
 49
-4.0
  0
LTYPE
  2
RAND2
 70
    64
  3
ランダム線2
 72
    65
 73
     4
 40
14.0
 49
2.0
 49
-3.0
 49
4.0
 49
-5.0
  0
LTYPE
  2
RAND3
 70
    64
  3
ランダム線3
 72
    65
 73
     4
 40
18.0
 49
3.0
 49
-4.0
 49
5.0
 49
-6.0
  0
LTYPE
  2
RAND4
 70
    64
  3
ランダム線4
 72
    65
 73
     4
 40
22.0
 49
4.0
 49
-5.0
 49
6.0
 49
-7.0
  0
LTYPE
  2
RAND5
 70
    64
  3
ランダム線5
 72
    65
 73
     4
 40
26.0
 49
5.0
 49
-6.0
 49
7.0
 49
-8.0
  0
LTYPE
  2
LONG1
 70
    64
  3
----------  --  ----------  --  
 72
    65
 73
     4
 40
40.0
 49
32.5
 49
-2.5
 49
2.5
 49
-2.5
  0
LTYPE
  2
LONG2
 70
    64
  3
--------  -  -  --------  -  -  
 72
    65
 73
     6
 40
40.0
 49
30.0
 49
-2.5
 49
1.25
 49
-2.5
 49
1.25
 49
-2.5
  0
LTYPE
  2
LONG3
 70
    64
  3
+++++++++++++++..+++++++++++++++
 72
    65
 73
     2
 40
40.0
 49
37.5
 49
-2.5
  0
LTYPE
  2
LONG4
 70
    64
  3
+++++++++++++++..+++++++++++++++
 72
    65
 73
     2
 40
80.0
 49
75.0
 49
-5.0
  0
LTYPE
  2
LONG5
 70
    64
  3
----------  --  ----------  --  
 72
    65
 73
     4
 40
60.0
 49
37.5
 49
-7.5
 49
7.5
 49
-7.5
  0
LTYPE
  2
dashed
 70
   64
  3
-------   -------------   ------
 72
   65
 73
    2
 40
7.5
 49
6
 49
-1.5
  0
LTYPE
  2
dashed_spaced
 70
   64
  3
----        --------        ----
 72
   65
 73
    2
 40
12
 49
6
 49
-6
  0
LTYPE
  2
long_dashed_dotted
 70
   64
  3
------------- --- --------------
 72
   65
 73
    4
 40
15.25
 49
12
 49
-1.5
 49
0.25
 49
-1.5
  0
LTYPE
  2
long_dashed_double-dotted
 70
   64
  3
----------- --- --- ------------
 72
   65
 73
    6
 40
17
 49
12
 49
-1.5
 49
0.25
 49
-1.5
 49
0.25
 49
-1.5
  0
LTYPE
  2
long_dashed_triplicate-dotted
 70
   64
  3
--------- --- --- --- ----------
 72
   65
 73
    8
 40
18.75
 49
12
 49
-1.5
 49
0.25
 49
-1.5
 49
0.25
 49
-1.5
 49
0.25
 49
-1.5
  0
LTYPE
  2
dotted
 70
   64
  3
   -       -       -       -    
 72
   65
 73
    2
 40
1.75
 49
0.25
 49
-1.5
  0
LTYPE
  2
chain
 70
   64
  3
-------------- -- --------------
 72
   65
 73
    4
 40
18.5
 49
12
 49
-1.5
 49
3.5
 49
-1.5
  0
LTYPE
  2
chain_double_dash
 70
   64
  3
------------ -- -- -------------
 72
   65
 73
    6
 40
23.5
 49
12
 49
-1.5
 49
3.5
 49
-1.5
 49
3.5
 49
-1.5
  0
LTYPE
  2
dashed_dotted
 70
   64
  3
-----------     -     ----------
 72
   65
 73
    4
 40
9.25
 49
6
 49
-1.5
 49
0.25
 49
-1.5
  0
LTYPE
  2
double-dashed_dotted
 70
   64
  3
------   -----------   -   -----
 72
   65
 73
    6
 40
16.75
 49
6
 49
-1.5
 49
6
 49
-1.5
 49
0.25
 49
-1.5
  0
LTYPE
  2
dashed_double-dotted
 70
   64
  3
---------    -    -    ---------
 72
   65
 73
    6
 40
11
 49
6
 49
-1.5
 49
0.25
 49
-1.5
 49
0.25
 49
-1.5
  0
LTYPE
  2
double-dashed_double-dotted
 70
   64
  3
-----   ---------   -   -   ----
 72
   65
 73
    8
 40
18.5
 49
6
 49
-1.5
 49
6
 49
-1.5
 49
0.25
 49
-1.5
 49
0.25
 49
-1.5
  0
LTYPE
  2
dashed_triplicate-dotted
 70
   64
  3
-------    -    -    -    ------
 72
   65
 73
    8
 40
12.75
 49
6
 49
-1.5
 49
0.25
 49
-1.5
 49
0.25
 49
-1.5
 49
0.25
 49
-1.5
  0
LTYPE
  2
double-dashed_triplicate-dotted
 70
   64
  3
-----  ---------  -  -  -  -----
 72
   65
 73
   10
 40
20.25
 49
6
 49
-1.5
 49
6
 49
-1.5
 49
0.25
 49
-1.5
 49
0.25
 49
-1.5
 49
0.25
 49
-1.5
  0
LTYPE
  2
undefined
 70
   64
  3
--------------------------------
 72
   65
 73
    0
 40
0
  0
LTYPE
  2
_
 70
   64
  3
                                
 72
   65
 73
    0
 40
0
  0
LTYPE
  2
__18
 70
   64
  3
                                
 72
   65
 73
    0
 40
0
  0
LTYPE
  2
__19
 70
   64
  3
                                
 72
   65
 73
    0
 40
0
  0
LTYPE
  2
__20
 70
   64
  3
                                
 72
   65
 73
    0
 40
0
  0
LTYPE
  2
__21
 70
   64
  3
                                
 72
   65
 73
    0
 40
0
  0
LTYPE
  2
__22
 70
   64
  3
                                
 72
   65
 73
    0
 40
0
  0
LTYPE
  2
__23
 70
   64
  3
                                
 72
   65
 73
    0
 40
0
  0
LTYPE
  2
__24
 70
   64
  3
                                
 72
   65
 73
    0
 40
0
  0
LTYPE
  2
__25
 70
   64
  3
                                
 72
   65
 73
    0
 40
0
  0
LTYPE
  2
__26
 70
   64
  3
                                
 72
   65
 73
    0
 40
0
  0
LTYPE
  2
__27
 70
   64
  3
                                
 72
   65
 73
    0
 40
0
  0
LTYPE
  2
__28
 70
   64
  3
                                
 72
   65
 73
    0
 40
0
  0
LTYPE
  2
__29
 70
   64
  3
                                
 72
   65
 73
    0
 40
0
  0
LTYPE
  2
__30
 70
   64
  3
                                
 72
   65
 73
    0
 40
0
  0
LTYPE
  2
__31
 70
   64
  3
                                
 72
   65
 73
    0
 40
0
  0
LTYPE
  2
__32
 70
   64
  3
                                
 72
   65
 73
    0
 40
0
  0
ENDTAB
  0
TABLE
  2
STYLE
  5
3
100
AcDbSymbolTable
 70
     1
  0
STYLE
  5
10
100
AcDbSymbolTableRecord
100
AcDbTextStyleTableRecord
  2
STANDARD
 70
     0
 40
0.0
 41
1.0
 50
0.0
 71
     0
 42
0.2
  3
txt
  4
bigfont.shx
  0
STYLE
  5
26
100
AcDbSymbolTableRecord
100
AcDbTextStyleTableRecord
  2
TATEGAKI
 70
    68
 40
0.0
 41
1.0
 50
0.0
 71
     0
 42
1.0
  3
txt
  4
bigfont.shx
  0
ENDTAB
  0
TABLE
  2
LAYER
 70
    4
  0
LAYER
  2
_0-0_0
 70
   64
 62
    7
  6
CONTINUOUS
  0
LAYER
  2
_0-1_0-00
 70
   64
 62
    7
  6
CONTINUOUS
  0
LAYER
  2
_0-2_0-10
 70
   64
 62
    7
  6
CONTINUOUS
  0
LAYER
  2
ADD_LINE
 70
   64
 62
    7
  6
CONTINUOUS
  0
ENDTAB
  0
ENDSEC
  0
SECTION
  2
BLOCKS
  0
BLOCK
  2
-000-BLKF051_31
 70
   64
 10
0
 20
0
 30
0
  0
LINE
  8
_0-2_0-10
  6
CONTINUOUS
 62
    7
 10
192.504873
 20
231.311405
 11
192.879873
 21
231.52791199999998
  0
LINE
  8
_0-2_0-10
  6
CONTINUOUS
 62
    7
 10
192.504873
 20
232.17743100000001
 11
192.879873
 21
232.39393699999999
  0
LINE
  8
_0-2_0-10
  6
CONTINUOUS
 62
    7
 10
192.504873
 20
230.44538
 11
192.879873
 21
230.661886
  0
LINE
  8
_0-2_0-10
  6
CONTINUOUS
 62
    7
 10
192.504873
 20
229.57935499999999
 11
192.879873
 21
229.795861
  0
LINE
  8
_0-2_0-10
  6
CONTINUOUS
 62
    7
 10
192.504873
 20
228.71332899999998
 11
192.879873
 21
228.92983599999999
  0
LINE
  8
_0-2_0-10
  6
CONTINUOUS
 62
    7
 10
192.504873
 20
227.847304
 11
192.879873
 21
228.06380999999998
  0
LINE
  8
_0-2_0-10
  6
CONTINUOUS
 62
    7
 10
192.504873
 20
226.981278
 11
192.879873
 21
227.19778500000001
  0
LINE
  8
_0-2_0-10
  6
CONTINUOUS
 62
    7
 10
192.504873
 20
226.11525299999999
 11
192.879873
 21
226.331759
  0
LINE
  8
_0-2_0-10
  6
CONTINUOUS
 62
    7
 10
192.504873
 20
225.24922799999998
 11
192.879873
 21
225.46573399999999
  0
LINE
  8
_0-2_0-10
  6
CONTINUOUS
 62
    7
 10
192.504873
 20
224.38320200000001
 11
192.879873
 21
224.59970799999999
  0
LINE
  8
_0-2_0-10
  6
CONTINUOUS
 62
    7
 10
192.504873
 20
223.517177
 11
192.879873
 21
223.73368300000001
  0
LINE
  8
_0-2_0-10
  6
CONTINUOUS
 62
    7
 10
192.504873
 20
222.65115099999999
 11
192.879873
 21
222.867658
  0
LINE
  8
_0-2_0-10
  6
CONTINUOUS
 62
    7
 10
192.504873
 20
221.78512599999999
 11
192.879873
 21
222.001632
  0
LINE
  8
_0-2_0-10
  6
CONTINUOUS
 62
    7
 10
192.504873
 20
220.91910100000001
 11
192.879873
 21
221.13560699999999
  0
LINE
  8
_0-2_0-10
  6
CONTINUOUS
 62
    7
 10
192.504873
 20
220.053075
 11
192.879873
 21
220.26958099999998
  0
LINE
  8
_0-2_0-10
  6
CONTINUOUS
 62
    7
 10
192.504873
 20
219.18704999999999
 11
192.879873
 21
219.403556
  0
LINE
  8
_0-2_0-10
  6
CONTINUOUS
 62
    7
 10
192.504873
 20
218.32102399999999
 11
192.879873
 21
218.537531
  0
LINE
  8
_0-2_0-10
  6
CONTINUOUS
 62
    7
 10
192.504873
 20
217.45499899999998
 11
192.879873
 21
217.67150499999999
  0
LINE
  8
_0-2_0-10
  6
CONTINUOUS
 62
    7
 10
192.504873
 20
216.588973
 11
192.879873
 21
216.80547999999998
  0
LINE
  8
_0-2_0-10
  6
CONTINUOUS
 62
    7
 10
192.504873
 20
215.722948
 11
192.879873
 21
215.93945400000001
  0
LINE
  8
_0-2_0-10
  6
CONTINUOUS
 62
    7
 10
192.504873
 20
214.85692299999999
 11
192.879873
 21
215.073429
  0
LINE
  8
_0-2_0-10
  6
CONTINUOUS
 62
    7
 10
192.504873
 20
213.99089699999998
 11
192.879873
 21
214.20740399999999
  0
LINE
  8
_0-2_0-10
  6
CONTINUOUS
 62
    7
 10
192.504873
 20
213.12487200000001
 11
192.879873
 21
213.34137799999999
  0
LINE
  8
_0-2_0-10
  6
CONTINUOUS
 62
    7
 10
192.504873
 20
212.258846
 11
192.879873
 21
212.47535300000001
  0
LINE
  8
_0-2_0-10
  6
CONTINUOUS
 62
    7
 10
192.504873
 20
211.39282099999999
 11
192.879873
 21
211.609327
  0
LINE
  8
_0-2_0-10
  6
CONTINUOUS
 62
    7
 10
192.504873
 20
210.52679599999999
 11
192.879873
 21
210.74330199999999
  0
LINE
  8
_0-2_0-10
  6
CONTINUOUS
 62
    7
 10
192.504873
 20
209.66077000000001
 11
192.879873
 21
209.87727699999999
  0
LINE
  8
_0-2_0-10
  6
CONTINUOUS
 62
    7
 10
192.504873
 20
208.794745
 11
192.879873
 21
209.01125099999998
  0
LINE
  8
_0-2_0-10
  6
CONTINUOUS
 62
    7
 10
192.504873
 20
207.928719
 11
192.879873
 21
208.145226
  0
LINE
  8
_0-2_0-10
  6
CONTINUOUS
 62
    7
 10
192.504873
 20
207.06269399999999
 11
192.879873
 21
207.2792
  0
LINE
  8
_0-2_0-10
  6
CONTINUOUS
 62
    7
 10
192.504873
 20
206.19666900000001
 11
192.879873
 21
206.41317499999999
  0
LINE
  8
_0-2_0-10
  6
CONTINUOUS
 62
    7
 10
192.504873
 20
205.330643
 11
192.879873
 21
205.54714999999998
  0
LINE
  8
_0-2_0-10
  6
CONTINUOUS
 62
    7
 10
192.504873
 20
204.464618
 11
192.879873
 21
204.68112400000001
  0
LINE
  8
_0-2_0-10
  6
CONTINUOUS
 62
    7
 10
192.504873
 20
203.59859199999999
 11
192.879873
 21
203.815099
  0
LINE
  8
_0-2_0-10
  6
CONTINUOUS
 62
    7
 10
192.504873
 20
202.73256699999998
 11
192.879873
 21
202.94907299999999
  0
LINE
  8
_0-2_0-10
  6
CONTINUOUS
 62
    7
 10
192.504873
 20
201.866542
 11
192.879873
 21
202.08304799999999
  0
LINE
  8
_0-2_0-10
  6
CONTINUOUS
 62
    7
 10
192.504873
 20
201.000516
 11
192.879873
 21
201.21702300000001
  0
LINE
  8
_0-2_0-10
  6
CONTINUOUS
 62
    7
 10
192.504873
 20
200.13449099999999
 11
192.879873
 21
200.350997
  0
LINE
  8
_0-2_0-10
  6
CONTINUOUS
 62
    7
 10
192.504873
 20
199.26846499999999
 11
192.879873
 21
199.48497199999999
  0
LINE
  8
_0-2_0-10
  6
CONTINUOUS
 62
    7
 10
192.504873
 20
198.40244000000001
 11
192.879873
 21
198.61894599999999
  0
LINE
  8
_0-2_0-10
  6
CONTINUOUS
 62
    7
 10
192.504873
 20
197.536415
 11
192.879873
 21
197.75292099999998
  0
LINE
  8
_0-2_0-10
  6
CONTINUOUS
 62
    7
 10
192.504873
 20
196.670389
 11
192.879873
 21
196.886896
  0
LINE
  8
_0-2_0-10
  6
CONTINUOUS
 62
    7
 10
192.504873
 20
195.8043639999999
 11
192.879873
 21
196.02087
  0
LINE
  8
_0-2_0-10
  6
CONTINUOUS
 62
    7
 10
192.504873
 20
194.93833799999998
 11
192.879873
 21
195.15484499999999
  0
LINE
  8
_0-2_0-10
  6
CONTINUOUS
 62
    7
 10
192.504873
 20
194.072313
 11
192.879873
 21
194.28881899999998
  0
LINE
  8
_0-2_0-10
  6
CONTINUOUS
 62
    7
 10
192.504873
 20
193.206288
 11
192.879873
 21
193.42279400000001
  0
LINE
  8
_0-2_0-10
  6
CONTINUOUS
 62
    7
 10
192.504873
 20
192.34026199999999
 11
192.879873
 21
192.556769
  0
LINE
  8
_0-2_0-10
  6
CONTINUOUS
 62
    7
 10
192.504873
 20
191.47423699999998
 11
192.879873
 21
191.69074299999999
  0
LINE
  8
_0-2_0-10
  6
CONTINUOUS
 62
    7
 10
192.504873
 20
190.60821100000001
 11
192.879873
 21
190.82471799999999
  0
LINE
  8
_0-2_0-10
  6
CONTINUOUS
 62
    7
 10
192.504873
 20
189.742186
 11
192.879873
 21
189.95869200000001
  0
LINE
  8
_0-2_0-10
  6
CONTINUOUS
 62
    7
 10
192.504873
 20
188.87616099999999
 11
192.879873
 21
189.092667
  0
LINE
  8
_0-2_0-10
  6
CONTINUOUS
 62
    7
 10
192.504873
 20
188.01013499999999
 11
192.879873
 21
188.22664199999999
  0
LINE
  8
_0-2_0-10
  6
CONTINUOUS
 62
    7
 10
192.504873
 20
187.14411000000001
 11
192.879873
 21
187.36061599999999
  0
LINE
  8
_0-2_0-10
  6
CONTINUOUS
 62
    7
 10
192.504873
 20
186.278084
 11
192.879873
 21
186.49459100000001
  0
LINE
  8
_0-2_0-10
  6
CONTINUOUS
 62
    7
 10
192.504873
 20
185.41205899999999
 11
192.879873
 21
185.628565
  0
LINE
  8
_0-2_0-10
  6
CONTINUOUS
 62
    7
 10
192.504873
 20
184.54603399999999
 11
192.879873
 21
184.76254
  0
LINE
  8
_0-2_0-10
  6
CONTINUOUS
 62
    7
 10
192.504873
 20
183.68000799999998
 11
192.879873
 21
183.89651499999999
  0
LINE
  8
_0-2_0-10
  6
CONTINUOUS
 62
    7
 10
192.504873
 20
182.813983
 11
192.879873
 21
183.03048899999998
  0
LINE
  8
_0-2_0-10
  6
CONTINUOUS
 62
    7
 10
192.504873
 20
181.947957
 11
192.879873
 21
182.164464
  0
LINE
  8
_0-2_0-10
  6
CONTINUOUS
 62
    7
 10
192.504873
 20
181.08193199999999
 11
192.879873
 21
181.298438
  0
LINE
  8
_0-2_0-10
  6
CONTINUOUS
 62
    7
 10
192.504873
 20
180.21590699999998
 11
192.879873
 21
180.43241299999999
  0
LINE
  8
_0-2_0-10
  6
CONTINUOUS
 62
    7
 10
192.504873
 20
179.34988100000001
 11
192.879873
 21
179.56638699999999
  0
LINE
  8
_0-2_0-10
  6
CONTINUOUS
 62
    7
 10
192.504873
 20
178.483856
 11
192.879873
 21
178.70036200000001
  0
LINE
  8
_0-2_0-10
  6
CONTINUOUS
 62
    7
 10
192.504873
 20
177.61782999999999
 11
192.879873
 21
177.834337
  0
LINE
  8
_0-2_0-10
  6
CONTINUOUS
 62
    7
 10
192.504873
 20
176.75180499999999
 11
192.879873
 21
176.96831099999999
  0
LINE
  8
_0-2_0-10
  6
CONTINUOUS
 62
    7
 10
192.504873
 20
175.88578000000001
 11
192.879873
 21
176.10228599999999
  0
LINE
  8
_0-2_0-10
  6
CONTINUOUS
 62
    7
 10
192.504873
 20
175.019754
 11
192.879873
 21
175.23625999999998
  0
LINE
  8
_0-2_0-10
  6
CONTINUOUS
 62
    7
 10
192.504873
 20
174.15372899999999
 11
192.879873
 21
174.370235
  0
LINE
  8
_0-2_0-10
  6
CONTINUOUS
 62
    7
 10
192.504873
 20
173.28770299999999
 11
192.879873
 21
173.50421
  0
LINE
  8
_0-2_0-10
  6
CONTINUOUS
 62
    7
 10
192.504873
 20
172.42167800000001
 11
192.879873
 21
172.63818399999999
  0
LINE
  8
_0-2_0-10
  6
CONTINUOUS
 62
    7
 10
192.504873
 20
171.555653
 11
192.879873
 21
171.77215899999998
  0
LINE
  8
_0-2_0-10
  6
CONTINUOUS
 62
    7
 10
192.504873
 20
170.689627
 11
192.879873
 21
170.90613300000001
  0
LINE
  8
_0-2_0-10
  6
CONTINUOUS
 62
    7
 10
192.504873
 20
169.82360199999999
 11
192.879873
 21
170.040108
  0
LINE
  8
_0-2_0-10
  6
CONTINUOUS
 62
    7
 10
192.504873
 20
168.95757599999998
 11
192.879873
 21
169.17408299999999
  0
LINE
  8
_0-2_0-10
  6
CONTINUOUS
 62
    7
 10
192.504873
 20
168.091551
 11
192.879873
 21
168.30805699999999
  0
LINE
  8
_0-2_0-10
  6
CONTINUOUS
 62
    7
 10
192.504873
 20
167.225525
 11
192.879873
 21
167.44203200000001
  0
LINE
  8
_0-2_0-10
  6
CONTINUOUS
 62
    7
 10
192.504873
 20
166.35949999999999
 11
192.879873
 21
166.576006
  0
LINE
  8
_0-2_0-10
  6
CONTINUOUS
 62
    7
 10
192.504873
 20
165.49347499999998
 11
192.879873
 21
165.70998099999999
  0
LINE
  8
_0-2_0-10
  6
CONTINUOUS
 62
    7
 10
192.504873
 20
164.62744900000001
 11
192.879873
 21
164.84395599999999
  0
LINE
  8
_0-2_0-10
  6
CONTINUOUS
 62
    7
 10
192.504873
 20
163.761424
 11
192.879873
 21
163.97792999999998
  0
LINE
  8
_0-2_0-10
  6
CONTINUOUS
 62
    7
 10
192.504873
 20
162.895398
 11
192.879873
 21
163.111905
  0
LINE
  8
_0-2_0-10
  6
CONTINUOUS
 62
    7
 10
192.504873
 20
162.02937299999999
 11
192.879873
 21
162.245879
  0
LINE
  8
_0-2_0-10
  6
CONTINUOUS
 62
    7
 10
192.504873
 20
161.16334800000001
 11
192.879873
 21
161.37985399999999
  0
LINE
  8
_0-2_0-10
  6
CONTINUOUS
 62
    7
 10
192.504873
 20
160.297322
 11
192.879873
 21
160.51382899999998
  0
LINE
  8
_0-2_0-10
  6
CONTINUOUS
 62
    7
 10
192.504873
 20
159.431297
 11
192.879873
 21
159.64780300000001
  0
LINE
  8
_0-2_0-10
  6
CONTINUOUS
 62
    7
 10
192.504873
 20
158.56527099999999
 11
192.879873
 21
158.781778
  0
LINE
  8
_0-2_0-10
  6
CONTINUOUS
 62
    7
 10
192.504873
 20
157.69924599999998
 11
192.879873
 21
157.91575199999999
  0
LINE
  8
_0-2_0-10
  6
CONTINUOUS
 62
    7
 10
192.504873
 20
156.833221
 11
192.879873
 21
157.04972699999999
  0
LINE
  8
_0-2_0-10
  6
CONTINUOUS
 62
    7
 10
192.504873
 20
155.967195
 11
192.879873
 21
156.18370200000001
  0
LINE
  8
_0-2_0-10
  6
CONTINUOUS
 62
    7
 10
192.504873
 20
155.10116999999999
 11
192.879873
 21
155.317676
  0
LINE
  8
_0-2_0-10
  6
CONTINUOUS
 62
    7
 10
192.504873
 20
154.23514399999999
 11
192.879873
 21
154.45165099999999
  0
LINE
  8
_0-2_0-10
  6
CONTINUOUS
 62
    7
 10
192.504873
 20
153.36911900000001
 11
192.879873
 21
153.58562499999999
  0
LINE
  8
_0-2_0-10
  6
CONTINUOUS
 62
    7
 10
192.504873
 20
152.503094
 11
192.879873
 21
152.71960000000001
  0
LINE
  8
_0-2_0-10
  6
CONTINUOUS
 62
    7
 10
192.504873
 20
151.63706799999999
 11
192.879873
 21
151.853575
  0
LINE
  8
_0-2_0-10
  6
CONTINUOUS
 62
    7
 10
192.504873
 20
150.77104299999999
 11
192.879873
 21
150.987549
  0
LINE
  8
_0-2_0-10
  6
CONTINUOUS
 62
    7
 10
192.504873
 20
149.90501699999998
 11
192.879873
 21
150.12152399999999
  0
LINE
  8
_0-2_0-10
  6
CONTINUOUS
 62
    7
 10
192.504873
 20
149.038992
 11
192.879873
 21
149.25549799999998
  0
LINE
  8
_0-2_0-10
  6
CONTINUOUS
 62
    7
 10
192.504873
 20
148.17296699999999
 11
192.879873
 21
148.389473
  0
LINE
  8
_0-2_0-10
  6
CONTINUOUS
 62
    7
 10
192.504873
 20
147.30694099999999
 11
192.879873
 21
147.523448
  0
LINE
  8
_0-2_0-10
  6
CONTINUOUS
 62
    7
 10
192.504873
 20
146.44091599999998
 11
192.879873
 21
146.65742199999999
  0
LINE
  8
_0-2_0-10
  6
CONTINUOUS
 62
    7
 10
192.504873
 20
145.57489000000001
 11
192.879873
 21
145.79139699999998
  0
LINE
  8
_0-2_0-10
  6
CONTINUOUS
 62
    7
 10
192.504873
 20
144.708865
 11
192.879873
 21
144.92537100000001
  0
LINE
  8
_0-2_0-10
  6
CONTINUOUS
 62
    7
 10
192.504873
 20
143.84283999999999
 11
192.879873
 21
144.059346
  0
LINE
  8
_0-2_0-10
  6
CONTINUOUS
 62
    7
 10
192.504873
 20
142.97681399999999
 11
192.879873
 21
143.19332099999999
  0
LINE
  8
_0-2_0-10
  6
CONTINUOUS
 62
    7
 10
192.504873
 20
142.11078900000001
 11
192.879873
 21
142.32729499999999
  0
LINE
  8
_0-2_0-10
  6
CONTINUOUS
 62
    7
 10
192.504873
 20
141.244763
 11
192.879873
 21
141.46127000000001
  0
LINE
  8
_0-2_0-10
  6
CONTINUOUS
 62
    7
 10
192.504873
 20
140.37873799999999
 11
192.879873
 21
140.595244
  0
LINE
  8
_0-2_0-10
  6
CONTINUOUS
 62
    7
 10
192.504873
 20
139.51271299999999
 11
192.879873
 21
139.729219
  0
LINE
  8
_0-2_0-10
  6
CONTINUOUS
 62
    7
 10
192.504873
 20
138.64668699999998
 11
192.879873
 21
138.86319399999999
  0
LINE
  8
_0-2_0-10
  6
CONTINUOUS
 62
    7
 10
192.504873
 20
137.780662
 11
192.879873
 21
137.99716799999998
  0
LINE
  8
_0-2_0-10
  6
CONTINUOUS
 62
    7
 10
192.504873
 20
136.914636
 11
192.879873
 21
137.131143
  0
LINE
  8
_0-2_0-10
  6
CONTINUOUS
 62
    7
 10
192.504873
 20
136.04861099999999
 11
192.879873
 21
136.265117
  0
LINE
  8
_0-2_0-10
  6
CONTINUOUS
 62
    7
 10
192.504873
 20
135.18258599999998
 11
192.879873
 21
135.39909199999999
  0
LINE
  8
_0-2_0-10
  6
CONTINUOUS
 62
    7
 10
192.504873
 20
134.31656
 11
192.879873
 21
134.53306599999999
  0
LINE
  8
_0-2_0-10
  6
CONTINUOUS
 62
    7
 10
192.504873
 20
133.450535
 11
192.879873
 21
133.66704100000001
  0
LINE
  8
_0-2_0-10
  6
CONTINUOUS
 62
    7
 10
192.504873
 20
132.58450899999999
 11
192.879873
 21
132.801016
  0
LINE
  8
_0-2_0-10
  6
CONTINUOUS
 62
    7
 10
192.504873
 20
131.71848399999998
 11
192.879873
 21
131.93498999999999
  0
LINE
  8
_0-2_0-10
  6
CONTINUOUS
 62
    7
 10
192.504873
 20
130.85245900000001
 11
192.879873
 21
131.06896499999999
  0
LINE
  8
_0-2_0-10
  6
CONTINUOUS
 62
    7
 10
192.504873
 20
129.986433
 11
192.879873
 21
130.20293899999998
  0
LINE
  8
_0-2_0-10
  6
CONTINUOUS
 62
    7
 10
192.504873
 20
129.12040799999999
 11
192.879873
 21
129.336914
  0
LINE
  8
_0-2_0-10
  6
CONTINUOUS
 62
    7
 10
192.504873
 20
128.25438199999999
 11
192.879873
 21
128.47088899999999
  0
LINE
  8
_0-2_0-10
  6
CONTINUOUS
 62
    7
 10
192.504873
 20
127.38835699999999
 11
192.879873
 21
127.60486299999999
  0
LINE
  8
_0-2_0-10
  6
CONTINUOUS
 62
    7
 10
192.504873
 20
126.522332
 11
192.879873
 21
126.738838
  0
LINE
  8
_0-2_0-10
  6
CONTINUOUS
 62
    7
 10
192.504873
 20
125.656306
 11
192.879873
 21
125.87281199999999
  0
LINE
  8
_0-2_0-10
  6
CONTINUOUS
 62
    7
 10
192.504873
 20
124.79028099999999
 11
192.879873
 21
125.006787
  0
LINE
  8
_0-2_0-10
  6
CONTINUOUS
 62
    7
 10
192.504873
 20
123.924255
 11
192.879873
 21
124.14076199999999
  0
LINE
  8
_0-2_0-10
  6
CONTINUOUS
 62
    7
 10
192.504873
 20
123.05822999999999
 11
192.879873
 21
123.274736
  0
LINE
  8
_0-2_0-10
  6
CONTINUOUS
 62
    7
 10
192.504873
 20
122.192204
 11
192.879873
 21
122.40871099999999
  0
LINE
  8
_0-2_0-10
  6
CONTINUOUS
 62
    7
 10
192.504873
 20
121.32617899999999
 11
192.879873
 21
121.542685
  0
LINE
  8
_0-2_0-10
  6
CONTINUOUS
 62
    7
 10
192.504873
 20
120.460154
 11
192.879873
 21
120.67665999999999
  0
ENDBLK
  0
BLOCK
  2
-001-EDTIP_ARROW_S
 70
   64
 10
0
 20
0
 30
0
  0
LINE
  8
_0-0_0
  6
CONTINUOUS
 62
    7
 10
0
 20
0
 11
-1
 21
0
  0
LINE
  8
_0-0_0
  6
CONTINUOUS
 62
    7
 10
0
 20
0
 11
-0.9659259999999999
 21
0.258819
  0
LINE
  8
_0-0_0
  6
CONTINUOUS
 62
    7
 10
0
 20
0
 11
-0.9659259999999999
 21
-0.258819
  0
ENDBLK
  0
BLOCK
  2
-002-EDTIP_ARROW_E
 70
   64
 10
0
 20
0
 30
0
  0
LINE
  8
_0-0_0
  6
CONTINUOUS
 62
    7
 10
0
 20
0
 11
-1
 21
0
  0
LINE
  8
_0-0_0
  6
CONTINUOUS
 62
    7
 10
0
 20
0
 11
-0.9659259999999999
 21
-0.258819
  0
LINE
  8
_0-0_0
  6
CONTINUOUS
 62
    7
 10
0
 20
0
 11
-0.9659259999999999
 21
0.258819
  0
ENDBLK
  0
BLOCK
  2
-003-_D1
 70
   64
 10
0
 20
0
 30
0
  0
LINE
  8
_0-0_0
  6
CONTINUOUS
 62
    7
 10
244.6271435221106
 20
236.04474490109708
 11
233.57502652211169
 21
236.04474490109708
  0
LINE
  8
_0-0_0
  6
CONTINUOUS
 62
    7
 10
244.6271435221106
 20
86.044744901097004
 11
233.57502652211169
 21
86.044744901097004
  0
LINE
  8
_0-0_0
  6
CONTINUOUS
 62
    7
 10
234.57502652211161
 20
233.04474490109708
 11
234.57502652211169
 21
89.044744901097004
  0
INSERT
  2
-001-EDTIP_ARROW_S
  8
_0-0_0
 10
234.57502652211161
 20
236.04474490109708
 41
3
 42
3
 50
90
  0
INSERT
  2
-002-EDTIP_ARROW_E
  8
_0-0_0
 10
234.57502652211169
 20
86.044744901097004
 41
3
 42
3
 50
270
  0
TEXT
  8
_0-0_0
 62
    7
 10
234.07502652211161
 20
158.79474490109689
 40
3
 41
1
 50
90
  1
150
  0
POINT
  8
_0-4_Defpoints
 62
    7
 10
245.6271435221106
 20
236.04474490109708
  0
POINT
  8
_0-4_Defpoints
 62
    7
 10
245.6271435221106
 20
86.044744901097004
  0
POINT
  8
_0-4_Defpoints
 62
    7
 10
234.57502652211169
 20
86.044744901097004
  0
ENDBLK
  0
BLOCK
  2
-004-_D4
 70
   64
 10
0
 20
0
 30
0
  0
LINE
  8
_0-0_0
  6
CONTINUOUS
 62
    7
 10
245.62714352211048
 20
237.044744901097
 11
245.62714352211048
 21
248.18551156776359
  0
LINE
  8
_0-0_0
  6
CONTINUOUS
 62
    7
 10
303.14094885544392
 20
237.044744901097
 11
303.14094885544392
 21
248.18551156776359
  0
LINE
  8
_0-0_0
  6
CONTINUOUS
 62
    7
 10
248.62714352211048
 20
247.18551156776359
 11
300.14094885544392
 21
247.18551156776359
  0
INSERT
  2
-001-EDTIP_ARROW_S
  8
_0-0_0
 10
245.62714352211048
 20
247.18551156776359
 41
3
 42
3
 50
180
  0
INSERT
  2
-002-EDTIP_ARROW_E
  8
_0-0_0
 10
303.14094885544392
 20
247.18551156776359
 41
3
 42
3
 50
0
  0
TEXT
  8
_0-0_0
 62
    7
 10
272.88404618877717
 20
247.68551156776359
 40
3
 41
1
 50
0
  1
58
  0
POINT
  8
_0-4_Defpoints
 62
    7
 10
245.62714352211048
 20
236.044744901097
  0
POINT
  8
_0-4_Defpoints
 62
    7
 10
303.14094885544392
 20
236.044744901097
  0
POINT
  8
_0-4_Defpoints
 62
    7
 10
303.14094885544392
 20
247.18551156776359
  0
ENDBLK
  0
BLOCK
  2
-005-_D5
 70
   64
 10
0
 20
0
 30
0
  0
LINE
  8
_0-0_0
  6
CONTINUOUS
 62
    7
 10
303.14094885544392
 20
237.044744901097
 11
303.14094885544392
 21
248.17884490109599
  0
LINE
  8
_0-0_0
  6
CONTINUOUS
 62
    7
 10
355.94094885544382
 20
237.044744901097
 11
355.94094885544382
 21
248.17884490109599
  0
LINE
  8
_0-0_0
  6
CONTINUOUS
 62
    7
 10
306.14094885544392
 20
247.17884490109599
 11
352.94094885544382
 21
247.17884490109599
  0
INSERT
  2
-001-EDTIP_ARROW_S
  8
_0-0_0
 10
303.14094885544392
 20
247.17884490109599
 41
3
 42
3
 50
180
  0
INSERT
  2
-002-EDTIP_ARROW_E
  8
_0-0_0
 10
355.94094885544382
 20
247.17884490109599
 41
3
 42
3
 50
0
  0
TEXT
  8
_0-0_0
 62
    7
 10
328.04094885544378
 20
247.67884490109599
 40
3
 41
1
 50
0
  1
53
  0
POINT
  8
_0-4_Defpoints
 62
    7
 10
303.14094885544392
 20
236.044744901097
  0
POINT
  8
_0-4_Defpoints
 62
    7
 10
355.94094885544382
 20
236.04474490109689
  0
POINT
  8
_0-4_Defpoints
 62
    7
 10
355.94094885544382
 20
247.17884490109599
  0
ENDBLK
  0
BLOCK
  2
-006-_D6
 70
   64
 10
0
 20
0
 30
0
  0
LINE
  8
_0-0_0
  6
CONTINUOUS
 62
    7
 10
303.14094885544392
 20
237.044744901097
 11
303.14094885544392
 21
242.61179490109648
  0
LINE
  8
_0-0_0
  6
CONTINUOUS
 62
    7
 10
347.9409488554437
 20
237.044744901097
 11
347.9409488554437
 21
242.61179490109648
  0
LINE
  8
_0-0_0
  6
CONTINUOUS
 62
    7
 10
306.14094885544392
 20
241.61179490109648
 11
344.9409488554437
 21
241.61179490109648
  0
INSERT
  2
-001-EDTIP_ARROW_S
  8
_0-0_0
 10
303.14094885544392
 20
241.61179490109648
 41
3
 42
3
 50
180
  0
INSERT
  2
-002-EDTIP_ARROW_E
  8
_0-0_0
 10
347.9409488554437
 20
241.61179490109648
 41
3
 42
3
 50
0
  0
TEXT
  8
_0-0_0
 62
    7
 10
324.04094885544378
 20
242.11179490109648
 40
3
 41
1
 50
0
  1
45
  0
POINT
  8
_0-4_Defpoints
 62
    7
 10
303.14094885544392
 20
236.044744901097
  0
POINT
  8
_0-4_Defpoints
 62
    7
 10
347.9409488554437
 20
236.044744901097
  0
POINT
  8
_0-4_Defpoints
 62
    7
 10
347.9409488554437
 20
241.61179490109648
  0
ENDBLK
  0
BLOCK
  2
-007-_D7
 70
   64
 10
0
 20
0
 30
0
  0
LINE
  8
_0-0_0
  6
CONTINUOUS
 62
    7
 10
304.14094885544398
 20
236.04474490109708
 11
365.99347672904809
 21
236.04474490109708
  0
LINE
  8
_0-0_0
  6
CONTINUOUS
 62
    7
 10
304.14094885544398
 20
212.54474490109708
 11
365.99347672904809
 21
212.54474490109708
  0
LINE
  8
_0-0_0
  6
CONTINUOUS
 62
    7
 10
364.99347672904809
 20
233.04474490109708
 11
364.99347672904809
 21
215.54474490109708
  0
INSERT
  2
-001-EDTIP_ARROW_S
  8
_0-0_0
 10
364.99347672904809
 20
236.04474490109708
 41
3
 42
3
 50
90
  0
INSERT
  2
-002-EDTIP_ARROW_E
  8
_0-0_0
 10
364.99347672904809
 20
212.54474490109708
 41
3
 42
3
 50
270
  0
TEXT
  8
_0-0_0
 62
    7
 10
364.49347672904809
 20
222.79474490109689
 40
3
 41
1
 50
90
  1
24
  0
POINT
  8
_0-4_Defpoints
 62
    7
 10
303.14094885544398
 20
236.04474490109708
  0
POINT
  8
_0-4_Defpoints
 62
    7
 10
303.14094885544398
 20
212.54474490109708
  0
POINT
  8
_0-4_Defpoints
 62
    7
 10
364.99347672904809
 20
212.54474490109708
  0
ENDBLK
  0
BLOCK
  2
-008-_D8
 70
   64
 10
0
 20
0
 30
0
  0
LINE
  8
_0-0_0
  6
CONTINUOUS
 62
    7
 10
345.60761552211062
 20
115.5380782344304
 11
365.9885355221121
 21
115.5380782344304
  0
LINE
  8
_0-0_0
  6
CONTINUOUS
 62
    7
 10
345.6009488554439
 20
212.5447449010972
 11
365.9885355221121
 21
212.5447449010972
  0
LINE
  8
_0-0_0
  6
CONTINUOUS
 62
    7
 10
364.98853552211221
 20
118.5380782344304
 11
364.9885355221121
 21
209.5447449010972
  0
INSERT
  2
-001-EDTIP_ARROW_S
  8
_0-0_0
 10
364.98853552211221
 20
115.5380782344304
 41
3
 42
3
 50
270
  0
INSERT
  2
-002-EDTIP_ARROW_E
  8
_0-0_0
 10
364.9885355221121
 20
212.5447449010972
 41
3
 42
3
 50
90
  0
TEXT
  8
_0-0_0
 62
    7
 10
364.4885355221121
 20
162.54141156776358
 40
3
 41
1
 50
90
  1
97
  0
POINT
  8
_0-4_Defpoints
 62
    7
 10
344.60761552211062
 20
115.5380782344304
  0
POINT
  8
_0-4_Defpoints
 62
    7
 10
344.6009488554439
 20
212.5447449010972
  0
POINT
  8
_0-4_Defpoints
 62
    7
 10
364.9885355221121
 20
212.5447449010972
  0
ENDBLK
  0
BLOCK
  2
-009-_D9
 70
   64
 10
0
 20
0
 30
0
  0
LINE
  8
_0-0_0
  6
CONTINUOUS
 62
    7
 10
288.14094885544392
 20
73.295770234430307
 11
288.14094885544392
 21
60.509867567763627
  0
LINE
  8
_0-0_0
  6
CONTINUOUS
 62
    7
 10
303.14094885544392
 20
88.122436901096989
 11
303.14094885544392
 21
60.509867567763627
  0
LINE
  8
_0-0_0
  6
CONTINUOUS
 62
    7
 10
291.1409488554438
 20
61.50986756776362
 11
300.14094885544392
 21
61.50986756776362
  0
INSERT
  2
-001-EDTIP_ARROW_S
  8
_0-0_0
 10
288.14094885544392
 20
61.50986756776362
 41
3
 42
3
 50
180
  0
INSERT
  2
-002-EDTIP_ARROW_E
  8
_0-0_0
 10
303.14094885544392
 20
61.50986756776362
 41
3
 42
3
 50
0
  0
TEXT
  8
_0-0_0
 62
    7
 10
294.1409488554438
 20
62.009867567763627
 40
3
 41
1
 50
0
  1
15
  0
POINT
  8
_0-4_Defpoints
 62
    7
 10
288.14094885544392
 20
74.295770234430293
  0
POINT
  8
_0-4_Defpoints
 62
    7
 10
303.14094885544392
 20
89.122436901096989
  0
POINT
  8
_0-4_Defpoints
 62
    7
 10
303.14094885544392
 20
61.50986756776362
  0
ENDBLK
  0
BLOCK
  2
-010-_D10
 70
   64
 10
0
 20
0
 30
0
  0
LINE
  8
_0-0_0
  6
CONTINUOUS
 62
    7
 10
40.924971522110439
 20
236.04474490109708
 11
16.993760855443749
 21
236.04474490109708
  0
LINE
  8
_0-0_0
  6
CONTINUOUS
 62
    7
 10
34.92497152211046
 20
74.295770234430335
 11
16.993760855443788
 21
74.295770234430321
  0
LINE
  8
_0-0_0
  6
CONTINUOUS
 62
    7
 10
17.993760855443749
 20
233.04474490109708
 11
17.993760855443788
 21
77.295770234430321
  0
INSERT
  2
-001-EDTIP_ARROW_S
  8
_0-0_0
 10
17.993760855443749
 20
236.04474490109708
 41
3
 42
3
 50
90
  0
INSERT
  2
-002-EDTIP_ARROW_E
  8
_0-0_0
 10
17.993760855443788
 20
74.295770234430321
 41
3
 42
3
 50
270
  0
TEXT
  8
_0-0_0
 62
    7
 10
17.493760855443809
 20
152.92025756776359
 40
3
 41
1
 50
90
  1
162
  0
POINT
  8
_0-4_Defpoints
 62
    7
 10
41.924971522110439
 20
236.04474490109708
  0
POINT
  8
_0-4_Defpoints
 62
    7
 10
35.924971522110446
 20
74.295770234430335
  0
POINT
  8
_0-4_Defpoints
 62
    7
 10
17.993760855443788
 20
74.295770234430321
  0
ENDBLK
  0
BLOCK
  2
-011-_D11
 70
   64
 10
0
 20
0
 30
0
  0
LINE
  8
_0-0_0
  6
CONTINUOUS
 62
    7
 10
35.924971522110439
 20
77.567710234430307
 11
35.924971522110439
 21
60.509867567763642
  0
LINE
  8
_0-0_0
  6
CONTINUOUS
 62
    7
 10
191.9250076520226
 20
77.567710800033268
 11
191.9250076520226
 21
60.509867567763642
  0
LINE
  8
_0-0_0
  6
CONTINUOUS
 62
    7
 10
38.924971522110439
 20
61.509867567763642
 11
188.9250076520226
 21
61.509867567763642
  0
INSERT
  2
-001-EDTIP_ARROW_S
  8
_0-0_0
 10
35.924971522110439
 20
61.509867567763642
 41
3
 42
3
 50
180
  0
INSERT
  2
-002-EDTIP_ARROW_E
  8
_0-0_0
 10
191.9250076520226
 20
61.509867567763642
 41
3
 42
3
 50
0
  0
TEXT
  8
_0-0_0
 62
    7
 10
111.6749895870665
 20
62.009867567763642
 40
3
 41
1
 50
0
  1
156
  0
POINT
  8
_0-4_Defpoints
 62
    7
 10
35.924971522110439
 20
78.567710234430293
  0
POINT
  8
_0-4_Defpoints
 62
    7
 10
191.9250076520226
 20
78.567710800033253
  0
POINT
  8
_0-4_Defpoints
 62
    7
 10
191.9250076520226
 20
61.509867567763642
  0
ENDBLK
  0
BLOCK
  2
-012-_D12
 70
   64
 10
0
 20
0
 30
0
  0
LINE
  8
_0-0_0
  6
CONTINUOUS
 62
    7
 10
41.924971522110418
 20
237.044744901097
 11
41.924971522110418
 21
248.1788449010979
  0
LINE
  8
_0-0_0
  6
CONTINUOUS
 62
    7
 10
185.92497152211041
 20
237.044744901097
 11
185.92497152211041
 21
248.1788449010979
  0
LINE
  8
_0-0_0
  6
CONTINUOUS
 62
    7
 10
44.924971522110432
 20
247.1788449010979
 11
182.92497152211041
 21
247.1788449010979
  0
INSERT
  2
-001-EDTIP_ARROW_S
  8
_0-0_0
 10
41.924971522110418
 20
247.1788449010979
 41
3
 42
3
 50
180
  0
INSERT
  2
-002-EDTIP_ARROW_E
  8
_0-0_0
 10
185.92497152211041
 20
247.1788449010979
 41
3
 42
3
 50
0
  0
TEXT
  8
_0-0_0
 62
    7
 10
111.67497152211039
 20
247.6788449010979
 40
3
 41
1
 50
0
  1
144
  0
POINT
  8
_0-4_Defpoints
 62
    7
 10
41.924971522110418
 20
236.044744901097
  0
POINT
  8
_0-4_Defpoints
 62
    7
 10
185.92497152211041
 20
236.04474490109689
  0
POINT
  8
_0-4_Defpoints
 62
    7
 10
185.92497152211041
 20
247.1788449010979
  0
ENDBLK
  0
ENDSEC
  0
SECTION
  2
ENTITIES
  0
LINE
  8
_0-2_0-10
  6
CONTINUOUS
 62
    4
 10
302.39094787639112
 20
88.795769542923295
 11
287.89094787639112
 21
74.295769542923281
  0
LINE
  8
_0-2_0-10
  6
CONTINUOUS
 62
    3
 10
6.9999980430582127
 20
290.49999861698597
 11
412.99999804305809
 21
290.49999861698597
  0
LINE
  8
_0-2_0-10
  6
CONTINUOUS
 62
    3
 10
209.99999804305821
 20
6.4999986169859766
 11
209.99999804305821
 21
8.4999986169859766
  0
LINE
  8
_0-2_0-10
  6
CONTINUOUS
 62
    3
 10
410.99999804305809
 20
148.49999861698597
 11
412.99999804305809
 21
148.49999861698597
  0
LINE
  8
_0-2_0-10
  6
CONTINUOUS
 62
    3
 10
412.99999804305809
 20
6.4999986169859766
 11
412.99999804305809
 21
290.49999861698597
  0
LINE
  8
_0-2_0-10
  6
CONTINUOUS
 62
    3
 10
6.9999980430582127
 20
6.4999986169859766
 11
6.9999980430582127
 21
290.49999861698597
  0
LINE
  8
_0-2_0-10
  6
CONTINUOUS
 62
    3
 10
6.9999980430582127
 20
148.49999861698597
 11
8.9999980430582127
 21
148.49999861698597
  0
LINE
  8
_0-2_0-10
  6
CONTINUOUS
 62
    3
 10
6.9999980430582127
 20
6.4999986169859766
 11
412.99999804305809
 21
6.4999986169859766
  0
LINE
  8
_0-2_0-10
  6
CONTINUOUS
 62
    3
 10
245.37714254305768
 20
236.04474420958999
 11
302.89094787639112
 21
236.04474420958999
  0
LINE
  8
_0-2_0-10
  6
CONTINUOUS
 62
    3
 10
245.37714254305768
 20
236.04474420958999
 11
245.37714254305768
 21
86.044744209589964
  0
LINE
  8
_0-2_0-10
  6
CONTINUOUS
 62
    5
 10
293.39094787639101
 20
235.54474420958999
 11
296.89094787639112
 21
235.54474420958999
  0
ARC
  8
_0-2_0-10
  6
CONTINUOUS
 62
    5
 10
297.39094787639101
 20
235.54474420958999
 40
0.5
 50
90
 51
180
  0
LINE
  8
_0-2_0-10
  6
CONTINUOUS
 62
    3
 10
245.8771425430576
 20
236.04474420958999
 11
245.8771425430576
 21
86.044744209589964
  0
LINE
  8
_0-2_0-10
  6
CONTINUOUS
 62
    3
 10
298.89094787639112
 20
86.044744209589964
 11
302.29094787639098
 21
89.444744209589941
  0
LINE
  8
_0-2_0-10
  6
CONTINUOUS
 62
    7
 10
284.0554918763911
 20
164.04474420958987
 11
356.36192120972441
 21
164.04474420958987
  0
ARC
  8
_0-2_0-10
  6
CONTINUOUS
 62
    6
 10
344.69094787639102
 20
209.54474420958999
 40
3
 50
0
 51
90
  0
ARC
  8
_0-2_0-10
  6
CONTINUOUS
 62
    6
 10
344.69094787639102
 20
118.54474420958999
 40
3
 50
270
 51
0
  0
LINE
  8
_0-2_0-10
  6
CONTINUOUS
 62
    6
 10
344.69094787639102
 20
115.54474420958999
 11
301.69094787639102
 21
115.54474420958999
  0
LINE
  8
_0-2_0-10
  6
CONTINUOUS
 62
    6
 10
301.69094787639102
 20
212.54474420958999
 11
344.69094787639102
 21
212.54474420958999
  0
LINE
  8
_0-2_0-10
  6
CONTINUOUS
 62
    6
 10
297.19094787639102
 20
224.34474420958997
 11
297.19094787639102
 21
103.74474420958988
  0
LINE
  8
_0-2_0-10
  6
CONTINUOUS
 62
    6
 10
297.69094787639102
 20
224.34474420958997
 11
297.69094787639102
 21
216.54474420958999
  0
ARC
  8
_0-2_0-10
  6
CONTINUOUS
 62
    6
 10
301.69094787639102
 20
216.54474420958999
 40
4
 50
180
 51
270
  0
ARC
  8
_0-2_0-10
  6
CONTINUOUS
 62
    6
 10
301.69094787639102
 20
111.54474420958999
 40
4
 50
90
 51
180
  0
LINE
  8
_0-2_0-10
  6
CONTINUOUS
 62
    6
 10
297.69094787639102
 20
111.54474420958999
 11
297.69094787639102
 21
103.74474420958988
  0
LINE
  8
_0-2_0-10
  6
CONTINUOUS
 62
    6
 10
297.89094787639112
 20
235.04474420958999
 11
298.39094787639112
 21
235.04474420958999
  0
LINE
  8
_0-2_0-10
  6
CONTINUOUS
 62
    3
 10
245.37714254305768
 20
86.044744209589964
 11
298.89094787639112
 21
86.044744209589964
  0
LINE
  8
_0-2_0-10
  6
CONTINUOUS
 62
    3
 10
302.29094787639098
 20
91.231793542923313
 11
302.29094787639098
 21
89.444744209589941
  0
LINE
  8
_0-2_0-10
  6
CONTINUOUS
 62
    5
 10
296.89094787639112
 20
235.54474420958999
 11
296.89094787639112
 21
226.42840820958997
  0
LINE
  8
_0-2_0-10
  6
CONTINUOUS
 62
    5
 10
297.39094787639101
 20
226.04474420958999
 11
261.16872920972429
 21
216.33903087625668
  0
LINE
  8
_0-2_0-10
  6
CONTINUOUS
 62
    5
 10
297.39094787639101
 20
236.04474420958999
 11
302.89094787639112
 21
236.04474420958999
  0
LINE
  8
_0-2_0-10
  6
CONTINUOUS
 62
    5
 10
297.39094787639101
 20
235.54474420958999
 11
297.39094787639101
 21
225.34474420958997
  0
ARC
  8
_0-2_0-10
  6
CONTINUOUS
 62
    5
 10
296.89094787639112
 20
226.42840820958997
 40
0.5
 50
285
 51
0
  0
LINE
  8
_0-2_0-10
  6
CONTINUOUS
 62
    5
 10
260.55635587639102
 20
216.69258420958988
 11
259.39167054305772
 21
221.0392495429233
  0
LINE
  8
_0-2_0-10
  6
CONTINUOUS
 62
    5
 10
259.87463320972432
 20
221.16866020958988
 11
259.39167054305772
 21
221.0392495429233
  0
LINE
  8
_0-2_0-10
  6
CONTINUOUS
 62
    5
 10
261.03931987639089
 20
216.82199354292328
 11
259.87463320972432
 21
221.16866020958988
  0
LINE
  8
_0-2_0-10
  6
CONTINUOUS
 62
    5
 10
260.68576654305769
 20
216.46844020958999
 11
260.68576654305769
 21
212.11065220959
  0
LINE
  8
_0-2_0-10
  6
CONTINUOUS
 62
    5
 10
260.55635587639102
 20
212.33479620958999
 11
259.73241187639109
 21
215.40979754292328
  0
LINE
  8
_0-2_0-10
  6
CONTINUOUS
 62
    5
 10
259.39167054305772
 20
221.0392495429233
 11
259.39167054305772
 21
217.99798820958997
  0
LINE
  8
_0-2_0-10
  6
CONTINUOUS
 62
    5
 10
268.28376254305771
 20
213.51266687625658
 11
268.28376254305771
 21
213.3388388762566
  0
LINE
  8
_0-2_0-10
  6
CONTINUOUS
 62
    5
 10
267.65788120972439
 20
213.72000687625657
 11
261.16872920972429
 21
211.98124287625668
  0
LINE
  8
_0-2_0-10
  6
CONTINUOUS
 62
    5
 10
268.28376254305771
 20
213.3388388762566
 11
268.41317320972427
 21
212.85587620958989
  0
LINE
  8
_0-2_0-10
  6
CONTINUOUS
 62
    5
 10
268.41317320972427
 20
213.14045087625657
 11
268.41317320972427
 21
212.85587620958989
  0
ARC
  8
_0-2_0-10
  6
CONTINUOUS
 62
    5
 10
261.03931987639089
 20
212.46420554292328
 40
0.5
 50
194.99999999999985
 51
285
  0
ARC
  8
_0-2_0-10
  6
CONTINUOUS
 62
    5
 10
261.03931987639089
 20
216.82199354292328
 40
0.5
 50
194.99999999999985
 51
285
  0
LINE
  8
_0-2_0-10
  6
CONTINUOUS
 62
    5
 10
292.39094787639112
 20
234.54474420958999
 11
292.39094787639112
 21
225.22263620958997
  0
ARC
  8
_0-2_0-10
  6
CONTINUOUS
 62
    5
 10
267.81317320972431
 20
213.14045087625657
 40
0.5999999999999999
 50
0
 51
104.9999999999999
  0
ARC
  8
_0-2_0-10
  6
CONTINUOUS
 62
    5
 10
293.39094787639101
 20
234.54474420958999
 40
1
 50
90
 51
180
  0
ARC
  8
_0-2_0-10
  6
CONTINUOUS
 62
    5
 10
269.39167054305772
 20
217.99798820958997
 40
10
 50
180
 51
194.99999999999988
  0
LINE
  8
_0-2_0-10
  6
CONTINUOUS
 62
    5
 10
296.89094787639112
 20
226.42840820958997
 11
261.03931987639089
 21
216.82199354292328
  0
LINE
  8
_0-2_0-10
  6
CONTINUOUS
 62
    4
 10
297.39094787639101
 20
235.04474420958999
 11
297.39094787639101
 21
225.34474420958997
  0
LINE
  8
_0-2_0-10
  6
CONTINUOUS
 62
    4
 10
297.89094787639112
 20
235.54474420958999
 11
302.89094787639112
 21
235.54474420958999
  0
LINE
  8
_0-2_0-10
  6
CONTINUOUS
 62
    4
 10
297.89094787639112
 20
235.04474420958999
 11
302.89094787639112
 21
235.04474420958999
  0
ARC
  8
_0-2_0-10
  6
CONTINUOUS
 62
    4
 10
297.89094787639112
 20
235.04474420958999
 40
0.5
 50
90
 51
180
  0
LINE
  8
_0-2_0-10
  6
CONTINUOUS
 62
    4
 10
302.39094787639112
 20
91.204998876256638
 11
297.76153720972439
 21
92.445445542923295
  0
LINE
  8
_0-2_0-10
  6
CONTINUOUS
 62
    4
 10
302.5203572097244
 20
91.687961542923275
 11
297.89094787639112
 21
92.928408209589974
  0
LINE
  8
_0-2_0-10
  6
CONTINUOUS
 62
    4
 10
302.74450120972431
 20
88.442214876256628
 11
288.24450120972431
 21
73.942214876256628
  0
ARC
  8
_0-2_0-10
  6
CONTINUOUS
 62
    4
 10
297.89094787639112
 20
92.928408209589974
 40
0.5
 50
180
 51
255.00000000000011
  0
LINE
  8
_0-2_0-10
  6
CONTINUOUS
 62
    4
 10
293.27596254305768
 20
86.044744209589964
 11
291.10222387639112
 21
83.871006876256643
  0
ARC
  8
_0-2_0-10
  6
CONTINUOUS
 62
    4
 10
293.22354387639097
 20
81.749685542923316
 40
3
 50
135.00000000000011
 51
224.99999999999988
  0
LINE
  8
_0-2_0-10
  6
CONTINUOUS
 62
    4
 10
291.10222387639112
 20
79.62836554292329
 11
292.16288387639087
 21
78.567705542923306
  0
LINE
  8
_0-2_0-10
  6
CONTINUOUS
 62
    4
 10
296.69094787639102
 20
224.84474420958997
 11
296.69094787639102
 21
103.24474420958988
  0
LINE
  8
_0-2_0-10
  6
CONTINUOUS
 62
    4
 10
296.19094787639102
 20
103.24474420958988
 11
296.19094787639102
 21
119.48358154292328
  0
LINE
  8
_0-2_0-10
  6
CONTINUOUS
 62
    4
 10
302.89094787639112
 20
88.795769542923295
 11
302.89094787639112
 21
91.204998876256638
  0
LINE
  8
_0-2_0-10
  6
CONTINUOUS
 62
    4
 10
302.39094787639112
 20
88.795769542923295
 11
302.39094787639112
 21
91.204998876256638
  0
ARC
  8
_0-2_0-10
  6
CONTINUOUS
 62
    4
 10
302.39094787639112
 20
91.204998876256638
 40
0.5
 50
0
 51
75.000000000000056
  0
ARC
  8
_0-2_0-10
  6
CONTINUOUS
 62
    4
 10
302.39094787639112
 20
88.795769542923295
 40
0.5
 50
315.00000000000011
 51
0
  0
LINE
  8
_0-2_0-10
  6
CONTINUOUS
 62
    4
 10
288.24450120972431
 20
73.942214876256628
 11
287.89094787639112
 21
74.295769542923281
  0
LINE
  8
_0-2_0-10
  6
CONTINUOUS
 62
    4
 10
302.89094787639112
 20
235.54474420958999
 11
302.89094787639112
 21
235.04474420958999
  0
LINE
  8
_0-2_0-10
  6
CONTINUOUS
 62
    4
 10
288.433567876391
 20
211.50558687625658
 11
288.70588787639098
 21
211.08625220958998
  0
LINE
  8
_0-2_0-10
  6
CONTINUOUS
 62
    4
 10
296.19094787639102
 20
216.04474420958999
 11
292.6269212097244
 21
214.22878287625658
  0
LINE
  8
_0-2_0-10
  6
CONTINUOUS
 62
    4
 10
296.41794254305767
 20
215.59924154292329
 11
292.85391720972427
 21
213.7832788762567
  0
ARC
  8
_0-2_0-10
  6
CONTINUOUS
 62
    4
 10
296.19094787639102
 20
216.04474420958999
 40
0.5
 50
297.00000000000022
 51
0
  0
LINE
  8
_0-2_0-10
  6
CONTINUOUS
 62
    4
 10
292.6269212097244
 20
214.22878287625658
 11
288.433567876391
 21
211.50558687625658
  0
LINE
  8
_0-2_0-10
  6
CONTINUOUS
 62
    4
 10
292.89924120972438
 20
213.8094468762566
 11
288.70588787639098
 21
211.08625220958998
  0
LINE
  8
_0-2_0-10
  6
CONTINUOUS
 62
    4
 10
288.433567876391
 20
199.50558687625658
 11
288.70588787639098
 21
199.08625220958998
  0
LINE
  8
_0-2_0-10
  6
CONTINUOUS
 62
    4
 10
296.19094787639102
 20
204.04474420958999
 11
292.6269212097244
 21
202.22878287625658
  0
LINE
  8
_0-2_0-10
  6
CONTINUOUS
 62
    4
 10
296.41794254305767
 20
203.59924154292329
 11
292.85391720972427
 21
201.78327887625658
  0
ARC
  8
_0-2_0-10
  6
CONTINUOUS
 62
    4
 10
296.19094787639102
 20
204.04474420958999
 40
0.5
 50
297.00000000000022
 51
0
  0
LINE
  8
_0-2_0-10
  6
CONTINUOUS
 62
    4
 10
292.6269212097244
 20
202.22878287625658
 11
288.433567876391
 21
199.50558687625658
  0
LINE
  8
_0-2_0-10
  6
CONTINUOUS
 62
    4
 10
292.89924120972438
 20
201.8094468762566
 11
288.70588787639098
 21
199.08625220958998
  0
LINE
  8
_0-2_0-10
  6
CONTINUOUS
 62
    4
 10
288.433567876391
 20
187.50558687625658
 11
288.70588787639098
 21
187.0862522095899
  0
LINE
  8
_0-2_0-10
  6
CONTINUOUS
 62
    4
 10
296.19094787639102
 20
192.04474420958987
 11
292.6269212097244
 21
190.22878287625658
  0
LINE
  8
_0-2_0-10
  6
CONTINUOUS
 62
    4
 10
296.41794254305767
 20
191.59924154292318
 11
292.85391720972427
 21
189.78327887625658
  0
ARC
  8
_0-2_0-10
  6
CONTINUOUS
 62
    4
 10
296.19094787639102
 20
192.04474420958987
 40
0.5
 50
297.00000000000022
 51
0
  0
LINE
  8
_0-2_0-10
  6
CONTINUOUS
 62
    4
 10
292.6269212097244
 20
190.22878287625658
 11
288.433567876391
 21
187.50558687625658
  0
LINE
  8
_0-2_0-10
  6
CONTINUOUS
 62
    4
 10
292.89924120972438
 20
189.80944687625529
 11
288.70588787639098
 21
187.0862522095899
  0
LINE
  8
_0-2_0-10
  6
CONTINUOUS
 62
    4
 10
288.433567876391
 20
175.50558687625658
 11
288.70588787639098
 21
175.08625220958998
  0
LINE
  8
_0-2_0-10
  6
CONTINUOUS
 62
    4
 10
296.19094787639102
 20
180.04474420958999
 11
292.6269212097244
 21
178.22878287625658
  0
LINE
  8
_0-2_0-10
  6
CONTINUOUS
 62
    4
 10
296.41794254305767
 20
179.59924154292329
 11
292.85391720972427
 21
177.78327887625658
  0
ARC
  8
_0-2_0-10
  6
CONTINUOUS
 62
    4
 10
296.19094787639102
 20
180.04474420958999
 40
0.5
 50
297.00000000000022
 51
0
  0
LINE
  8
_0-2_0-10
  6
CONTINUOUS
 62
    4
 10
292.6269212097244
 20
178.22878287625658
 11
288.433567876391
 21
175.50558687625658
  0
LINE
  8
_0-2_0-10
  6
CONTINUOUS
 62
    4
 10
292.89924120972438
 20
177.8094468762566
 11
288.70588787639098
 21
175.08625220958998
  0
LINE
  8
_0-2_0-10
  6
CONTINUOUS
 62
    4
 10
288.433567876391
 20
163.50558687625658
 11
288.70588787639098
 21
163.0862522095899
  0
LINE
  8
_0-2_0-10
  6
CONTINUOUS
 62
    4
 10
296.19094787639102
 20
168.04474420958987
 11
292.6269212097244
 21
166.22878287625658
  0
LINE
  8
_0-2_0-10
  6
CONTINUOUS
 62
    4
 10
296.41794254305767
 20
167.59924154292329
 11
292.85391720972427
 21
165.78327887625658
  0
ARC
  8
_0-2_0-10
  6
CONTINUOUS
 62
    4
 10
296.19094787639102
 20
168.04474420958987
 40
0.5
 50
297.00000000000022
 51
0
  0
LINE
  8
_0-2_0-10
  6
CONTINUOUS
 62
    4
 10
292.6269212097244
 20
166.22878287625658
 11
288.433567876391
 21
163.50558687625658
  0
LINE
  8
_0-2_0-10
  6
CONTINUOUS
 62
    4
 10
292.89924120972438
 20
165.8094468762566
 11
288.70588787639098
 21
163.0862522095899
  0
LINE
  8
_0-2_0-10
  6
CONTINUOUS
 62
    4
 10
288.433567876391
 20
151.50558687625658
 11
288.70588787639098
 21
151.0862522095899
  0
LINE
  8
_0-2_0-10
  6
CONTINUOUS
 62
    4
 10
296.19094787639102
 20
156.04474420958999
 11
292.6269212097244
 21
154.22878287625528
  0
LINE
  8
_0-2_0-10
  6
CONTINUOUS
 62
    4
 10
296.41794254305767
 20
155.59924154292329
 11
292.85391720972427
 21
153.78327887625658
  0
ARC
  8
_0-2_0-10
  6
CONTINUOUS
 62
    4
 10
296.19094787639102
 20
156.04474420958999
 40
0.5
 50
297.00000000000022
 51
0
  0
LINE
  8
_0-2_0-10
  6
CONTINUOUS
 62
    4
 10
292.6269212097244
 20
154.22878287625528
 11
288.433567876391
 21
151.50558687625658
  0
LINE
  8
_0-2_0-10
  6
CONTINUOUS
 62
    4
 10
292.89924120972438
 20
153.80944687625529
 11
288.70588787639098
 21
151.0862522095899
  0
LINE
  8
_0-2_0-10
  6
CONTINUOUS
 62
    4
 10
288.433567876391
 20
139.50558687625658
 11
288.70588787639098
 21
139.0862522095899
  0
LINE
  8
_0-2_0-10
  6
CONTINUOUS
 62
    4
 10
296.19094787639102
 20
144.04474420958987
 11
292.6269212097244
 21
142.22878287625658
  0
LINE
  8
_0-2_0-10
  6
CONTINUOUS
 62
    4
 10
296.41794254305767
 20
143.59924154292329
 11
292.85391720972427
 21
141.78327887625658
  0
ARC
  8
_0-2_0-10
  6
CONTINUOUS
 62
    4
 10
296.19094787639102
 20
144.04474420958987
 40
0.5
 50
297.00000000000022
 51
0
  0
LINE
  8
_0-2_0-10
  6
CONTINUOUS
 62
    4
 10
292.6269212097244
 20
142.22878287625658
 11
288.433567876391
 21
139.50558687625658
  0
LINE
  8
_0-2_0-10
  6
CONTINUOUS
 62
    4
 10
292.89924120972438
 20
141.8094468762566
 11
288.70588787639098
 21
139.0862522095899
  0
LINE
  8
_0-2_0-10
  6
CONTINUOUS
 62
    4
 10
288.433567876391
 20
127.50558687625658
 11
288.70588787639098
 21
127.08625220958988
  0
LINE
  8
_0-2_0-10
  6
CONTINUOUS
 62
    4
 10
296.19094787639102
 20
132.04474420958999
 11
292.6269212097244
 21
130.22878287625658
  0
LINE
  8
_0-2_0-10
  6
CONTINUOUS
 62
    4
 10
296.41794254305767
 20
131.59924154292329
 11
292.85391720972427
 21
129.78327887625658
  0
ARC
  8
_0-2_0-10
  6
CONTINUOUS
 62
    4
 10
296.19094787639102
 20
132.04474420958999
 40
0.5
 50
297.00000000000022
 51
0
  0
LINE
  8
_0-2_0-10
  6
CONTINUOUS
 62
    4
 10
292.6269212097244
 20
130.22878287625658
 11
288.433567876391
 21
127.50558687625658
  0
LINE
  8
_0-2_0-10
  6
CONTINUOUS
 62
    4
 10
292.89924120972438
 20
129.8094468762566
 11
288.70588787639098
 21
127.08625220958988
  0
LINE
  8
_0-2_0-10
  6
CONTINUOUS
 62
    4
 10
288.433567876391
 20
115.50558687625658
 11
288.70588787639098
 21
115.08625220958988
  0
LINE
  8
_0-2_0-10
  6
CONTINUOUS
 62
    4
 10
296.19094787639102
 20
120.04474420958999
 11
292.6269212097244
 21
118.22878287625658
  0
LINE
  8
_0-2_0-10
  6
CONTINUOUS
 62
    4
 10
296.41794254305767
 20
119.59924154292329
 11
292.85391720972427
 21
117.78327887625658
  0
ARC
  8
_0-2_0-10
  6
CONTINUOUS
 62
    4
 10
296.19094787639102
 20
120.04474420958999
 40
0.5
 50
297.00000000000022
 51
0
  0
LINE
  8
_0-2_0-10
  6
CONTINUOUS
 62
    4
 10
292.6269212097244
 20
118.22878287625658
 11
288.433567876391
 21
115.50558687625658
  0
LINE
  8
_0-2_0-10
  6
CONTINUOUS
 62
    4
 10
292.89924120972438
 20
117.80944687625658
 11
288.70588787639098
 21
115.08625220958988
  0
LINE
  8
_0-2_0-10
  6
CONTINUOUS
 62
    4
 10
296.19094787639102
 20
222.64474420958998
 11
296.69094787639102
 21
222.64474420958998
  0
LINE
  8
_0-2_0-10
  6
CONTINUOUS
 62
    4
 10
297.39094787639101
 20
231.94474420958988
 11
297.89094787639112
 21
231.94474420958988
  0
LINE
  8
_0-2_0-10
  6
CONTINUOUS
 62
    3
 10
267.13675854305762
 20
236.04474420958999
 11
267.13675854305762
 21
218.45579754292327
  0
LINE
  8
_0-2_0-10
  6
CONTINUOUS
 62
    3
 10
267.13675854305762
 20
213.58037220958988
 11
267.13675854305762
 21
86.044744209589964
  0
LINE
  8
_0-2_0-10
  6
CONTINUOUS
 62
    5
 10
297.39094787639101
 20
235.54474420958999
 11
302.89094787639112
 21
235.54474420958999
  0
LINE
  8
_0-2_0-10
  6
CONTINUOUS
 62
    4
 10
297.89094787639112
 20
235.04474420958999
 11
297.89094787639112
 21
215.02487620958999
  0
LINE
  8
_0-2_0-10
  6
CONTINUOUS
 62
    4
 10
297.39094787639101
 20
102.74474420958988
 11
297.39094787639101
 21
92.928408209589974
  0
LINE
  8
_0-2_0-10
  6
CONTINUOUS
 62
    4
 10
296.19094787639102
 20
216.04474420958999
 11
296.19094787639102
 21
224.84474420958997
  0
LINE
  8
_0-2_0-10
  6
CONTINUOUS
 62
    4
 10
296.19094787639102
 20
204.04474420958999
 11
296.19094787639102
 21
215.48358154292327
  0
LINE
  8
_0-2_0-10
  6
CONTINUOUS
 62
    4
 10
296.19094787639102
 20
192.04474420958987
 11
296.19094787639102
 21
203.48358154292327
  0
LINE
  8
_0-2_0-10
  6
CONTINUOUS
 62
    4
 10
296.19094787639102
 20
180.04474420958999
 11
296.19094787639102
 21
191.48358154292327
  0
LINE
  8
_0-2_0-10
  6
CONTINUOUS
 62
    4
 10
296.19094787639102
 20
168.04474420958987
 11
296.19094787639102
 21
179.48358154292327
  0
LINE
  8
_0-2_0-10
  6
CONTINUOUS
 62
    4
 10
296.19094787639102
 20
156.04474420958999
 11
296.19094787639102
 21
167.48358154292327
  0
LINE
  8
_0-2_0-10
  6
CONTINUOUS
 62
    4
 10
296.19094787639102
 20
144.04474420958987
 11
296.19094787639102
 21
155.48358154292327
  0
LINE
  8
_0-2_0-10
  6
CONTINUOUS
 62
    4
 10
296.19094787639102
 20
132.04474420958999
 11
296.19094787639102
 21
143.48358154292327
  0
LINE
  8
_0-2_0-10
  6
CONTINUOUS
 62
    4
 10
296.19094787639102
 20
120.04474420958999
 11
296.19094787639102
 21
131.48358154292327
  0
LINE
  8
_0-2_0-10
  6
CONTINUOUS
 62
    3
 10
302.89094787639112
 20
115.54474420958999
 11
302.89094787639112
 21
91.744744209589953
  0
ARC
  8
_0-2_0-10
  6
CONTINUOUS
 62
    3
 10
302.59094787639099
 20
91.744744209589953
 40
0.2999999999999999
 50
309.9276920000002
 51
0
  0
LINE
  8
_0-2_0-10
  6
CONTINUOUS
 62
    4
 10
295.70029454305768
 20
203.79474420958999
 11
295.9272905430576
 21
203.34924154292329
  0
LINE
  8
_0-2_0-10
  6
CONTINUOUS
 62
    4
 10
295.70029454305768
 20
191.79474420958999
 11
295.9272905430576
 21
191.34924154292329
  0
LINE
  8
_0-2_0-10
  6
CONTINUOUS
 62
    4
 10
295.70029454305768
 20
179.79474420958987
 11
295.9272905430576
 21
179.34924154292318
  0
LINE
  8
_0-2_0-10
  6
CONTINUOUS
 62
    4
 10
295.70029454305768
 20
167.79474420958999
 11
295.9272905430576
 21
167.34924154292329
  0
LINE
  8
_0-2_0-10
  6
CONTINUOUS
 62
    4
 10
295.70029454305768
 20
155.79474420958987
 11
295.9272905430576
 21
155.34924154292318
  0
LINE
  8
_0-2_0-10
  6
CONTINUOUS
 62
    4
 10
295.70029454305768
 20
143.79474420958999
 11
295.9272905430576
 21
143.34924154292329
  0
LINE
  8
_0-2_0-10
  6
CONTINUOUS
 62
    4
 10
295.70029454305768
 20
131.79474420958987
 11
295.9272905430576
 21
131.34924154292329
  0
LINE
  8
_0-2_0-10
  6
CONTINUOUS
 62
    4
 10
295.70029454305768
 20
119.79474420958999
 11
295.9272905430576
 21
119.34924154292329
  0
INSERT
  2
-000-BLKF051_31
  8
_0-2_0-10
 10
-11.296021456942355
 20
-74.564639790410012
 41
1.333333333333333
 42
1.333333333333333
 50
0
  0
LINE
  8
_0-2_0-10
  6
CONTINUOUS
 62
    4
 10
296.19094787639102
 20
108.54474420958999
 11
296.69094787639102
 21
108.54474420958999
  0
LINE
  8
_0-2_0-10
  6
CONTINUOUS
 62
    6
 10
297.69094787639102
 20
224.34474420958997
 11
297.19094787639102
 21
224.34474420958997
  0
LINE
  8
_0-2_0-10
  6
CONTINUOUS
 62
    4
 10
296.69094787639102
 20
224.84474420958997
 11
297.39094787639101
 21
224.84474420958997
  0
LINE
  8
_0-2_0-10
  6
CONTINUOUS
 62
    4
 10
296.69094787639102
 20
225.34474420958997
 11
297.39094787639101
 21
225.34474420958997
  0
ARC
  8
_0-2_0-10
  6
CONTINUOUS
 62
    4
 10
296.69094787639102
 20
224.84474420958997
 40
0.5
 50
90
 51
180
  0
ARC
  8
_0-2_0-10
  6
CONTINUOUS
 62
    4
 10
297.39094787639101
 20
225.34474420958997
 40
0.5
 50
270
 51
0
  0
LINE
  8
_0-2_0-10
  6
CONTINUOUS
 62
    5
 10
296.19094787639102
 20
220.29890820958999
 11
268.41317320972427
 21
212.85587620958989
  0
LINE
  8
_0-2_0-10
  6
CONTINUOUS
 62
    7
 10
300.93679054305772
 20
235.54474420958999
 11
301.80281587639098
 21
235.04474420958999
  0
LINE
  8
_0-2_0-10
  6
CONTINUOUS
 62
    4
 10
296.69094787639102
 20
103.24474420958988
 11
297.39094787639101
 21
103.24474420958988
  0
LINE
  8
_0-2_0-10
  6
CONTINUOUS
 62
    4
 10
296.69094787639102
 20
102.74474420958988
 11
297.39094787639101
 21
102.74474420958988
  0
ARC
  8
_0-2_0-10
  6
CONTINUOUS
 62
    4
 10
296.69094787639102
 20
103.24474420958988
 40
0.5
 50
180
 51
270
  0
ARC
  8
_0-2_0-10
  6
CONTINUOUS
 62
    4
 10
297.39094787639101
 20
102.74474420958988
 40
0.5
 50
0
 51
90
  0
LINE
  8
_0-2_0-10
  6
CONTINUOUS
 62
    6
 10
297.69094787639102
 20
103.74474420958988
 11
297.19094787639102
 21
103.74474420958988
  0
LINE
  8
_0-2_0-10
  6
CONTINUOUS
 62
    4
 10
297.89094787639112
 20
113.06461354292189
 11
297.89094787639112
 21
92.928408209589974
  0
LINE
  8
_0-2_0-10
  6
CONTINUOUS
 62
    2
 10
355.69094787639102
 20
170.1447442095899
 11
355.69094787639102
 21
157.94474420958988
  0
ARC
  8
_0-2_0-10
  6
CONTINUOUS
 62
    2
 10
355.29094787639087
 20
170.1447442095899
 40
0.4
 50
0
 51
90
  0
ARC
  8
_0-2_0-10
  6
CONTINUOUS
 62
    2
 10
355.29094787639087
 20
157.94474420958988
 40
0.4
 50
270
 51
0
  0
LINE
  8
_0-2_0-10
  6
CONTINUOUS
 62
    7
 10
313.69094787639102
 20
215.00715220958997
 11
313.76040654305762
 21
215.40107487625658
  0
LINE
  8
_0-2_0-10
  6
CONTINUOUS
 62
    7
 10
313.69094787639102
 20
215.00715220958997
 11
315.66056254305772
 21
214.6598548762567
  0
ARC
  8
_0-2_0-10
  6
CONTINUOUS
 62
    7
 10
315.73002254305771
 20
215.05377887625658
 40
0.4
 50
260
 51
297.39251799999999
  0
ARC
  8
_0-2_0-10
  6
CONTINUOUS
 62
    7
 10
320.33086120972427
 20
206.17502420958999
 40
9.5999999999999996
 50
42.607482000000118
 51
117.392518
  0
LINE
  8
_0-2_0-10
  6
CONTINUOUS
 62
    7
 10
313.76040654305762
 20
215.40107487625658
 11
315.73002254305771
 21
215.05377887625658
  0
ARC
  8
_0-2_0-10
  6
CONTINUOUS
 62
    7
 10
320.33086120972427
 20
206.17502420958999
 40
10
 50
42.607482000000118
 51
117.392518
  0
LINE
  8
_0-2_0-10
  6
CONTINUOUS
 62
    7
 10
327.69094787639102
 20
212.54474420958999
 11
339.69094787639102
 21
212.54474420958999
  0
LINE
  8
_0-2_0-10
  6
CONTINUOUS
 62
    7
 10
327.69094787639102
 20
212.94474420958999
 11
339.69094787639102
 21
212.94474420958999
  0
LINE
  8
_0-2_0-10
  6
CONTINUOUS
 62
    7
 10
339.69094787639102
 20
212.94474420958999
 11
339.69094787639102
 21
212.54474420958999
  0
LINE
  8
_0-2_0-10
  6
CONTINUOUS
 62
    6
 10
347.69094787639102
 20
142.78233620958999
 11
347.69094787639102
 21
118.54474420958999
  0
LINE
  8
_0-2_0-10
  6
CONTINUOUS
 62
    7
 10
25.993729209724307
 20
164.04474420958987
 11
201.35621054305761
 21
164.04474420958987
  0
LINE
  8
_0-2_0-10
  6
CONTINUOUS
 62
    7
 10
113.67497054305759
 20
244.53554154292328
 11
113.67497054305759
 21
131.79474420958987
  0
LINE
  8
_0-2_0-10
  6
CONTINUOUS
 62
    7
 10
113.67497054305759
 20
127.11173220958988
 11
113.67497054305759
 21
70.682408209589965
  0
LINE
  8
_0-2_0-10
  6
CONTINUOUS
 62
    3
 10
50.674970543057611
 20
236.04474420958999
 11
50.674970543057611
 21
86.044744209589964
  0
LINE
  8
_0-2_0-10
  6
CONTINUOUS
 62
    3
 10
176.67497054305761
 20
236.04474420958999
 11
176.67497054305761
 21
86.044744209589964
  0
LINE
  8
_0-2_0-10
  6
CONTINUOUS
 62
    3
 10
185.67497054305761
 20
236.04474420958999
 11
176.17497054305761
 21
236.04474420958999
  0
LINE
  8
_0-2_0-10
  6
CONTINUOUS
 62
    3
 10
185.67497054305761
 20
236.04474420958999
 11
185.67497054305761
 21
86.044744209589964
  0
LINE
  8
_0-2_0-10
  6
CONTINUOUS
 62
    3
 10
41.674970543057611
 20
236.04474420958999
 11
41.674970543057611
 21
86.044744209589964
  0
LINE
  8
_0-2_0-10
  6
CONTINUOUS
 62
    7
 10
46.174970543057611
 20
198.81771487625658
 11
46.174970543057611
 21
189.27177354292328
  0
ARC
  8
_0-2_0-10
  6
CONTINUOUS
 62
    3
 10
46.174970543057611
 20
194.04474420958987
 40
2.149999999999999
 50
8.0209329999999834
 51
171.97906699999998
  0
ARC
  8
_0-2_0-10
  6
CONTINUOUS
 62
    3
 10
46.174970543057611
 20
194.04474420958987
 40
2.149999999999999
 50
188.02093299999987
 51
351.97906699999987
  0
LINE
  8
_0-2_0-10
  6
CONTINUOUS
 62
    7
 10
41.401999876390959
 20
194.04474420958987
 11
50.947941209724319
 21
194.04474420958987
  0
LINE
  8
_0-2_0-10
  6
CONTINUOUS
 62
    3
 10
185.67497054305761
 20
86.044744209589964
 11
176.17497054305761
 21
86.044744209589964
  0
LINE
  8
_0-2_0-10
  6
CONTINUOUS
 62
    4
 10
191.67497054305761
 20
91.204998876256638
 11
191.67497054305761
 21
78.567709542923282
  0
LINE
  8
_0-2_0-10
  6
CONTINUOUS
 62
    4
 10
191.17497054305761
 20
91.204998876256638
 11
191.17497054305761
 21
78.567709542923282
  0
LINE
  8
_0-2_0-10
  6
CONTINUOUS
 62
    4
 10
191.17497054305761
 20
78.567709542923282
 11
191.67497054305761
 21
78.567709542923282
  0
LINE
  8
_0-2_0-10
  6
CONTINUOUS
 62
    4
 10
35.674970543057639
 20
91.204998876256638
 11
35.674970543057639
 21
78.567709542923282
  0
LINE
  8
_0-2_0-10
  6
CONTINUOUS
 62
    4
 10
36.174970543057639
 20
91.204998876256638
 11
36.174970543057639
 21
78.567709542923282
  0
LINE
  8
_0-2_0-10
  6
CONTINUOUS
 62
    4
 10
36.174970543057639
 20
78.567709542923282
 11
35.674970543057639
 21
78.567709542923282
  0
ARC
  8
_0-2_0-10
  6
CONTINUOUS
 62
    4
 10
113.6749905430576
 20
788.52060020959004
 40
714.22483062346668
 50
263.73026100000021
 51
276.26973899999967
  0
ARC
  8
_0-2_0-10
  6
CONTINUOUS
 62
    4
 10
113.6749905430576
 20
788.8741535429234
 40
714.22483062346668
 50
263.77061099999991
 51
276.22938599999997
  0
LINE
  8
_0-2_0-10
  6
CONTINUOUS
 62
    4
 10
35.674970543057639
 20
91.204998876256638
 11
41.674970543057611
 21
91.204998876256638
  0
LINE
  8
_0-2_0-10
  6
CONTINUOUS
 62
    4
 10
36.174970543057639
 20
88.795769542923295
 11
41.674970543057611
 21
88.795769542923295
  0
LINE
  8
_0-2_0-10
  6
CONTINUOUS
 62
    4
 10
96.521374543057632
 20
91.204998876256638
 11
176.17497054305761
 21
91.204998876256638
  0
LINE
  8
_0-2_0-10
  6
CONTINUOUS
 62
    4
 10
96.179127876390964
 20
88.795769542923295
 11
176.17497054305761
 21
88.795769542923295
  0
LINE
  8
_0-2_0-10
  6
CONTINUOUS
 62
    7
 10
181.17497054305761
 20
198.81771487625658
 11
181.17497054305761
 21
189.27177354292328
  0
ARC
  8
_0-2_0-10
  6
CONTINUOUS
 62
    3
 10
181.17497054305761
 20
194.04474420958987
 40
2.149999999999999
 50
8.0209329999999834
 51
171.97906699999998
  0
ARC
  8
_0-2_0-10
  6
CONTINUOUS
 62
    3
 10
181.17497054305761
 20
194.04474420958987
 40
2.149999999999999
 50
188.02093299999987
 51
351.97906699999987
  0
LINE
  8
_0-2_0-10
  6
CONTINUOUS
 62
    7
 10
185.94794120972429
 20
194.04474420958987
 11
176.40199987639098
 21
194.04474420958987
  0
ARC
  8
_0-2_0-10
  6
CONTINUOUS
 62
    4
 10
113.67497054305759
 20
164.04474420958987
 40
55.5
 50
257.77050399999961
 51
306.86989799999992
  0
LINE
  8
_0-2_0-10
  6
CONTINUOUS
 62
    4
 10
129.6017798763909
 20
211.54474420958999
 11
137.67497054305761
 21
211.54474420958999
  0
LINE
  8
_0-2_0-10
  6
CONTINUOUS
 62
    4
 10
129.55150920972428
 20
211.11173220959
 11
137.67497054305761
 21
211.11173220959
  0
LINE
  8
_0-2_0-10
  6
CONTINUOUS
 62
    4
 10
127.0455278763909
 20
199.54474420958987
 11
149.71147187639098
 21
199.54474420958987
  0
LINE
  8
_0-2_0-10
  6
CONTINUOUS
 62
    4
 10
126.8996932097243
 20
199.11173220959
 11
149.71147187639098
 21
199.11173220959
  0
LINE
  8
_0-2_0-10
  6
CONTINUOUS
 62
    4
 10
128.2775812097243
 20
203.79474420958999
 11
143.212059876391
 21
203.79474420958999
  0
LINE
  8
_0-2_0-10
  6
CONTINUOUS
 62
    4
 10
123.6271585430576
 20
191.79474420958999
 11
153.39600920972429
 21
191.79474420958999
  0
LINE
  8
_0-2_0-10
  6
CONTINUOUS
 62
    4
 10
121.2813585430576
 20
187.54474420958999
 11
155.91719587639099
 21
187.54474420958999
  0
LINE
  8
_0-2_0-10
  6
CONTINUOUS
 62
    4
 10
121.0345185430576
 20
187.11173220959
 11
155.91719587639099
 21
187.11173220959
  0
LINE
  8
_0-2_0-10
  6
CONTINUOUS
 62
    4
 10
116.94742120972429
 20
179.79474420958987
 11
158.91119854305759
 21
179.79474420958987
  0
LINE
  8
_0-2_0-10
  6
CONTINUOUS
 62
    4
 10
114.91747987639089
 20
175.54474420958987
 11
158.82719854305759
 21
175.54474420958987
  0
LINE
  8
_0-2_0-10
  6
CONTINUOUS
 62
    4
 10
114.7298012097243
 20
175.11173220959
 11
158.82719854305759
 21
175.11173220959
  0
LINE
  8
_0-2_0-10
  6
CONTINUOUS
 62
    4
 10
112.5442518763909
 20
167.79474420958999
 11
160.885491876391
 21
167.79474420958999
  0
LINE
  8
_0-2_0-10
  6
CONTINUOUS
 62
    4
 10
112.0410465430576
 20
163.54474420958999
 11
159.141647876391
 21
163.54474420958999
  0
LINE
  8
_0-2_0-10
  6
CONTINUOUS
 62
    4
 10
112.01865854305759
 20
163.11173220959
 11
159.141647876391
 21
163.11173220959
  0
LINE
  8
_0-2_0-10
  6
CONTINUOUS
 62
    4
 10
112.00768387639089
 20
155.79474420958987
 11
160.2965505430576
 21
155.79474420958987
  0
LINE
  8
_0-2_0-10
  6
CONTINUOUS
 62
    4
 10
112.2096932097243
 20
151.54474420958987
 11
156.32520387639098
 21
151.54474420958987
  0
LINE
  8
_0-2_0-10
  6
CONTINUOUS
 62
    4
 10
112.2320332097243
 20
151.11173220959
 11
156.32520387639098
 21
151.11173220959
  0
LINE
  8
_0-2_0-10
  6
CONTINUOUS
 62
    4
 10
112.46406520972429
 20
143.79474420958999
 11
156.7874532097243
 21
143.79474420958999
  0
LINE
  8
_0-2_0-10
  6
CONTINUOUS
 62
    4
 10
112.3101945430576
 20
139.54474420958999
 11
149.53852787639098
 21
139.54474420958999
  0
LINE
  8
_0-2_0-10
  6
CONTINUOUS
 62
    4
 10
112.27475187639089
 20
139.11173220958988
 11
149.53852787639098
 21
139.11173220958988
  0
LINE
  8
_0-2_0-10
  6
CONTINUOUS
 62
    4
 10
110.97135054305759
 20
131.79474420958987
 11
149.74073054305759
 21
131.79474420958987
  0
LINE
  8
_0-2_0-10
  6
CONTINUOUS
 62
    4
 10
109.63807320972429
 20
127.54474420958989
 11
134.57072387639101
 21
127.54474420958989
  0
LINE
  8
_0-2_0-10
  6
CONTINUOUS
 62
    4
 10
109.48044520972429
 20
127.11173220958988
 11
134.57072387639101
 21
127.11173220958988
  0
LINE
  8
_0-2_0-10
  6
CONTINUOUS
 62
    4
 10
106.46432920972429
 20
119.79474420958999
 11
137.23465454305758
 21
119.79474420958999
  0
ARC
  8
_0-2_0-10
  6
CONTINUOUS
 62
    4
 10
113.67497054305759
 20
164.04474420958987
 40
55.5
 50
53.130102000000029
 51
64.778521000000083
  0
ARC
  8
_0-2_0-10
  6
CONTINUOUS
 62
    4
 10
113.67497054305759
 20
164.04474420958987
 40
55.5
 50
35.781760999999931
 51
46.365534999999084
  0
LINE
  8
_0-2_0-10
  6
CONTINUOUS
 62
    7
 10
143.22154387639099
 20
120.04474420958999
 11
138.72154387639091
 21
120.04474420958999
  0
LINE
  8
_0-2_0-10
  6
CONTINUOUS
 62
    4
 10
146.67497054305761
 20
120.54474420958999
 11
144.32704920972429
 21
120.54474420958999
  0
LINE
  8
_0-2_0-10
  6
CONTINUOUS
 62
    4
 10
151.14495854305769
 20
123.54474420958989
 11
147.744551876391
 21
123.54474420958989
  0
LINE
  8
_0-2_0-10
  6
CONTINUOUS
 62
    7
 10
155.55703987639088
 20
132.04474420958999
 11
151.057039876391
 21
132.04474420958999
  0
LINE
  8
_0-2_0-10
  6
CONTINUOUS
 62
    4
 10
158.21259454305769
 20
132.54474420958999
 11
156.60405054305761
 21
132.54474420958999
  0
LINE
  8
_0-2_0-10
  6
CONTINUOUS
 62
    4
 10
160.67071454305769
 20
135.54474420958999
 11
158.3786825430576
 21
135.54474420958999
  0
LINE
  8
_0-2_0-10
  6
CONTINUOUS
 62
    4
 10
165.924371876391
 20
147.54474420958987
 11
164.54948787639099
 21
147.54474420958987
  0
LINE
  8
_0-2_0-10
  6
CONTINUOUS
 62
    4
 10
164.61611187639098
 20
144.54474420958999
 11
163.29689987639099
 21
144.54474420958999
  0
LINE
  8
_0-2_0-10
  6
CONTINUOUS
 62
    7
 10
162.47447587639101
 20
144.04474420958987
 11
157.97447587639101
 21
144.04474420958987
  0
LINE
  8
_0-2_0-10
  6
CONTINUOUS
 62
    4
 10
168.156159876391
 20
159.54474420958987
 11
166.9562105430576
 21
159.54474420958987
  0
LINE
  8
_0-2_0-10
  6
CONTINUOUS
 62
    7
 10
165.829191876391
 20
156.04474420958999
 11
161.32919187639089
 21
156.04474420958999
  0
LINE
  8
_0-2_0-10
  6
CONTINUOUS
 62
    4
 10
167.74159587639098
 20
171.54474420958999
 11
166.10712120972431
 21
171.54474420958999
  0
LINE
  8
_0-2_0-10
  6
CONTINUOUS
 62
    7
 10
166.27134920972429
 20
168.04474420958987
 11
161.77134920972429
 21
168.04474420958987
  0
LINE
  8
_0-2_0-10
  6
CONTINUOUS
 62
    4
 10
165.924371876391
 20
180.54474420958987
 11
164.59990787639088
 21
180.54474420958987
  0
LINE
  8
_0-2_0-10
  6
CONTINUOUS
 62
    7
 10
164.08675587639089
 20
180.04474420958999
 11
159.586755876391
 21
180.04474420958999
  0
LINE
  8
_0-2_0-10
  6
CONTINUOUS
 62
    4
 10
158.21259454305769
 20
195.54474420958999
 11
156.19906654305759
 21
195.54474420958999
  0
LINE
  8
_0-2_0-10
  6
CONTINUOUS
 62
    7
 10
158.40372254305759
 20
192.04474420958987
 11
153.90372254305759
 21
192.04474420958987
  0
LINE
  8
_0-2_0-10
  6
CONTINUOUS
 62
    4
 10
146.67497054305761
 20
207.54474420958999
 11
145.712059876391
 21
207.54474420958999
  0
LINE
  8
_0-2_0-10
  6
CONTINUOUS
 62
    4
 10
151.14495854305769
 20
204.54474420958999
 11
148.43825054305759
 21
204.54474420958999
  0
LINE
  8
_0-2_0-10
  6
CONTINUOUS
 62
    7
 10
148.212059876391
 20
204.04474420958999
 11
143.712059876391
 21
204.04474420958999
  0
ARC
  8
_0-2_0-10
  6
CONTINUOUS
 62
    4
 10
113.67497054305759
 20
164.04474420958987
 40
55.5
 50
313.634465000001
 51
324.21823900000009
  0
ARC
  8
_0-2_0-10
  6
CONTINUOUS
 62
    4
 10
113.67497054305759
 20
164.04474420958987
 40
55.5
 50
329.75646699999902
 51
338.369889
  0
ARC
  8
_0-2_0-10
  6
CONTINUOUS
 62
    4
 10
113.67497054305759
 20
164.04474420958987
 40
55.5
 50
8.7275869999999784
 51
16.523205999999994
  0
LINE
  8
_0-2_0-10
  6
CONTINUOUS
 62
    4
 10
143.712059876391
 20
205.54474420958999
 11
143.712059876391
 21
204.04474420958999
  0
LINE
  8
_0-2_0-10
  6
CONTINUOUS
 62
    4
 10
154.22945054305759
 20
193.89204154292329
 11
153.90372254305759
 21
192.04474420958987
  0
LINE
  8
_0-2_0-10
  6
CONTINUOUS
 62
    4
 10
163.808987876391
 20
170.47310687625659
 11
161.77134920972429
 21
168.04474420958987
  0
ARC
  8
_0-2_0-10
  6
CONTINUOUS
 62
    4
 10
145.712059876391
 20
205.54474420958999
 40
2
 50
90
 51
180
  0
LINE
  8
_0-2_0-10
  6
CONTINUOUS
 62
    4
 10
158.39802387639099
 20
192.10988287625659
 11
158.40372254305759
 21
192.04474420958987
  0
ARC
  8
_0-2_0-10
  6
CONTINUOUS
 62
    4
 10
156.19906654305759
 20
193.54474420958999
 40
2
 50
90
 51
170
  0
LINE
  8
_0-2_0-10
  6
CONTINUOUS
 62
    4
 10
164.11272387639098
 20
180.15722020958989
 11
164.08675587639089
 21
180.04474420958999
  0
LINE
  8
_0-2_0-10
  6
CONTINUOUS
 62
    4
 10
166.32841454305759
 20
168.17918287625658
 11
166.27134920972429
 21
168.04474420958987
  0
LINE
  8
_0-2_0-10
  6
CONTINUOUS
 62
    4
 10
164.38505987639101
 20
158.60892287625659
 11
161.32919187639089
 21
156.04474420958999
  0
LINE
  8
_0-2_0-10
  6
CONTINUOUS
 62
    4
 10
161.68160520972429
 20
146.64050420958989
 11
157.97447587639101
 21
144.04474420958987
  0
LINE
  8
_0-2_0-10
  6
CONTINUOUS
 62
    4
 10
165.93600920972428
 20
156.21568820958998
 11
165.829191876391
 21
156.04474420958999
  0
ARC
  8
_0-2_0-10
  6
CONTINUOUS
 62
    4
 10
166.10712120972431
 20
168.54474420958999
 40
3
 50
90
 51
139.9999999999998
  0
ARC
  8
_0-2_0-10
  6
CONTINUOUS
 62
    4
 10
166.9562105430576
 20
155.54474420958987
 40
4
 50
90
 51
130.00000000000019
  0
LINE
  8
_0-2_0-10
  6
CONTINUOUS
 62
    4
 10
155.19916787639098
 20
134.6330335429233
 11
151.057039876391
 21
132.04474420958999
  0
LINE
  8
_0-2_0-10
  6
CONTINUOUS
 62
    4
 10
144.23758387639099
 20
122.73509754292328
 11
138.72154387639091
 21
120.04474420958999
  0
ARC
  8
_0-2_0-10
  6
CONTINUOUS
 62
    4
 10
164.54948787639099
 20
142.54474420958999
 40
5
 50
90
 51
124.9999999999998
  0
LINE
  8
_0-2_0-10
  6
CONTINUOUS
 62
    4
 10
162.721427876391
 20
144.30047087625527
 11
162.47447587639101
 21
144.04474420958987
  0
ARC
  8
_0-2_0-10
  6
CONTINUOUS
 62
    4
 10
158.3786825430576
 20
129.54474420958987
 40
6
 50
90
 51
121.99999999999978
  0
LINE
  8
_0-2_0-10
  6
CONTINUOUS
 62
    4
 10
156.04485854305769
 20
132.37378154292329
 11
155.55703987639088
 21
132.04474420958999
  0
ARC
  8
_0-2_0-10
  6
CONTINUOUS
 62
    4
 10
147.744551876391
 20
115.54474420958999
 40
8
 50
90
 51
116.00000000000018
  0
ARC
  8
_0-2_0-10
  6
CONTINUOUS
 62
    4
 10
146.67497054305761
 20
208.04474420958999
 40
0.5
 50
270
 51
53.130102000000022
  0
ARC
  8
_0-2_0-10
  6
CONTINUOUS
 62
    4
 10
158.21259454305769
 20
196.1447442095899
 40
0.5999999999999999
 50
270
 51
35.781760999999924
  0
ARC
  8
_0-2_0-10
  6
CONTINUOUS
 62
    4
 10
167.74159587639098
 20
172.34474420958997
 40
0.8
 50
270
 51
8.727586999999966
  0
ARC
  8
_0-2_0-10
  6
CONTINUOUS
 62
    4
 10
168.156159876391
 20
160.44474420958988
 40
0.9
 50
270
 51
356.21951400000102
  0
ARC
  8
_0-2_0-10
  6
CONTINUOUS
 62
    4
 10
165.924371876391
 20
148.54474420958987
 40
1
 50
270
 51
343.47679399999907
  0
ARC
  8
_0-2_0-10
  6
CONTINUOUS
 62
    4
 10
160.67071454305769
 20
136.6447442095899
 40
1.0999999999999989
 50
270
 51
329.75646699999902
  0
ARC
  8
_0-2_0-10
  6
CONTINUOUS
 62
    4
 10
151.14495854305769
 20
124.74474420958988
 40
1.199999999999999
 50
270
 51
313.634465000001
  0
ARC
  8
_0-2_0-10
  6
CONTINUOUS
 62
    4
 10
146.67497054305761
 20
120.04474420958999
 40
0.5
 50
306.86989799999992
 51
90.000000000000028
  0
ARC
  8
_0-2_0-10
  6
CONTINUOUS
 62
    4
 10
158.21259454305769
 20
131.94474420958988
 40
0.5999999999999999
 50
324.21823900000015
 51
90.000000000000028
  0
ARC
  8
_0-2_0-10
  6
CONTINUOUS
 62
    4
 10
164.61611187639098
 20
143.84474420958858
 40
0.6999999999999999
 50
338.369889
 51
90.000000000000028
  0
ARC
  8
_0-2_0-10
  6
CONTINUOUS
 62
    4
 10
165.924371876391
 20
179.54474420958987
 40
1
 50
16.523205999999998
 51
90
  0
ARC
  8
_0-2_0-10
  6
CONTINUOUS
 62
    4
 10
151.14495854305769
 20
203.34474420958997
 40
1.199999999999999
 50
46.365534999999091
 51
90
  0
ARC
  8
_0-2_0-10
  6
CONTINUOUS
 62
    4
 10
148.43825054305759
 20
204.24474420958998
 40
0.2999999999999999
 50
90
 51
245.74747686904927
  0
ARC
  8
_0-2_0-10
  6
CONTINUOUS
 62
    4
 10
158.79650254305761
 20
192.1447442095899
 40
0.4
 50
90
 51
185
  0
ARC
  8
_0-2_0-10
  6
CONTINUOUS
 62
    4
 10
164.59990787639088
 20
180.04474420958999
 40
0.5
 50
90
 51
166.99999999999886
  0
ARC
  8
_0-2_0-10
  6
CONTINUOUS
 62
    4
 10
166.88071854305761
 20
167.94474420958988
 40
0.5999999999999999
 50
90
 51
156.99999999999988
  0
ARC
  8
_0-2_0-10
  6
CONTINUOUS
 62
    4
 10
166.52964254305769
 20
155.84474420958997
 40
0.6999999999999999
 50
90
 51
147.99999999999988
  0
ARC
  8
_0-2_0-10
  6
CONTINUOUS
 62
    4
 10
163.29689987639099
 20
143.74474420958989
 40
0.8
 50
90
 51
136.00000000000019
  0
ARC
  8
_0-2_0-10
  6
CONTINUOUS
 62
    4
 10
156.60405054305761
 20
131.54474420958987
 40
1
 50
90
 51
123.9999999999991
  0
ARC
  8
_0-2_0-10
  6
CONTINUOUS
 62
    4
 10
144.32704920972429
 20
119.34474420958858
 40
1.199999999999999
 50
90
 51
124.43955699999999
  0
LINE
  8
_0-2_0-10
  6
CONTINUOUS
 62
    4
 10
139.67497054305761
 20
212.54473987765797
 11
139.67497054305761
 21
212.11173220959
  0
LINE
  8
_0-2_0-10
  6
CONTINUOUS
 62
    4
 10
148.212059876391
 20
204.04474420958999
 11
151.759351876391
 21
201.51171487625668
  0
LINE
  8
_0-2_0-10
  6
CONTINUOUS
 62
    4
 10
152.21147187639098
 20
200.79474420958999
 11
152.21147187639098
 21
200.36173220959
  0
LINE
  8
_0-2_0-10
  6
CONTINUOUS
 62
    4
 10
158.40372254305759
 20
192.04474420958987
 11
158.90577987639099
 21
189.17547887625659
  0
LINE
  8
_0-2_0-10
  6
CONTINUOUS
 62
    4
 10
158.91719587639099
 20
189.04474420958987
 11
158.91719587639099
 21
188.6117322095904
  0
LINE
  8
_0-2_0-10
  6
CONTINUOUS
 62
    4
 10
153.88841320972429
 20
192.00133220958988
 11
153.90372254305759
 21
192.04474420958987
  0
LINE
  8
_0-2_0-10
  6
CONTINUOUS
 62
    4
 10
162.72467854305759
 20
177.09484287625659
 11
164.08675587639089
 21
180.04474420958999
  0
LINE
  8
_0-2_0-10
  6
CONTINUOUS
 62
    4
 10
162.72467854305759
 20
176.6618295429233
 11
164.08675587639089
 21
179.61173220959
  0
LINE
  8
_0-2_0-10
  6
CONTINUOUS
 62
    4
 10
164.08675587639089
 20
180.04474420958999
 11
164.08675587639089
 21
179.61173220959
  0
LINE
  8
_0-2_0-10
  6
CONTINUOUS
 62
    4
 10
159.55555187639089
 20
180.00798820958999
 11
159.586755876391
 21
180.04474420958999
  0
LINE
  8
_0-2_0-10
  6
CONTINUOUS
 62
    4
 10
163.74417187639099
 20
165.06791620958989
 11
166.27134920972429
 21
168.04474420958987
  0
LINE
  8
_0-2_0-10
  6
CONTINUOUS
 62
    4
 10
163.74417187639099
 20
164.63490420958987
 11
166.27134920972429
 21
167.61173220959
  0
LINE
  8
_0-2_0-10
  6
CONTINUOUS
 62
    4
 10
166.27134920972429
 20
168.04474420958987
 11
166.27134920972429
 21
167.61173220959
  0
LINE
  8
_0-2_0-10
  6
CONTINUOUS
 62
    4
 10
161.65153587639099
 20
167.97335087625657
 11
161.77134920972429
 21
168.04474420958987
  0
LINE
  8
_0-2_0-10
  6
CONTINUOUS
 62
    4
 10
162.26154120972429
 20
153.19002687625658
 11
165.829191876391
 21
156.04474420958999
  0
LINE
  8
_0-2_0-10
  6
CONTINUOUS
 62
    4
 10
162.26154120972429
 20
152.75701487625659
 11
165.829191876391
 21
155.61173220959
  0
LINE
  8
_0-2_0-10
  6
CONTINUOUS
 62
    4
 10
165.829191876391
 20
156.04474420958999
 11
165.829191876391
 21
155.61173220959
  0
LINE
  8
_0-2_0-10
  6
CONTINUOUS
 62
    4
 10
161.0678958763909
 20
155.93511754292327
 11
161.32919187639089
 21
156.04474420958999
  0
LINE
  8
_0-2_0-10
  6
CONTINUOUS
 62
    4
 10
156.73192654305759
 20
141.07145220958989
 11
162.47447587639101
 21
144.04474420958987
  0
LINE
  8
_0-2_0-10
  6
CONTINUOUS
 62
    4
 10
156.73192654305759
 20
140.63844020958998
 11
162.47447587639101
 21
143.61173220959
  0
LINE
  8
_0-2_0-10
  6
CONTINUOUS
 62
    4
 10
162.47447587639101
 20
144.04474420958987
 11
162.47447587639101
 21
143.61173220959
  0
LINE
  8
_0-2_0-10
  6
CONTINUOUS
 62
    4
 10
157.6478172097243
 20
143.93038020958988
 11
157.97447587639101
 21
144.04474420958987
  0
LINE
  8
_0-2_0-10
  6
CONTINUOUS
 62
    4
 10
148.5505465430576
 20
129.68177487625658
 11
155.55703987639088
 21
132.04474420958999
  0
LINE
  8
_0-2_0-10
  6
CONTINUOUS
 62
    4
 10
148.5505465430576
 20
129.24876287625659
 11
155.55703987639088
 21
131.61173220958988
  0
LINE
  8
_0-2_0-10
  6
CONTINUOUS
 62
    4
 10
155.55703987639088
 20
132.04474420958999
 11
155.55703987639088
 21
131.61173220958988
  0
LINE
  8
_0-2_0-10
  6
CONTINUOUS
 62
    4
 10
150.69458520972429
 20
131.93150154292328
 11
151.057039876391
 21
132.04474420958999
  0
ARC
  8
_0-2_0-10
  6
CONTINUOUS
 62
    4
 10
113.67497054305759
 20
164.04474420958987
 40
53
 50
303.88187499999997
 51
304.43955699999997
  0
LINE
  8
_0-2_0-10
  6
CONTINUOUS
 62
    4
 10
143.2215425430576
 20
119.61173354292328
 11
143.2215425430576
 21
120.04474420958999
  0
LINE
  8
_0-2_0-10
  6
CONTINUOUS
 62
    4
 10
138.11139720972428
 20
119.89595087625659
 11
138.72154387639091
 21
120.04474420958999
  0
LINE
  8
_0-2_0-10
  6
CONTINUOUS
 62
    4
 10
175.92497054305761
 20
235.54474420958999
 11
176.17497054305761
 21
235.54474420958999
  0
ARC
  8
_0-2_0-10
  6
CONTINUOUS
 62
    4
 10
113.67497054305759
 20
164.04474420958987
 40
60.799999999999997
 50
256.90237800000011
 51
53.933103000000009
  0
LINE
  8
_0-2_0-10
  6
CONTINUOUS
 62
    4
 10
96.7293452097243
 20
92.544744209589964
 11
176.17497054305761
 21
92.544744209589964
  0
LINE
  8
_0-2_0-10
  6
CONTINUOUS
 62
    3
 10
176.17497054305761
 20
236.04474420958999
 11
176.17497054305761
 21
86.044744209589964
  0
LINE
  8
_0-2_0-10
  6
CONTINUOUS
 62
    4
 10
185.67497054305761
 20
91.204998876256638
 11
191.67497054305761
 21
91.204998876256638
  0
LINE
  8
_0-2_0-10
  6
CONTINUOUS
 62
    4
 10
185.67497054305761
 20
88.795769542923295
 11
191.17497054305761
 21
88.795769542923295
  0
LINE
  8
_0-2_0-10
  6
CONTINUOUS
 62
    3
 10
95.815482543057626
 20
86.044744209589964
 11
41.674970543057611
 21
86.044744209589964
  0
LINE
  8
_0-2_0-10
  6
CONTINUOUS
 62
    3
 10
129.56130654305761
 20
236.04474420958999
 11
41.674970543057611
 21
236.04474420958999
  0
LINE
  8
_0-2_0-10
  6
CONTINUOUS
 62
    4
 10
113.67497054305759
 20
115.54474420958999
 11
109.0557158763909
 21
115.64558554292328
  0
LINE
  8
_0-2_0-10
  6
CONTINUOUS
 62
    4
 10
109.0557158763909
 20
115.64558554292328
 11
104.69641320972429
 21
115.93254154292328
  0
LINE
  8
_0-2_0-10
  6
CONTINUOUS
 62
    5
 10
129.88457320972429
 20
214.90469754292328
 11
163.49453587639101
 21
211.96420554292328
  0
LINE
  8
_0-2_0-10
  6
CONTINUOUS
 62
    5
 10
130.06159987639088
 20
219.60560554292328
 11
160.9154492097243
 21
216.90624420958999
  0
LINE
  8
_0-2_0-10
  6
CONTINUOUS
 62
    5
 10
130.0635078763909
 20
219.73484820958998
 11
160.92668520972429
 21
217.03466954292329
  0
LINE
  8
_0-2_0-10
  6
CONTINUOUS
 62
    5
 10
130.034119876391
 20
224.99716820959
 11
175.42497054305761
 21
221.02598287625667
  0
LINE
  8
_0-2_0-10
  6
CONTINUOUS
 62
    5
 10
163.65380120972429
 20
213.78461887625658
 11
163.49453587639101
 21
211.96420554292328
  0
LINE
  8
_0-2_0-10
  6
CONTINUOUS
 62
    5
 10
175.92497054305761
 20
236.04474420958999
 11
129.56130654305761
 21
236.04474420958999
  0
LINE
  8
_0-2_0-10
  6
CONTINUOUS
 62
    5
 10
164.19016654305769
 20
213.27711887625659
 11
175.42497054305761
 21
212.29420154292327
  0
LINE
  8
_0-2_0-10
  6
CONTINUOUS
 62
    5
 10
164.1468292097243
 20
212.79880820958987
 11
175.381391876391
 21
211.81591087625659
  0
ARC
  8
_0-2_0-10
  6
CONTINUOUS
 62
    5
 10
164.13787320972429
 20
212.67940287625657
 40
0.5999999999999999
 50
84.999999999999985
 51
159.63549
  0
ARC
  8
_0-2_0-10
  6
CONTINUOUS
 62
    5
 10
164.094535876391
 20
212.20109087625658
 40
0.5999999999999999
 50
84.999999999999985
 51
159.10912099999879
  0
ARC
  8
_0-2_0-10
  6
CONTINUOUS
 62
    5
 10
160.65398120972429
 20
213.91766020958999
 40
3
 50
355
 51
85
  0
ARC
  8
_0-2_0-10
  6
CONTINUOUS
 62
    5
 10
160.66521720972428
 20
214.04608554292329
 40
3
 50
355
 51
85
  0
LINE
  8
_0-2_0-10
  6
CONTINUOUS
 62
    5
 10
175.92497054305761
 20
236.04474420958999
 11
175.92497054305761
 21
212.3140082095899
  0
LINE
  8
_0-2_0-10
  6
CONTINUOUS
 62
    5
 10
175.42497054305761
 20
236.04474420958999
 11
175.42497054305761
 21
212.29420154292327
  0
ARC
  8
_0-2_0-10
  6
CONTINUOUS
 62
    5
 10
175.42497054305761
 20
212.3140082095899
 40
0.5
 50
265
 51
0.0000000000000127
  0
LINE
  8
_0-2_0-10
  6
CONTINUOUS
 62
    5
 10
175.42497054305761
 20
216.79022687625658
 11
175.92497054305761
 21
216.79022687625658
  0
LINE
  8
_0-2_0-10
  6
CONTINUOUS
 62
    5
 10
175.42497054305761
 20
224.45708287625657
 11
175.92497054305761
 21
224.45708287625657
  0
LINE
  8
_0-2_0-10
  6
CONTINUOUS
 62
    7
 10
134.162631876391
 20
214.5304148762566
 11
134.13536711379231
 21
214.48319092604998
  0
LINE
  8
_0-2_0-10
  6
CONTINUOUS
 62
    7
 10
149.4845505430577
 20
211.06875754292329
 11
149.43084233099631
 21
210.97573218858329
  0
LINE
  8
_0-2_0-10
  6
CONTINUOUS
 62
    7
 10
147.39897428695098
 20
115.63305583289799
 11
147.50509720972431
 21
115.44924554292329
  0
LINE
  8
_0-2_0-10
  6
CONTINUOUS
 62
    7
 10
123.6305612097243
 20
191.80115487625658
 11
123.6342624098323
 21
191.79474420958999
  0
LINE
  8
_0-2_0-10
  6
CONTINUOUS
 62
    7
 10
100.6089625430576
 20
106.67573354292328
 11
100.7192025430576
 21
106.48479220958988
  0
ARC
  8
_0-2_0-10
  6
CONTINUOUS
 62
    7
 10
113.67497054305759
 20
164.04474420958987
 40
59
 50
257.14623200000016
 51
56.96953899999972
  0
LINE
  8
_0-2_0-10
  6
CONTINUOUS
 62
    4
 10
138.61614654305759
 20
213.42709754292329
 11
134.4454252097243
 21
214.42500420958998
  0
LINE
  8
_0-2_0-10
  6
CONTINUOUS
 62
    4
 10
134.4454252097243
 20
214.42500420958998
 11
133.64013454305759
 21
214.57612820958999
  0
ARC
  8
_0-2_0-10
  6
CONTINUOUS
 62
    4
 10
160.67071454305769
 20
191.44474420958988
 40
1.0999999999999989
 50
30.243533000007044
 51
90.000000000006735
  0
LINE
  8
_0-2_0-10
  6
CONTINUOUS
 62
    4
 10
160.67071454305769
 20
192.54474420958999
 11
158.79650254305761
 21
192.54474420958999
  0
LINE
  8
_0-2_0-10
  6
CONTINUOUS
 62
    4
 10
159.586755876391
 20
180.04474420958999
 11
160.5551795028202
 21
182.32620646656857
  0
ARC
  8
_0-2_0-10
  6
CONTINUOUS
 62
    4
 10
162.39618920972429
 20
181.54474420958987
 40
2
 50
89.999999999996944
 51
156.9999999999971
  0
LINE
  8
_0-2_0-10
  6
CONTINUOUS
 62
    4
 10
162.39618920972429
 20
183.54474420958999
 11
164.61611187639098
 21
183.54474420958999
  0
ARC
  8
_0-2_0-10
  6
CONTINUOUS
 62
    4
 10
164.61612828543499
 20
184.24473386200727
 40
0.6999896526106665
 50
269.99865688161992
 51
21.63133019468503
  0
ARC
  8
_0-2_0-10
  6
CONTINUOUS
 62
    4
 10
113.67497054305759
 20
164.04474420958987
 40
55.5
 50
21.630110999999981
 51
30.243532999999889
  0
ARC
  8
_0-2_0-10
  6
CONTINUOUS
 62
    4
 10
112.5326736054336
 20
164.04474358173928
 40
56.639861314161329
 50
356.29570313359101
 51
3.7042983683290544
  0
ARC
  8
_0-2_0-10
  6
CONTINUOUS
 62
    4
 10
168.156159876391
 20
167.64474420958998
 40
0.9
 50
3.780486000006952
 51
90.000000000006735
  0
LINE
  8
_0-2_0-10
  6
CONTINUOUS
 62
    4
 10
168.156159876391
 20
168.54474420958999
 11
166.88071854305761
 21
168.54474420958999
  0
ARC
  8
_0-2_0-10
  6
CONTINUOUS
 62
    4
 10
113.04236729835629
 20
164.18644048306327
 40
56.146795890436003
 50
343.52176565353397
 51
351.22744482619901
  0
ARC
  8
_0-2_0-10
  6
CONTINUOUS
 62
    4
 10
167.74159587639098
 20
155.74474420958989
 40
0.8
 50
351.27241299999798
 51
89.999999999998209
  0
LINE
  8
_0-2_0-10
  6
CONTINUOUS
 62
    4
 10
167.74159587639098
 20
156.54474420958987
 11
166.52964254305769
 21
156.54474420958987
  0
LINE
  8
_0-2_0-10
  6
CONTINUOUS
 62
    4
 10
113.669919121155
 20
115.11162193518988
 11
109.0557158763909
 21
115.21257220958989
  0
LINE
  8
_0-2_0-10
  6
CONTINUOUS
 62
    4
 10
109.0557158763909
 20
115.21257220958989
 11
104.5022158763909
 21
115.51231220958858
  0
LINE
  8
_0-2_0-10
  6
CONTINUOUS
 62
    7
 10
181.17497054305761
 20
194.04474420958987
 11
190.25659668445359
 21
181.58070892134188
  0
LINE
  8
_0-1_0-00
  6
CONTINUOUS
 62
    3
 10
217.9999980430592
 20
16.499998616985976
 11
412.99999804305809
 21
16.499998616985976
  0
TEXT
  8
_0-1_0-00
 62
    7
 10
224.4999990209472
 20
9.189999308492986
 40
3.8999999999999999
 41
1
 50
0
  1
マックス株式会社
  0
LINE
  8
_0-1_0-00
  6
CONTINUOUS
 62
    3
 10
217.9999980430592
 20
16.499998616985976
 11
217.9999980430592
 21
6.4999986169859766
  0
LINE
  8
_0-1_0-00
  6
CONTINUOUS
 62
    3
 10
277.99999804305917
 20
16.499998616985976
 11
277.99999804305917
 21
6.4999986169859766
  0
LINE
  8
_0-1_0-00
  6
CONTINUOUS
 62
    3
 10
337.99999804305917
 20
16.499998616985976
 11
337.99999804305917
 21
6.4999986169859766
  0
TEXT
  8
_0-1_0-00
 62
    7
 10
288.83299902094722
 20
9.189999308492986
 40
3.8999999999999999
 41
1
 50
0
  1
2024/1/9
  0
TEXT
  8
_0-1_0-00
 62
    7
 10
339.4999990209472
 20
12.113999308492992
 40
2.3399999999999989
 41
1
 50
0
  1
名称
  0
TEXT
  8
_0-1_0-00
 62
    7
 10
279.4999990209472
 20
12.113999308492992
 40
2.3399999999999989
 41
1
 50
0
  1
日付
  0
TEXT
  8
_0-2_0-10
 62
    7
 10
193.19497184690959
 20
183.12908434146058
 40
3.1199999999999992
 41
1
 50
0
  1
2-φ4.3
  0
LINE
  8
_0-2_0-10
  6
CONTINUOUS
 62
    7
 10
211.9747946308922
 20
181.58070892134188
 11
190.25659668445359
 21
181.58070892134188
  0
LINE
  8
_0-2_0-10
  6
CONTINUOUS
 62
    6
 10
347.69094787639102
 20
209.54474420958999
 11
347.69094787639102
 21
142.78233606751928
  0
ARC
  8
_0-2_0-10
  6
CONTINUOUS
 62
    4
 10
307.69094787639102
 20
164.04474420958987
 40
45.299999999999997
 50
8.2497240000000306
 51
27.993333928196108
  0
LINE
  8
_0-2_0-10
  6
CONTINUOUS
 62
    2
 10
347.69094787639102
 20
170.54474420958999
 11
355.29094787639087
 21
170.54474420958999
  0
LINE
  8
_0-2_0-10
  6
CONTINUOUS
 62
    2
 10
347.69094787639102
 20
157.54474420958999
 11
355.29094787639087
 21
157.54474420958999
  0
ARC
  8
_0-2_0-10
  6
CONTINUOUS
 62
    4
 10
307.69094787639102
 20
164.04474420958987
 40
45.299999999999997
 50
332.00666623047192
 51
351.75027599999998
  0
LINE
  8
_0-2_0-10
  6
CONTINUOUS
 62
    3
 10
302.89094787639112
 20
236.04474420958999
 11
302.89094787639112
 21
212.54474420958999
  0
INSERT
  2
-003-_D1
  8
_0-0_0
 10
-0.2500009790527997
 20
-0.0000006915070116
 41
1
 42
1
 50
0
  0
CIRCLE
  8
_0-1_0-00
  6
CONTINUOUS
 62
    7
 10
245.710475876391
 20
86.044744209589964
 40
0.0066666666666667
  0
CIRCLE
  8
_0-1_0-00
  6
CONTINUOUS
 62
    7
 10
245.710475876391
 20
236.04474420958987
 40
0.0066666666666667
  0
CIRCLE
  8
_0-1_0-00
  6
CONTINUOUS
 62
    7
 10
230.640986543059
 20
236.04474420958987
 40
0.0066666666666667
  0
INSERT
  2
-004-_D4
  8
_0-0_0
 10
-0.2500009790527997
 20
-0.0000006915070116
 41
1
 42
1
 50
0
  0
INSERT
  2
-005-_D5
  8
_0-0_0
 10
-0.2500009790527997
 20
-0.0000006915070116
 41
1
 42
1
 50
0
  0
INSERT
  2
-006-_D6
  8
_0-0_0
 10
-0.2500009790527997
 20
-0.0000006915070116
 41
1
 42
1
 50
0
  0
INSERT
  2
-007-_D7
  8
_0-0_0
 10
-0.2500009790527997
 20
-0.0000006915070116
 41
1
 42
1
 50
0
  0
INSERT
  2
-008-_D8
  8
_0-0_0
 10
-0.2500009790527997
 20
-0.0000006915070116
 41
1
 42
1
 50
0
  0
INSERT
  2
-009-_D9
  8
_0-0_0
 10
-0.2500009790527997
 20
-0.0000006915070116
 41
1
 42
1
 50
0
  0
INSERT
  2
-010-_D10
  8
_0-0_0
 10
-0.2500009790527997
 20
-0.0000006915070116
 41
1
 42
1
 50
0
  0
INSERT
  2
-011-_D11
  8
_0-0_0
 10
-0.2500009790527997
 20
-0.0000006915070116
 41
1
 42
1
 50
0
  0
INSERT
  2
-012-_D12
  8
_0-0_0
 10
-0.2500009790527997
 20
-0.0000006915070116
 41
1
 42
1
 50
0
  0
LINE
  8
_0-0_0
  6
CONTINUOUS
 62
    4
 10
149.7114718763909
 20
199.54474420958987
 11
149.92936120972419
 21
199.54950154292328
  0
LINE
  8
_0-0_0
  6
CONTINUOUS
 62
    4
 10
149.92936120972419
 20
199.54950154292328
 11
150.14559320972421
 21
199.56373487625668
  0
LINE
  8
_0-0_0
  6
CONTINUOUS
 62
    4
 10
150.14559320972421
 20
199.56373487625668
 11
150.358519876391
 21
199.58733754292327
  0
LINE
  8
_0-0_0
  6
CONTINUOUS
 62
    4
 10
150.358519876391
 20
199.58733754292327
 11
150.5665225430576
 21
199.62012820958989
  0
LINE
  8
_0-0_0
  6
CONTINUOUS
 62
    4
 10
150.5665225430576
 20
199.62012820958989
 11
150.76801720972429
 21
199.66186020958997
  0
LINE
  8
_0-0_0
  6
CONTINUOUS
 62
    4
 10
150.76801720972429
 20
199.66186020958997
 11
150.9614718763909
 21
199.71221220958989
  0
LINE
  8
_0-0_0
  6
CONTINUOUS
 62
    4
 10
150.9614718763909
 20
199.71221220958989
 11
151.14541320972421
 21
199.77080420958998
  0
LINE
  8
_0-0_0
  6
CONTINUOUS
 62
    4
 10
151.14541320972421
 20
199.77080420958998
 11
151.31844120972431
 21
199.83718954292328
  0
LINE
  8
_0-0_0
  6
CONTINUOUS
 62
    4
 10
151.31844120972431
 20
199.83718954292328
 11
151.47923854305759
 21
199.91086154292329
  0
LINE
  8
_0-0_0
  6
CONTINUOUS
 62
    4
 10
151.47923854305759
 20
199.91086154292329
 11
151.62658387639089
 21
199.99126020958988
  0
LINE
  8
_0-0_0
  6
CONTINUOUS
 62
    4
 10
151.62658387639089
 20
199.99126020958988
 11
151.75935187639089
 21
200.07777354292329
  0
LINE
  8
_0-0_0
  6
CONTINUOUS
 62
    4
 10
151.75935187639089
 20
200.07777354292329
 11
151.8765358763909
 21
200.16974420958999
  0
LINE
  8
_0-0_0
  6
CONTINUOUS
 62
    4
 10
151.8765358763909
 20
200.16974420958999
 11
151.97724120972429
 21
200.26647220958997
  0
LINE
  8
_0-0_0
  6
CONTINUOUS
 62
    4
 10
151.97724120972429
 20
200.26647220958997
 11
152.0607038763909
 21
200.36721887625668
  0
LINE
  8
_0-0_0
  6
CONTINUOUS
 62
    4
 10
152.0607038763909
 20
200.36721887625668
 11
152.1262865430576
 21
200.47122020958988
  0
LINE
  8
_0-0_0
  6
CONTINUOUS
 62
    4
 10
152.1262865430576
 20
200.47122020958988
 11
152.17349187639101
 21
200.57768420958998
  0
LINE
  8
_0-0_0
  6
CONTINUOUS
 62
    4
 10
152.17349187639101
 20
200.57768420958998
 11
152.2019585430576
 21
200.68580020958998
  0
LINE
  8
_0-0_0
  6
CONTINUOUS
 62
    4
 10
152.2019585430576
 20
200.68580020958998
 11
152.2114718763909
 21
200.79474420958999
  0
LINE
  8
_0-0_0
  6
CONTINUOUS
 62
    4
 10
152.2114718763909
 20
200.79474420958999
 11
152.2019585430576
 21
200.90368954292327
  0
LINE
  8
_0-0_0
  6
CONTINUOUS
 62
    4
 10
152.2019585430576
 20
200.90368954292327
 11
152.17349187639101
 21
201.01180420958999
  0
LINE
  8
_0-0_0
  6
CONTINUOUS
 62
    4
 10
152.17349187639101
 20
201.01180420958999
 11
152.1262865430576
 21
201.11826820958998
  0
LINE
  8
_0-0_0
  6
CONTINUOUS
 62
    4
 10
152.1262865430576
 20
201.11826820958998
 11
152.0607038763909
 21
201.22226954292329
  0
LINE
  8
_0-0_0
  6
CONTINUOUS
 62
    4
 10
152.0607038763909
 20
201.22226954292329
 11
151.97724120972429
 21
201.32301754292328
  0
LINE
  8
_0-0_0
  6
CONTINUOUS
 62
    4
 10
151.97724120972429
 20
201.32301754292328
 11
151.8765358763909
 21
201.41974420958999
  0
LINE
  8
_0-0_0
  6
CONTINUOUS
 62
    4
 10
151.8765358763909
 20
201.41974420958999
 11
151.75935187639089
 21
201.51171487625668
  0
LINE
  8
_0-2_0-10
  6
CONTINUOUS
 62
    7
 10
129.56130654305761
 20
236.04474420958999
 11
129.6847652097243
 21
233.66627887625659
  0
LINE
  8
_0-2_0-10
  6
CONTINUOUS
 62
    7
 10
129.6847652097243
 20
233.66627887625659
 11
129.77880520972431
 21
231.78872554292328
  0
LINE
  8
_0-2_0-10
  6
CONTINUOUS
 62
    7
 10
129.77880520972431
 20
231.78872554292328
 11
129.86591320972431
 21
229.91299487625659
  0
LINE
  8
_0-2_0-10
  6
CONTINUOUS
 62
    7
 10
129.86591320972431
 20
229.91299487625659
 11
129.94262520972429
 21
228.03999754292328
  0
LINE
  8
_0-2_0-10
  6
CONTINUOUS
 62
    7
 10
129.94262520972429
 20
228.03999754292328
 11
130.0054745430576
 21
226.17064687625668
  0
LINE
  8
_0-2_0-10
  6
CONTINUOUS
 62
    7
 10
130.0054745430576
 20
226.17064687625668
 11
130.05099587639099
 21
224.30585487625657
  0
LINE
  8
_0-2_0-10
  6
CONTINUOUS
 62
    7
 10
130.05099587639099
 20
224.30585487625657
 11
130.07572254305759
 21
222.44652954292328
  0
LINE
  8
_0-2_0-10
  6
CONTINUOUS
 62
    7
 10
130.07572254305759
 20
222.44652954292328
 11
130.0761905430576
 21
220.59358687625658
  0
LINE
  8
_0-2_0-10
  6
CONTINUOUS
 62
    7
 10
130.0761905430576
 20
220.59358687625658
 11
130.04893320972431
 21
218.74793487625657
  0
LINE
  8
_0-2_0-10
  6
CONTINUOUS
 62
    7
 10
130.04893320972431
 20
218.74793487625657
 11
129.99048520972431
 21
216.91048554292328
  0
LINE
  8
_0-2_0-10
  6
CONTINUOUS
 62
    7
 10
129.99048520972431
 20
216.91048554292328
 11
129.8973812097243
 21
215.08215220958999
  0
LINE
  8
_0-2_0-10
  6
CONTINUOUS
 62
    7
 10
129.8973812097243
 20
215.08215220958999
 11
129.7661545430576
 21
213.26384420958999
  0
LINE
  8
_0-2_0-10
  6
CONTINUOUS
 62
    7
 10
129.7661545430576
 20
213.26384420958999
 11
129.59333987639089
 21
211.45647487625669
  0
LINE
  8
_0-2_0-10
  6
CONTINUOUS
 62
    7
 10
129.59333987639089
 20
211.45647487625669
 11
129.3754732097243
 21
209.66095487625659
  0
LINE
  8
_0-2_0-10
  6
CONTINUOUS
 62
    7
 10
129.3754732097243
 20
209.66095487625659
 11
129.10908787639098
 21
207.8781948762566
  0
LINE
  8
_0-2_0-10
  6
CONTINUOUS
 62
    7
 10
129.10908787639098
 20
207.8781948762566
 11
128.7907172097243
 21
206.10910687625667
  0
LINE
  8
_0-2_0-10
  6
CONTINUOUS
 62
    7
 10
128.7907172097243
 20
206.10910687625667
 11
128.41689720972431
 21
204.35460287625659
  0
LINE
  8
_0-2_0-10
  6
CONTINUOUS
 62
    7
 10
128.41689720972431
 20
204.35460287625659
 11
127.98415987639089
 21
202.61559487625669
  0
LINE
  8
_0-2_0-10
  6
CONTINUOUS
 62
    7
 10
127.98415987639089
 20
202.61559487625669
 11
127.4890425430576
 21
200.89299354292327
  0
LINE
  8
_0-2_0-10
  6
CONTINUOUS
 62
    7
 10
127.4890425430576
 20
200.89299354292327
 11
126.92807854305759
 21
199.1877095429233
  0
LINE
  8
_0-2_0-10
  6
CONTINUOUS
 62
    7
 10
126.92807854305759
 20
199.1877095429233
 11
126.8996936721701
 21
199.11173220959
  0
LINE
  8
_0-2_0-10
  6
CONTINUOUS
 62
    7
 10
126.8996936721701
 20
199.11173220959
 11
126.29780120972429
 21
197.50065620958997
  0
LINE
  8
_0-2_0-10
  6
CONTINUOUS
 62
    7
 10
126.29780120972429
 20
197.50065620958997
 11
125.73594920972419
 21
196.14929754292327
  0
LINE
  8
_0-2_0-10
  6
CONTINUOUS
 62
    7
 10
125.73594920972419
 20
196.14929754292327
 11
125.1319252097243
 21
194.80910554292327
  0
LINE
  8
_0-2_0-10
  6
CONTINUOUS
 62
    7
 10
125.1319252097243
 20
194.80910554292327
 11
124.49119987639099
 21
193.47871087625659
  0
LINE
  8
_0-2_0-10
  6
CONTINUOUS
 62
    7
 10
124.49119987639099
 20
193.47871087625659
 11
123.8192465430576
 21
192.15674954292327
  0
LINE
  8
_0-2_0-10
  6
CONTINUOUS
 62
    7
 10
123.8192465430576
 20
192.15674954292327
 11
123.6287198445939
 21
191.79768520524177
  0
LINE
  8
_0-2_0-10
  6
CONTINUOUS
 62
    7
 10
123.6287198445939
 20
191.79768520524177
 11
123.12153720972419
 21
190.84185487625657
  0
LINE
  8
_0-2_0-10
  6
CONTINUOUS
 62
    7
 10
123.12153720972419
 20
190.84185487625657
 11
122.40354254305759
 21
189.53266154292327
  0
LINE
  8
_0-2_0-10
  6
CONTINUOUS
 62
    7
 10
122.40354254305759
 20
189.53266154292327
 11
121.67073720972429
 21
188.22780154292328
  0
LINE
  8
_0-2_0-10
  6
CONTINUOUS
 62
    7
 10
121.67073720972429
 20
188.22780154292328
 11
121.03451969268
 21
187.11173220959
  0
LINE
  8
_0-2_0-10
  6
CONTINUOUS
 62
    7
 10
121.03451969268
 20
187.11173220959
 11
120.92859187639089
 21
186.92591087625658
  0
LINE
  8
_0-2_0-10
  6
CONTINUOUS
 62
    7
 10
120.92859187639089
 20
186.92591087625658
 11
120.1825785430576
 21
185.62562287625658
  0
LINE
  8
_0-2_0-10
  6
CONTINUOUS
 62
    7
 10
120.1825785430576
 20
185.62562287625658
 11
119.43817054305759
 21
184.32557087625659
  0
LINE
  8
_0-2_0-10
  6
CONTINUOUS
 62
    7
 10
119.43817054305759
 20
184.32557087625659
 11
118.7008398763909
 21
183.0243895429233
  0
LINE
  8
_0-2_0-10
  6
CONTINUOUS
 62
    7
 10
118.7008398763909
 20
183.0243895429233
 11
117.9760585430576
 21
181.72071220958989
  0
LINE
  8
_0-2_0-10
  6
CONTINUOUS
 62
    7
 10
117.9760585430576
 20
181.72071220958989
 11
117.2692998763909
 21
180.4131722095899
  0
LINE
  8
_0-2_0-10
  6
CONTINUOUS
 62
    7
 10
117.2692998763909
 20
180.4131722095899
 11
116.94742147342519
 21
179.79474420958987
  0
LINE
  8
_0-2_0-10
  6
CONTINUOUS
 62
    7
 10
116.94742147342519
 20
179.79474420958987
 11
116.5860332097243
 21
179.10040554292328
  0
LINE
  8
_0-2_0-10
  6
CONTINUOUS
 62
    7
 10
116.5860332097243
 20
179.10040554292328
 11
115.93173320972429
 21
177.78104420958999
  0
LINE
  8
_0-2_0-10
  6
CONTINUOUS
 62
    7
 10
115.93173320972429
 20
177.78104420958999
 11
115.31187187639089
 21
176.45372287625659
  0
LINE
  8
_0-2_0-10
  6
CONTINUOUS
 62
    7
 10
115.31187187639089
 20
176.45372287625659
 11
114.7319212097243
 21
175.11707620958998
  0
LINE
  8
_0-2_0-10
  6
CONTINUOUS
 62
    7
 10
114.7319212097243
 20
175.11707620958998
 11
114.72980093466969
 21
175.11173220959
  0
LINE
  8
_0-2_0-10
  6
CONTINUOUS
 62
    7
 10
114.72980093466969
 20
175.11173220959
 11
114.19735320972429
 21
173.76973620958989
  0
LINE
  8
_0-2_0-10
  6
CONTINUOUS
 62
    7
 10
114.19735320972429
 20
173.76973620958989
 11
113.71363987639099
 21
172.41033887625658
  0
LINE
  8
_0-2_0-10
  6
CONTINUOUS
 62
    7
 10
113.71363987639099
 20
172.41033887625658
 11
113.28625454305759
 21
171.03751620958999
  0
LINE
  8
_0-2_0-10
  6
CONTINUOUS
 62
    7
 10
113.28625454305759
 20
171.03751620958999
 11
112.92066787639089
 21
169.64990420958997
  0
LINE
  8
_0-2_0-10
  6
CONTINUOUS
 62
    7
 10
112.92066787639089
 20
169.64990420958997
 11
112.60507587639099
 21
168.16479220958999
  0
LINE
  8
_0-2_0-10
  6
CONTINUOUS
 62
    7
 10
112.60507587639099
 20
168.16479220958999
 11
112.54425185237779
 21
167.794744213537
  0
LINE
  8
_0-0_0
  6
CONTINUOUS
 62
    4
 10
155.9171958763909
 20
187.54474420958999
 11
156.17866254305761
 21
187.55045220958999
  0
LINE
  8
_0-0_0
  6
CONTINUOUS
 62
    4
 10
156.17866254305761
 20
187.55045220958999
 11
156.43813987639089
 21
187.56753354292328
  0
LINE
  8
_0-0_0
  6
CONTINUOUS
 62
    4
 10
156.43813987639089
 20
187.56753354292328
 11
156.69365320972428
 21
187.59585620958989
  0
LINE
  8
_0-0_0
  6
CONTINUOUS
 62
    4
 10
156.69365320972428
 20
187.59585620958989
 11
156.9432558763909
 21
187.6352055429233
  0
LINE
  8
_0-0_0
  6
CONTINUOUS
 62
    4
 10
156.9432558763909
 20
187.6352055429233
 11
157.18505054305759
 21
187.68528287625659
  0
LINE
  8
_0-0_0
  6
CONTINUOUS
 62
    4
 10
157.18505054305759
 20
187.68528287625659
 11
157.4171958763909
 21
187.74570687625657
  0
LINE
  8
_0-0_0
  6
CONTINUOUS
 62
    4
 10
157.4171958763909
 20
187.74570687625657
 11
157.6379252097243
 21
187.81601620958997
  0
LINE
  8
_0-0_0
  6
CONTINUOUS
 62
    4
 10
157.6379252097243
 20
187.81601620958997
 11
157.84555854305759
 21
187.89567754292329
  0
LINE
  8
_0-0_0
  6
CONTINUOUS
 62
    4
 10
157.84555854305759
 20
187.89567754292329
 11
158.0385158763909
 21
187.98408420958998
  0
LINE
  8
_0-0_0
  6
CONTINUOUS
 62
    4
 10
158.0385158763909
 20
187.98408420958998
 11
158.2153292097243
 21
188.08056287625657
  0
LINE
  8
_0-0_0
  6
CONTINUOUS
 62
    4
 10
158.2153292097243
 20
188.08056287625657
 11
158.37465187639091
 21
188.18438020958987
  0
LINE
  8
_0-0_0
  6
CONTINUOUS
 62
    4
 10
158.37465187639091
 20
188.18438020958987
 11
158.51527187639089
 21
188.29474420958999
  0
LINE
  8
_0-0_0
  6
CONTINUOUS
 62
    4
 10
158.51527187639089
 20
188.29474420958999
 11
158.63611854305759
 21
188.41081754292329
  0
LINE
  8
_0-0_0
  6
CONTINUOUS
 62
    4
 10
158.63611854305759
 20
188.41081754292329
 11
158.73627320972428
 21
188.5317148762567
  0
LINE
  8
_0-0_0
  6
CONTINUOUS
 62
    4
 10
158.73627320972428
 20
188.5317148762567
 11
158.81497320972428
 21
188.65651620958988
  0
LINE
  8
_0-0_0
  6
CONTINUOUS
 62
    4
 10
158.81497320972428
 20
188.65651620958988
 11
158.87161854305759
 21
188.78427220959
  0
LINE
  8
_0-0_0
  6
CONTINUOUS
 62
    4
 10
158.87161854305759
 20
188.78427220959
 11
158.9057798763909
 21
188.91401087625669
  0
LINE
  8
_0-0_0
  6
CONTINUOUS
 62
    4
 10
158.9057798763909
 20
188.91401087625669
 11
158.9171958763909
 21
189.04474420958987
  0
LINE
  8
_0-0_0
  6
CONTINUOUS
 62
    4
 10
158.9171958763909
 20
189.04474420958987
 11
158.9057798763909
 21
189.17547887625659
  0
LINE
  8
_0-2_0-10
  6
CONTINUOUS
 62
    4
 10
137.67497054305761
 20
211.11173220959
 11
137.84928120972421
 21
211.11553754292327
  0
LINE
  8
_0-2_0-10
  6
CONTINUOUS
 62
    4
 10
137.84928120972421
 20
211.11553754292327
 11
138.02226654305761
 21
211.12692420958998
  0
LINE
  8
_0-2_0-10
  6
CONTINUOUS
 62
    4
 10
138.02226654305761
 20
211.12692420958998
 11
138.19260787639089
 21
211.14580554292328
  0
LINE
  8
_0-2_0-10
  6
CONTINUOUS
 62
    4
 10
138.19260787639089
 20
211.14580554292328
 11
138.35901054305759
 21
211.17203887625657
  0
LINE
  8
_0-2_0-10
  6
CONTINUOUS
 62
    4
 10
138.35901054305759
 20
211.17203887625657
 11
138.52020654305761
 21
211.20542420958997
  0
LINE
  8
_0-2_0-10
  6
CONTINUOUS
 62
    4
 10
138.52020654305761
 20
211.20542420958997
 11
138.67497054305761
 21
211.24570687625669
  0
LINE
  8
_0-2_0-10
  6
CONTINUOUS
 62
    4
 10
138.67497054305761
 20
211.24570687625669
 11
138.82212254305758
 21
211.29258020958999
  0
LINE
  8
_0-2_0-10
  6
CONTINUOUS
 62
    4
 10
138.82212254305758
 20
211.29258020958999
 11
138.9605452097243
 21
211.34568687625667
  0
LINE
  8
_0-2_0-10
  6
CONTINUOUS
 62
    4
 10
138.9605452097243
 20
211.34568687625667
 11
139.0891838763909
 21
211.40462554292329
  0
LINE
  8
_0-2_0-10
  6
CONTINUOUS
 62
    4
 10
139.0891838763909
 20
211.40462554292329
 11
139.20705854305759
 21
211.46894420958997
  0
LINE
  8
_0-2_0-10
  6
CONTINUOUS
 62
    4
 10
139.20705854305759
 20
211.46894420958997
 11
139.31327454305758
 21
211.53815487625669
  0
LINE
  8
_0-2_0-10
  6
CONTINUOUS
 62
    4
 10
139.31327454305758
 20
211.53815487625669
 11
139.40702120972429
 21
211.61173220959
  0
LINE
  8
_0-2_0-10
  6
CONTINUOUS
 62
    4
 10
139.40702120972429
 20
211.61173220959
 11
139.48758520972418
 21
211.68911354292328
  0
LINE
  8
_0-2_0-10
  6
CONTINUOUS
 62
    4
 10
139.48758520972418
 20
211.68911354292328
 11
139.5543558763909
 21
211.76971220958998
  0
LINE
  8
_0-2_0-10
  6
CONTINUOUS
 62
    4
 10
139.5543558763909
 20
211.76971220958998
 11
139.6068212097243
 21
211.85291220958998
  0
LINE
  8
_0-2_0-10
  6
CONTINUOUS
 62
    4
 10
139.6068212097243
 20
211.85291220958998
 11
139.64458520972431
 21
211.93808420958998
  0
LINE
  8
_0-2_0-10
  6
CONTINUOUS
 62
    4
 10
139.64458520972431
 20
211.93808420958998
 11
139.66735987639088
 21
212.02457620958998
  0
LINE
  8
_0-2_0-10
  6
CONTINUOUS
 62
    4
 10
139.66735987639088
 20
212.02457620958998
 11
139.67497054305761
 21
212.11173220959
  0
LINE
  8
_0-0_0
  6
CONTINUOUS
 62
    4
 10
137.67497054305761
 20
211.11173220959
 11
137.84928120972421
 21
211.11553754292327
  0
LINE
  8
_0-0_0
  6
CONTINUOUS
 62
    4
 10
137.84928120972421
 20
211.11553754292327
 11
138.02226654305761
 21
211.12692420958998
  0
LINE
  8
_0-0_0
  6
CONTINUOUS
 62
    4
 10
138.02226654305761
 20
211.12692420958998
 11
138.19260787639089
 21
211.14580554292328
  0
LINE
  8
_0-0_0
  6
CONTINUOUS
 62
    4
 10
138.19260787639089
 20
211.14580554292328
 11
138.35901054305759
 21
211.17203887625657
  0
LINE
  8
_0-0_0
  6
CONTINUOUS
 62
    4
 10
138.35901054305759
 20
211.17203887625657
 11
138.52020654305761
 21
211.20542420958997
  0
LINE
  8
_0-0_0
  6
CONTINUOUS
 62
    4
 10
138.52020654305761
 20
211.20542420958997
 11
138.67497054305761
 21
211.24570687625669
  0
LINE
  8
_0-0_0
  6
CONTINUOUS
 62
    4
 10
138.67497054305761
 20
211.24570687625669
 11
138.82212254305758
 21
211.29258020958999
  0
LINE
  8
_0-0_0
  6
CONTINUOUS
 62
    4
 10
138.82212254305758
 20
211.29258020958999
 11
138.9605452097243
 21
211.34568687625667
  0
LINE
  8
_0-0_0
  6
CONTINUOUS
 62
    4
 10
138.9605452097243
 20
211.34568687625667
 11
139.0891838763909
 21
211.40462554292329
  0
LINE
  8
_0-0_0
  6
CONTINUOUS
 62
    4
 10
139.0891838763909
 20
211.40462554292329
 11
139.20705854305759
 21
211.46894420958997
  0
LINE
  8
_0-0_0
  6
CONTINUOUS
 62
    4
 10
139.20705854305759
 20
211.46894420958997
 11
139.31327454305758
 21
211.53815487625669
  0
LINE
  8
_0-0_0
  6
CONTINUOUS
 62
    4
 10
139.31327454305758
 20
211.53815487625669
 11
139.40702120972429
 21
211.61173220959
  0
LINE
  8
_0-0_0
  6
CONTINUOUS
 62
    4
 10
139.40702120972429
 20
211.61173220959
 11
139.48758520972418
 21
211.68911354292328
  0
LINE
  8
_0-0_0
  6
CONTINUOUS
 62
    4
 10
139.48758520972418
 20
211.68911354292328
 11
139.5543558763909
 21
211.76971220958998
  0
LINE
  8
_0-0_0
  6
CONTINUOUS
 62
    4
 10
139.5543558763909
 20
211.76971220958998
 11
139.6068212097243
 21
211.85291220958998
  0
LINE
  8
_0-0_0
  6
CONTINUOUS
 62
    4
 10
139.6068212097243
 20
211.85291220958998
 11
139.64458520972431
 21
211.93808420958998
  0
LINE
  8
_0-0_0
  6
CONTINUOUS
 62
    4
 10
139.64458520972431
 20
211.93808420958998
 11
139.66735987639088
 21
212.02457620958998
  0
LINE
  8
_0-0_0
  6
CONTINUOUS
 62
    4
 10
139.66735987639088
 20
212.02457620958998
 11
139.67497054305761
 21
212.11173220959
  0
LINE
  8
_0-0_0
  6
CONTINUOUS
 62
    4
 10
137.67497054305761
 20
211.54474420958999
 11
137.84928120972421
 21
211.54854954292329
  0
LINE
  8
_0-0_0
  6
CONTINUOUS
 62
    4
 10
137.84928120972421
 20
211.54854954292329
 11
138.02226654305761
 21
211.55993620958997
  0
LINE
  8
_0-0_0
  6
CONTINUOUS
 62
    4
 10
138.02226654305761
 20
211.55993620958997
 11
138.19260787639089
 21
211.57881887625669
  0
LINE
  8
_0-0_0
  6
CONTINUOUS
 62
    4
 10
138.19260787639089
 20
211.57881887625669
 11
138.35901054305759
 21
211.60505220958998
  0
LINE
  8
_0-0_0
  6
CONTINUOUS
 62
    4
 10
138.35901054305759
 20
211.60505220958998
 11
138.52020654305761
 21
211.63843620958999
  0
LINE
  8
_0-0_0
  6
CONTINUOUS
 62
    4
 10
138.52020654305761
 20
211.63843620958999
 11
138.67497054305761
 21
211.67871887625668
  0
LINE
  8
_0-0_0
  6
CONTINUOUS
 62
    4
 10
138.67497054305761
 20
211.67871887625668
 11
138.82212254305758
 21
211.72559220958999
  0
LINE
  8
_0-0_0
  6
CONTINUOUS
 62
    4
 10
138.82212254305758
 20
211.72559220958999
 11
138.9605452097243
 21
211.77870020958999
  0
LINE
  8
_0-0_0
  6
CONTINUOUS
 62
    4
 10
138.9605452097243
 20
211.77870020958999
 11
139.0891838763909
 21
211.83763754292328
  0
LINE
  8
_0-0_0
  6
CONTINUOUS
 62
    4
 10
139.0891838763909
 20
211.83763754292328
 11
139.20705854305759
 21
211.90195754292329
  0
LINE
  8
_0-0_0
  6
CONTINUOUS
 62
    4
 10
139.20705854305759
 20
211.90195754292329
 11
139.31327454305758
 21
211.97116820958999
  0
LINE
  8
_0-0_0
  6
CONTINUOUS
 62
    4
 10
139.31327454305758
 20
211.97116820958999
 11
139.40702120972429
 21
212.04474420958999
  0
LINE
  8
_0-0_0
  6
CONTINUOUS
 62
    4
 10
139.40702120972429
 20
212.04474420958999
 11
139.48758520972418
 21
212.1221268762566
  0
LINE
  8
_0-0_0
  6
CONTINUOUS
 62
    4
 10
139.48758520972418
 20
212.1221268762566
 11
139.5543558763909
 21
212.20272420959
  0
LINE
  8
_0-0_0
  6
CONTINUOUS
 62
    4
 10
139.5543558763909
 20
212.20272420959
 11
139.6068212097243
 21
212.28592554292328
  0
LINE
  8
_0-0_0
  6
CONTINUOUS
 62
    4
 10
139.6068212097243
 20
212.28592554292328
 11
139.64458520972431
 21
212.37109620958997
  0
LINE
  8
_0-0_0
  6
CONTINUOUS
 62
    4
 10
139.64458520972431
 20
212.37109620958997
 11
139.66735987639088
 21
212.45758820958999
  0
LINE
  8
_0-0_0
  6
CONTINUOUS
 62
    4
 10
139.66735987639088
 20
212.45758820958999
 11
139.67497054305761
 21
212.54474420958999
  0
LINE
  8
_0-0_0
  6
CONTINUOUS
 62
    4
 10
139.67497054305761
 20
212.54474420958999
 11
139.66735987639088
 21
212.63190020958998
  0
LINE
  8
_0-0_0
  6
CONTINUOUS
 62
    4
 10
139.66735987639088
 20
212.63190020958998
 11
139.64458520972431
 21
212.71839220958997
  0
LINE
  8
_0-0_0
  6
CONTINUOUS
 62
    4
 10
139.64458520972431
 20
212.71839220958997
 11
139.6068212097243
 21
212.80356420958997
  0
LINE
  8
_0-0_0
  6
CONTINUOUS
 62
    4
 10
139.6068212097243
 20
212.80356420958997
 11
139.5543558763909
 21
212.88676420958998
  0
LINE
  8
_0-0_0
  6
CONTINUOUS
 62
    4
 10
139.5543558763909
 20
212.88676420958998
 11
139.48758520972418
 21
212.9673628762566
  0
LINE
  8
_0-0_0
  6
CONTINUOUS
 62
    4
 10
139.48758520972418
 20
212.9673628762566
 11
139.40702120972429
 21
213.04474420958999
  0
LINE
  8
_0-0_0
  6
CONTINUOUS
 62
    4
 10
139.40702120972429
 20
213.04474420958999
 11
139.31327454305758
 21
213.11832154292329
  0
LINE
  8
_0-0_0
  6
CONTINUOUS
 62
    4
 10
139.31327454305758
 20
213.11832154292329
 11
139.20705854305759
 21
213.18753220958987
  0
LINE
  8
_0-0_0
  6
CONTINUOUS
 62
    4
 10
139.20705854305759
 20
213.18753220958987
 11
139.0891838763909
 21
213.25185087625669
  0
LINE
  8
_0-0_0
  6
CONTINUOUS
 62
    4
 10
139.0891838763909
 20
213.25185087625669
 11
138.9605452097243
 21
213.31078954292328
  0
LINE
  8
_0-0_0
  6
CONTINUOUS
 62
    4
 10
138.9605452097243
 20
213.31078954292328
 11
138.82212254305758
 21
213.36389620958999
  0
LINE
  8
_0-0_0
  6
CONTINUOUS
 62
    4
 10
138.82212254305758
 20
213.36389620958999
 11
138.67497054305761
 21
213.41076954292327
  0
LINE
  8
_0-0_0
  6
CONTINUOUS
 62
    4
 10
138.67497054305761
 20
213.41076954292327
 11
138.61614654305759
 21
213.42709754292337
  0
LINE
  8
_0-0_0
  6
CONTINUOUS
 62
    4
 10
149.7114718763909
 20
199.11173220959
 11
149.92936120972419
 21
199.11648820958987
  0
LINE
  8
_0-0_0
  6
CONTINUOUS
 62
    4
 10
149.92936120972419
 20
199.11648820958987
 11
150.14559320972421
 21
199.13072287625658
  0
LINE
  8
_0-0_0
  6
CONTINUOUS
 62
    4
 10
150.14559320972421
 20
199.13072287625658
 11
150.358519876391
 21
199.1543242095899
  0
LINE
  8
_0-0_0
  6
CONTINUOUS
 62
    4
 10
150.358519876391
 20
199.1543242095899
 11
150.5665225430576
 21
199.18711620958998
  0
LINE
  8
_0-0_0
  6
CONTINUOUS
 62
    4
 10
150.5665225430576
 20
199.18711620958998
 11
150.76801720972429
 21
199.22884687625659
  0
LINE
  8
_0-0_0
  6
CONTINUOUS
 62
    4
 10
150.76801720972429
 20
199.22884687625659
 11
150.9614718763909
 21
199.27920020958998
  0
LINE
  8
_0-0_0
  6
CONTINUOUS
 62
    4
 10
150.9614718763909
 20
199.27920020958998
 11
151.14541320972421
 21
199.33779220958999
  0
LINE
  8
_0-0_0
  6
CONTINUOUS
 62
    4
 10
151.14541320972421
 20
199.33779220958999
 11
151.31844120972431
 21
199.40417620958987
  0
LINE
  8
_0-0_0
  6
CONTINUOUS
 62
    4
 10
151.31844120972431
 20
199.40417620958987
 11
151.47923854305759
 21
199.47784820958997
  0
LINE
  8
_0-0_0
  6
CONTINUOUS
 62
    4
 10
151.47923854305759
 20
199.47784820958997
 11
151.62658387639089
 21
199.55824687625658
  0
LINE
  8
_0-0_0
  6
CONTINUOUS
 62
    4
 10
151.62658387639089
 20
199.55824687625658
 11
151.75935187639089
 21
199.64476154292327
  0
LINE
  8
_0-0_0
  6
CONTINUOUS
 62
    4
 10
151.75935187639089
 20
199.64476154292327
 11
151.8765358763909
 21
199.73673220959
  0
LINE
  8
_0-0_0
  6
CONTINUOUS
 62
    4
 10
151.8765358763909
 20
199.73673220959
 11
151.97724120972429
 21
199.83345887625668
  0
LINE
  8
_0-0_0
  6
CONTINUOUS
 62
    4
 10
151.97724120972429
 20
199.83345887625668
 11
152.0607038763909
 21
199.93420687625658
  0
LINE
  8
_0-0_0
  6
CONTINUOUS
 62
    4
 10
152.0607038763909
 20
199.93420687625658
 11
152.1262865430576
 21
200.03820820958998
  0
LINE
  8
_0-0_0
  6
CONTINUOUS
 62
    4
 10
152.1262865430576
 20
200.03820820958998
 11
152.17349187639101
 21
200.14467220958988
  0
LINE
  8
_0-0_0
  6
CONTINUOUS
 62
    4
 10
152.17349187639101
 20
200.14467220958988
 11
152.2019585430576
 21
200.25278687625657
  0
LINE
  8
_0-0_0
  6
CONTINUOUS
 62
    4
 10
152.2019585430576
 20
200.25278687625657
 11
152.2114718763909
 21
200.36173220959
  0
LINE
  8
_0-0_0
  6
CONTINUOUS
 62
    4
 10
143.21205987639089
 20
203.79474420958999
 11
143.25563720972431
 21
203.79569620958997
  0
LINE
  8
_0-0_0
  6
CONTINUOUS
 62
    4
 10
143.25563720972431
 20
203.79569620958997
 11
143.2988838763909
 21
203.79854287625667
  0
LINE
  8
_0-0_0
  6
CONTINUOUS
 62
    4
 10
143.2988838763909
 20
203.79854287625667
 11
143.3414692097242
 21
203.80326287625658
  0
LINE
  8
_0-0_0
  6
CONTINUOUS
 62
    4
 10
143.3414692097242
 20
203.80326287625658
 11
143.38306920972431
 21
203.80982154292328
  0
LINE
  8
_0-0_0
  6
CONTINUOUS
 62
    4
 10
143.38306920972431
 20
203.80982154292328
 11
143.42336920972431
 21
203.81816820958988
  0
LINE
  8
_0-0_0
  6
CONTINUOUS
 62
    4
 10
143.42336920972431
 20
203.81816820958988
 11
143.462059876391
 21
203.82823887625667
  0
LINE
  8
_0-0_0
  6
CONTINUOUS
 62
    4
 10
143.462059876391
 20
203.82823887625667
 11
143.49884787639101
 21
203.8399562095899
  0
LINE
  8
_0-0_0
  6
CONTINUOUS
 62
    4
 10
143.49884787639101
 20
203.8399562095899
 11
143.53345320972431
 21
203.85323354292327
  0
LINE
  8
_0-0_0
  6
CONTINUOUS
 62
    4
 10
143.53345320972431
 20
203.85323354292327
 11
143.56561320972429
 21
203.86796820958997
  0
LINE
  8
_0-0_0
  6
CONTINUOUS
 62
    4
 10
143.56561320972429
 20
203.86796820958997
 11
143.59508120972429
 21
203.88404820958987
  0
LINE
  8
_0-0_0
  6
CONTINUOUS
 62
    4
 10
143.59508120972429
 20
203.88404820958987
 11
143.62163587639091
 21
203.9013508762566
  0
LINE
  8
_0-0_0
  6
CONTINUOUS
 62
    4
 10
143.62163587639091
 20
203.9013508762566
 11
143.64507187639088
 21
203.91974420958999
  0
LINE
  8
_0-0_0
  6
CONTINUOUS
 62
    4
 10
143.64507187639088
 20
203.91974420958999
 11
143.66521320972429
 21
203.93908954292328
  0
LINE
  8
_0-0_0
  6
CONTINUOUS
 62
    4
 10
143.66521320972429
 20
203.93908954292328
 11
143.6819065430576
 21
203.95924020958997
  0
LINE
  8
_0-0_0
  6
CONTINUOUS
 62
    4
 10
143.6819065430576
 20
203.95924020958997
 11
143.6950225430576
 21
203.98004020958998
  0
LINE
  8
_0-0_0
  6
CONTINUOUS
 62
    4
 10
143.6950225430576
 20
203.98004020958998
 11
143.70446387639088
 21
204.00133220958997
  0
LINE
  8
_0-0_0
  6
CONTINUOUS
 62
    4
 10
143.70446387639088
 20
204.00133220958997
 11
143.71015720972428
 21
204.02295620958989
  0
LINE
  8
_0-0_0
  6
CONTINUOUS
 62
    4
 10
143.71015720972428
 20
204.02295620958989
 11
143.712059876391
 21
204.04474420958999
  0
LINE
  8
_0-0_0
  6
CONTINUOUS
 62
    4
 10
155.9171958763909
 20
187.11173220959
 11
156.17866254305761
 21
187.11744020959
  0
LINE
  8
_0-0_0
  6
CONTINUOUS
 62
    4
 10
156.17866254305761
 20
187.11744020959
 11
156.43813987639089
 21
187.13452020958999
  0
LINE
  8
_0-0_0
  6
CONTINUOUS
 62
    4
 10
156.43813987639089
 20
187.13452020958999
 11
156.69365320972428
 21
187.16284287625668
  0
LINE
  8
_0-0_0
  6
CONTINUOUS
 62
    4
 10
156.69365320972428
 20
187.16284287625668
 11
156.9432558763909
 21
187.20219354292328
  0
LINE
  8
_0-0_0
  6
CONTINUOUS
 62
    4
 10
156.9432558763909
 20
187.20219354292328
 11
157.18505054305759
 21
187.25227087625657
  0
LINE
  8
_0-0_0
  6
CONTINUOUS
 62
    4
 10
157.18505054305759
 20
187.25227087625657
 11
157.4171958763909
 21
187.31269354292328
  0
LINE
  8
_0-0_0
  6
CONTINUOUS
 62
    4
 10
157.4171958763909
 20
187.31269354292328
 11
157.6379252097243
 21
187.38300420958989
  0
LINE
  8
_0-0_0
  6
CONTINUOUS
 62
    4
 10
157.6379252097243
 20
187.38300420958989
 11
157.84555854305759
 21
187.46266554292327
  0
LINE
  8
_0-0_0
  6
CONTINUOUS
 62
    4
 10
157.84555854305759
 20
187.46266554292327
 11
158.0385158763909
 21
187.55107220958998
  0
LINE
  8
_0-0_0
  6
CONTINUOUS
 62
    4
 10
158.0385158763909
 20
187.55107220958998
 11
158.2153292097243
 21
187.64755087625658
  0
LINE
  8
_0-0_0
  6
CONTINUOUS
 62
    4
 10
158.2153292097243
 20
187.64755087625658
 11
158.37465187639091
 21
187.75136687625669
  0
LINE
  8
_0-0_0
  6
CONTINUOUS
 62
    4
 10
158.37465187639091
 20
187.75136687625669
 11
158.51527187639089
 21
187.86173220959
  0
LINE
  8
_0-0_0
  6
CONTINUOUS
 62
    4
 10
158.51527187639089
 20
187.86173220959
 11
158.63611854305759
 21
187.97780420958997
  0
LINE
  8
_0-0_0
  6
CONTINUOUS
 62
    4
 10
158.63611854305759
 20
187.97780420958997
 11
158.73627320972428
 21
188.09870154292329
  0
LINE
  8
_0-0_0
  6
CONTINUOUS
 62
    4
 10
158.73627320972428
 20
188.09870154292329
 11
158.81497320972428
 21
188.22350287625658
  0
LINE
  8
_0-0_0
  6
CONTINUOUS
 62
    4
 10
158.81497320972428
 20
188.22350287625658
 11
158.87161854305759
 21
188.35126020958989
  0
LINE
  8
_0-0_0
  6
CONTINUOUS
 62
    4
 10
158.87161854305759
 20
188.35126020958989
 11
158.9057798763909
 21
188.48099887625659
  0
LINE
  8
_0-0_0
  6
CONTINUOUS
 62
    4
 10
158.9057798763909
 20
188.48099887625659
 11
158.9171958763909
 21
188.61173220959
  0
LINE
  8
_0-0_0
  6
CONTINUOUS
 62
    4
 10
153.39600920972429
 20
191.79474420958999
 11
153.4395878763909
 21
191.79569620958989
  0
LINE
  8
_0-0_0
  6
CONTINUOUS
 62
    4
 10
153.4395878763909
 20
191.79569620958989
 11
153.4828332097243
 21
191.79854287625659
  0
LINE
  8
_0-0_0
  6
CONTINUOUS
 62
    4
 10
153.4828332097243
 20
191.79854287625659
 11
153.52541987639099
 21
191.80326287625658
  0
LINE
  8
_0-0_0
  6
CONTINUOUS
 62
    4
 10
153.52541987639099
 20
191.80326287625658
 11
153.56701987639098
 21
191.80982154292328
  0
LINE
  8
_0-0_0
  6
CONTINUOUS
 62
    4
 10
153.56701987639098
 20
191.80982154292328
 11
153.6073185430576
 21
191.81816820958988
  0
LINE
  8
_0-0_0
  6
CONTINUOUS
 62
    4
 10
153.6073185430576
 20
191.81816820958988
 11
153.64600920972429
 21
191.82823887625659
  0
LINE
  8
_0-0_0
  6
CONTINUOUS
 62
    4
 10
153.64600920972429
 20
191.82823887625659
 11
153.6827985430576
 21
191.8399562095899
  0
LINE
  8
_0-0_0
  6
CONTINUOUS
 62
    4
 10
153.6827985430576
 20
191.8399562095899
 11
153.7174038763909
 21
191.85323354292327
  0
LINE
  8
_0-0_0
  6
CONTINUOUS
 62
    4
 10
153.7174038763909
 20
191.85323354292327
 11
153.7495625430576
 21
191.86796820958988
  0
LINE
  8
_0-0_0
  6
CONTINUOUS
 62
    4
 10
153.7495625430576
 20
191.86796820958988
 11
153.77903187639088
 21
191.88404820958987
  0
LINE
  8
_0-0_0
  6
CONTINUOUS
 62
    4
 10
153.77903187639088
 20
191.88404820958987
 11
153.80558520972431
 21
191.9013508762566
  0
LINE
  8
_0-0_0
  6
CONTINUOUS
 62
    4
 10
153.80558520972431
 20
191.9013508762566
 11
153.82902254305759
 21
191.91974420958999
  0
LINE
  8
_0-0_0
  6
CONTINUOUS
 62
    4
 10
153.82902254305759
 20
191.91974420958999
 11
153.84916387639088
 21
191.93908954292328
  0
LINE
  8
_0-0_0
  6
CONTINUOUS
 62
    4
 10
153.84916387639088
 20
191.93908954292328
 11
153.865855876391
 21
191.95924020958989
  0
LINE
  8
_0-0_0
  6
CONTINUOUS
 62
    4
 10
153.865855876391
 20
191.95924020958989
 11
153.8789732097243
 21
191.9800402095899
  0
LINE
  8
_0-0_0
  6
CONTINUOUS
 62
    4
 10
153.8789732097243
 20
191.9800402095899
 11
153.88841320972429
 21
192.00133220958997
  0
LINE
  8
_0-0_0
  6
CONTINUOUS
 62
    4
 10
158.82719854305759
 20
175.11173220959
 11
159.17582254305759
 21
175.11934287625669
  0
LINE
  8
_0-0_0
  6
CONTINUOUS
 62
    4
 10
159.17582254305759
 20
175.11934287625669
 11
159.521791876391
 21
175.14211620959
  0
LINE
  8
_0-0_0
  6
CONTINUOUS
 62
    4
 10
159.521791876391
 20
175.14211620959
 11
159.8624745430576
 21
175.17988020958998
  0
LINE
  8
_0-0_0
  6
CONTINUOUS
 62
    4
 10
159.8624745430576
 20
175.17988020958998
 11
160.19527987639091
 21
175.23234687625659
  0
LINE
  8
_0-0_0
  6
CONTINUOUS
 62
    4
 10
160.19527987639091
 20
175.23234687625659
 11
160.51767187639089
 21
175.29911620958989
  0
LINE
  8
_0-0_0
  6
CONTINUOUS
 62
    4
 10
160.51767187639089
 20
175.29911620958989
 11
160.82719854305759
 21
175.37968154292329
  0
LINE
  8
_0-0_0
  6
CONTINUOUS
 62
    4
 10
160.82719854305759
 20
175.37968154292329
 11
161.1215052097242
 21
175.47342820958988
  0
LINE
  8
_0-0_0
  6
CONTINUOUS
 62
    4
 10
161.1215052097242
 20
175.47342820958988
 11
161.3983492097243
 21
175.57964287625659
  0
LINE
  8
_0-0_0
  6
CONTINUOUS
 62
    4
 10
161.3983492097243
 20
175.57964287625659
 11
161.65562654305759
 21
175.69751887625659
  0
LINE
  8
_0-0_0
  6
CONTINUOUS
 62
    4
 10
161.65562654305759
 20
175.69751887625659
 11
161.89137720972431
 21
175.82615620958989
  0
LINE
  8
_0-0_0
  6
CONTINUOUS
 62
    4
 10
161.89137720972431
 20
175.82615620958989
 11
162.1038065430576
 21
175.96457887625669
  0
LINE
  8
_0-0_0
  6
CONTINUOUS
 62
    4
 10
162.1038065430576
 20
175.96457887625669
 11
162.29129987639089
 21
176.11173220959
  0
LINE
  8
_0-0_0
  6
CONTINUOUS
 62
    4
 10
162.29129987639089
 20
176.11173220959
 11
162.4524305430576
 21
176.2664948762567
  0
LINE
  8
_0-0_0
  6
CONTINUOUS
 62
    4
 10
162.4524305430576
 20
176.2664948762567
 11
162.58596920972431
 21
176.42769220958999
  0
LINE
  8
_0-0_0
  6
CONTINUOUS
 62
    4
 10
162.58596920972431
 20
176.42769220958999
 11
162.6909025430576
 21
176.59409354292327
  0
LINE
  8
_0-0_0
  6
CONTINUOUS
 62
    4
 10
162.6909025430576
 20
176.59409354292327
 11
162.72467854305759
 21
176.6618295429233
  0
LINE
  8
_0-0_0
  6
CONTINUOUS
 62
    4
 10
158.82719854305759
 20
175.54474420958987
 11
159.17582254305759
 21
175.5523548762566
  0
LINE
  8
_0-0_0
  6
CONTINUOUS
 62
    4
 10
159.17582254305759
 20
175.5523548762566
 11
159.521791876391
 21
175.57512954292329
  0
LINE
  8
_0-0_0
  6
CONTINUOUS
 62
    4
 10
159.521791876391
 20
175.57512954292329
 11
159.8624745430576
 21
175.6128935429233
  0
LINE
  8
_0-0_0
  6
CONTINUOUS
 62
    4
 10
159.8624745430576
 20
175.6128935429233
 11
160.19527987639091
 21
175.66535887625659
  0
LINE
  8
_0-0_0
  6
CONTINUOUS
 62
    4
 10
160.19527987639091
 20
175.66535887625659
 11
160.51767187639089
 21
175.73212954292327
  0
LINE
  8
_0-0_0
  6
CONTINUOUS
 62
    4
 10
160.51767187639089
 20
175.73212954292327
 11
160.82719854305759
 21
175.81269354292328
  0
LINE
  8
_0-0_0
  6
CONTINUOUS
 62
    4
 10
160.82719854305759
 20
175.81269354292328
 11
161.1215052097242
 21
175.90644020958987
  0
LINE
  8
_0-0_0
  6
CONTINUOUS
 62
    4
 10
161.1215052097242
 20
175.90644020958987
 11
161.3983492097243
 21
176.01265620958997
  0
LINE
  8
_0-0_0
  6
CONTINUOUS
 62
    4
 10
161.3983492097243
 20
176.01265620958997
 11
161.65562654305759
 21
176.13053087625658
  0
LINE
  8
_0-0_0
  6
CONTINUOUS
 62
    4
 10
161.65562654305759
 20
176.13053087625658
 11
161.89137720972431
 21
176.25916954292327
  0
LINE
  8
_0-0_0
  6
CONTINUOUS
 62
    4
 10
161.89137720972431
 20
176.25916954292327
 11
162.1038065430576
 21
176.3975922095899
  0
LINE
  8
_0-0_0
  6
CONTINUOUS
 62
    4
 10
162.1038065430576
 20
176.3975922095899
 11
162.29129987639089
 21
176.54474420958987
  0
LINE
  8
_0-0_0
  6
CONTINUOUS
 62
    4
 10
162.29129987639089
 20
176.54474420958987
 11
162.4524305430576
 21
176.69950820958987
  0
LINE
  8
_0-0_0
  6
CONTINUOUS
 62
    4
 10
162.4524305430576
 20
176.69950820958987
 11
162.58596920972431
 21
176.86070420958998
  0
LINE
  8
_0-0_0
  6
CONTINUOUS
 62
    4
 10
162.58596920972431
 20
176.86070420958998
 11
162.6909025430576
 21
177.02710687625659
  0
LINE
  8
_0-0_0
  6
CONTINUOUS
 62
    4
 10
162.6909025430576
 20
177.02710687625659
 11
162.72467854305759
 21
177.09484287625659
  0
LINE
  8
_0-0_0
  6
CONTINUOUS
 62
    4
 10
158.91119854305759
 20
179.79474420958987
 11
158.97220787639091
 21
179.79607620958998
  0
LINE
  8
_0-0_0
  6
CONTINUOUS
 62
    4
 10
158.97220787639091
 20
179.79607620958998
 11
159.03275320972429
 21
179.80006154292328
  0
LINE
  8
_0-0_0
  6
CONTINUOUS
 62
    4
 10
159.03275320972429
 20
179.80006154292328
 11
159.09237187639101
 21
179.80667087625658
  0
LINE
  8
_0-0_0
  6
CONTINUOUS
 62
    4
 10
159.09237187639101
 20
179.80667087625658
 11
159.15061320972421
 21
179.81585220958999
  0
LINE
  8
_0-0_0
  6
CONTINUOUS
 62
    4
 10
159.15061320972421
 20
179.81585220958999
 11
159.20703187639091
 21
179.82753754292318
  0
LINE
  8
_0-0_0
  6
CONTINUOUS
 62
    4
 10
159.20703187639091
 20
179.82753754292318
 11
159.26119854305758
 21
179.84163620958997
  0
LINE
  8
_0-0_0
  6
CONTINUOUS
 62
    4
 10
159.26119854305758
 20
179.84163620958997
 11
159.31270254305761
 21
179.85804154292327
  0
LINE
  8
_0-0_0
  6
CONTINUOUS
 62
    4
 10
159.31270254305761
 20
179.85804154292327
 11
159.36115054305759
 21
179.87662954292329
  0
LINE
  8
_0-0_0
  6
CONTINUOUS
 62
    4
 10
159.36115054305759
 20
179.87662954292329
 11
159.40617320972418
 21
179.89725754292328
  0
LINE
  8
_0-0_0
  6
CONTINUOUS
 62
    4
 10
159.40617320972418
 20
179.89725754292328
 11
159.4474305430576
 21
179.91976954292329
  0
LINE
  8
_0-0_0
  6
CONTINUOUS
 62
    4
 10
159.4474305430576
 20
179.91976954292329
 11
159.48460520972429
 21
179.94399220958987
  0
LINE
  8
_0-0_0
  6
CONTINUOUS
 62
    4
 10
159.48460520972429
 20
179.94399220958987
 11
159.5174172097243
 21
179.96974420958997
  0
LINE
  8
_0-0_0
  6
CONTINUOUS
 62
    4
 10
159.5174172097243
 20
179.96974420958997
 11
159.54561454305761
 21
179.99682820958997
  0
LINE
  8
_0-0_0
  6
CONTINUOUS
 62
    4
 10
159.54561454305761
 20
179.99682820958997
 11
159.55555187639089
 21
180.00798820958999
  0
LINE
  8
_0-0_0
  6
CONTINUOUS
 62
    4
 10
159.14164787639089
 20
163.11173220959
 11
159.57742654305761
 21
163.12124554292327
  0
LINE
  8
_0-0_0
  6
CONTINUOUS
 62
    4
 10
159.57742654305761
 20
163.12124554292327
 11
160.00988920972429
 21
163.14971220958989
  0
LINE
  8
_0-0_0
  6
CONTINUOUS
 62
    4
 10
160.00988920972429
 20
163.14971220958989
 11
160.43574387639088
 21
163.1969175429233
  0
LINE
  8
_0-0_0
  6
CONTINUOUS
 62
    4
 10
160.43574387639088
 20
163.1969175429233
 11
160.8517492097242
 21
163.26250020959
  0
LINE
  8
_0-0_0
  6
CONTINUOUS
 62
    4
 10
160.8517492097242
 20
163.26250020959
 11
161.25473987639091
 21
163.34596287625657
  0
LINE
  8
_0-0_0
  6
CONTINUOUS
 62
    4
 10
161.25473987639091
 20
163.34596287625657
 11
161.64164787639089
 21
163.44666820958988
  0
LINE
  8
_0-0_0
  6
CONTINUOUS
 62
    4
 10
161.64164787639089
 20
163.44666820958988
 11
162.00953054305759
 21
163.56385220958998
  0
LINE
  8
_0-0_0
  6
CONTINUOUS
 62
    4
 10
162.00953054305759
 20
163.56385220958998
 11
162.35558654305759
 21
163.69662020958998
  0
LINE
  8
_0-0_0
  6
CONTINUOUS
 62
    4
 10
162.35558654305759
 20
163.69662020958998
 11
162.67718254305759
 21
163.84396554292328
  0
LINE
  8
_0-0_0
  6
CONTINUOUS
 62
    4
 10
162.67718254305759
 20
163.84396554292328
 11
162.9718705430576
 21
164.00476287625659
  0
LINE
  8
_0-0_0
  6
CONTINUOUS
 62
    4
 10
162.9718705430576
 20
164.00476287625659
 11
163.2374078763909
 21
164.17779087625669
  0
LINE
  8
_0-0_0
  6
CONTINUOUS
 62
    4
 10
163.2374078763909
 20
164.17779087625669
 11
163.47177454305759
 21
164.36173220959
  0
LINE
  8
_0-0_0
  6
CONTINUOUS
 62
    4
 10
163.47177454305759
 20
164.36173220959
 11
163.67318654305759
 21
164.55518687625658
  0
LINE
  8
_0-0_0
  6
CONTINUOUS
 62
    4
 10
163.67318654305759
 20
164.55518687625658
 11
163.7441718763909
 21
164.63490420958987
  0
LINE
  8
_0-0_0
  6
CONTINUOUS
 62
    4
 10
159.14164787639089
 20
163.54474420958999
 11
159.57742654305761
 21
163.55425754292329
  0
LINE
  8
_0-0_0
  6
CONTINUOUS
 62
    4
 10
159.57742654305761
 20
163.55425754292329
 11
160.00988920972429
 21
163.58272554292329
  0
LINE
  8
_0-0_0
  6
CONTINUOUS
 62
    4
 10
160.00988920972429
 20
163.58272554292329
 11
160.43574387639088
 21
163.62992954292329
  0
LINE
  8
_0-0_0
  6
CONTINUOUS
 62
    4
 10
160.43574387639088
 20
163.62992954292329
 11
160.8517492097242
 21
163.69551354292318
  0
LINE
  8
_0-0_0
  6
CONTINUOUS
 62
    4
 10
160.8517492097242
 20
163.69551354292318
 11
161.25473987639091
 21
163.77897487625659
  0
LINE
  8
_0-0_0
  6
CONTINUOUS
 62
    4
 10
161.25473987639091
 20
163.77897487625659
 11
161.64164787639089
 21
163.87968154292329
  0
LINE
  8
_0-0_0
  6
CONTINUOUS
 62
    4
 10
161.64164787639089
 20
163.87968154292329
 11
162.00953054305759
 21
163.99686420959
  0
LINE
  8
_0-0_0
  6
CONTINUOUS
 62
    4
 10
162.00953054305759
 20
163.99686420959
 11
162.35558654305759
 21
164.12963354292318
  0
LINE
  8
_0-0_0
  6
CONTINUOUS
 62
    4
 10
162.35558654305759
 20
164.12963354292318
 11
162.67718254305759
 21
164.27697754292327
  0
LINE
  8
_0-0_0
  6
CONTINUOUS
 62
    4
 10
162.67718254305759
 20
164.27697754292327
 11
162.9718705430576
 21
164.43777620958988
  0
LINE
  8
_0-0_0
  6
CONTINUOUS
 62
    4
 10
162.9718705430576
 20
164.43777620958988
 11
163.2374078763909
 21
164.61080287625659
  0
LINE
  8
_0-0_0
  6
CONTINUOUS
 62
    4
 10
163.2374078763909
 20
164.61080287625659
 11
163.47177454305759
 21
164.79474420958999
  0
LINE
  8
_0-0_0
  6
CONTINUOUS
 62
    4
 10
163.47177454305759
 20
164.79474420958999
 11
163.67318654305759
 21
164.98819887625657
  0
LINE
  8
_0-0_0
  6
CONTINUOUS
 62
    4
 10
163.67318654305759
 20
164.98819887625657
 11
163.7441718763909
 21
165.06791620958989
  0
LINE
  8
_0-0_0
  6
CONTINUOUS
 62
    4
 10
160.885491876391
 20
167.79474420958999
 11
160.9726478763909
 21
167.7966468762566
  0
LINE
  8
_0-0_0
  6
CONTINUOUS
 62
    4
 10
160.9726478763909
 20
167.7966468762566
 11
161.0591398763909
 21
167.80234020958999
  0
LINE
  8
_0-0_0
  6
CONTINUOUS
 62
    4
 10
161.0591398763909
 20
167.80234020958999
 11
161.14431054305759
 21
167.81178154292328
  0
LINE
  8
_0-0_0
  6
CONTINUOUS
 62
    4
 10
161.14431054305759
 20
167.81178154292328
 11
161.2275118763909
 21
167.82489887625669
  0
LINE
  8
_0-0_0
  6
CONTINUOUS
 62
    4
 10
161.2275118763909
 20
167.82489887625669
 11
161.3081105430576
 21
167.84159087625658
  0
LINE
  8
_0-0_0
  6
CONTINUOUS
 62
    4
 10
161.3081105430576
 20
167.84159087625658
 11
161.385491876391
 21
167.86173220959
  0
LINE
  8
_0-0_0
  6
CONTINUOUS
 62
    4
 10
161.385491876391
 20
167.86173220959
 11
161.459067876391
 21
167.88516820958989
  0
LINE
  8
_0-0_0
  6
CONTINUOUS
 62
    4
 10
161.459067876391
 20
167.88516820958989
 11
161.52827987639091
 21
167.91172287625659
  0
LINE
  8
_0-0_0
  6
CONTINUOUS
 62
    4
 10
161.52827987639091
 20
167.91172287625659
 11
161.59259854305759
 21
167.94119087625659
  0
LINE
  8
_0-0_0
  6
CONTINUOUS
 62
    4
 10
161.59259854305759
 20
167.94119087625659
 11
161.6515358763909
 21
167.97335087625657
  0
LINE
  8
_0-0_0
  6
CONTINUOUS
 62
    4
 10
156.3252038763909
 20
151.11173220959
 11
156.9352945430576
 21
151.12505087625658
  0
LINE
  8
_0-0_0
  6
CONTINUOUS
 62
    4
 10
156.9352945430576
 20
151.12505087625658
 11
157.54074120972418
 21
151.16490420958987
  0
LINE
  8
_0-0_0
  6
CONTINUOUS
 62
    4
 10
157.54074120972418
 20
151.16490420958987
 11
158.13693720972429
 21
151.23099087625658
  0
LINE
  8
_0-0_0
  6
CONTINUOUS
 62
    4
 10
158.13693720972429
 20
151.23099087625658
 11
158.7193452097243
 21
151.32280820958987
  0
LINE
  8
_0-0_0
  6
CONTINUOUS
 62
    4
 10
158.7193452097243
 20
151.32280820958987
 11
159.28353187639089
 21
151.43965487625658
  0
LINE
  8
_0-0_0
  6
CONTINUOUS
 62
    4
 10
159.28353187639089
 20
151.43965487625658
 11
159.8252038763909
 21
151.58064287625657
  0
LINE
  8
_0-0_0
  6
CONTINUOUS
 62
    4
 10
159.8252038763909
 20
151.58064287625657
 11
160.3402385430576
 21
151.74470020958989
  0
LINE
  8
_0-0_0
  6
CONTINUOUS
 62
    4
 10
160.3402385430576
 20
151.74470020958989
 11
160.82471720972421
 21
151.9305762095899
  0
LINE
  8
_0-0_0
  6
CONTINUOUS
 62
    4
 10
160.82471720972421
 20
151.9305762095899
 11
161.2749518763909
 21
152.13685754292328
  0
LINE
  8
_0-0_0
  6
CONTINUOUS
 62
    4
 10
161.2749518763909
 20
152.13685754292328
 11
161.6875145430576
 21
152.36197487625659
  0
LINE
  8
_0-0_0
  6
CONTINUOUS
 62
    4
 10
161.6875145430576
 20
152.36197487625659
 11
162.05926787639089
 21
152.60421487625657
  0
LINE
  8
_0-0_0
  6
CONTINUOUS
 62
    4
 10
162.05926787639089
 20
152.60421487625657
 11
162.26154120972429
 21
152.75701487625659
  0
LINE
  8
_0-0_0
  6
CONTINUOUS
 62
    4
 10
156.3252038763909
 20
151.54474420958987
 11
156.9352945430576
 21
151.55806287625659
  0
LINE
  8
_0-0_0
  6
CONTINUOUS
 62
    4
 10
156.9352945430576
 20
151.55806287625659
 11
157.54074120972418
 21
151.59791754292328
  0
LINE
  8
_0-0_0
  6
CONTINUOUS
 62
    4
 10
157.54074120972418
 20
151.59791754292328
 11
158.13693720972429
 21
151.66400420958987
  0
LINE
  8
_0-0_0
  6
CONTINUOUS
 62
    4
 10
158.13693720972429
 20
151.66400420958987
 11
158.7193452097243
 21
151.75582020958989
  0
LINE
  8
_0-0_0
  6
CONTINUOUS
 62
    4
 10
158.7193452097243
 20
151.75582020958989
 11
159.28353187639089
 21
151.8726668762566
  0
LINE
  8
_0-0_0
  6
CONTINUOUS
 62
    4
 10
159.28353187639089
 20
151.8726668762566
 11
159.8252038763909
 21
152.01365620958989
  0
LINE
  8
_0-0_0
  6
CONTINUOUS
 62
    4
 10
159.8252038763909
 20
152.01365620958989
 11
160.3402385430576
 21
152.17771220958999
  0
LINE
  8
_0-0_0
  6
CONTINUOUS
 62
    4
 10
160.3402385430576
 20
152.17771220958999
 11
160.82471720972421
 21
152.36358954292327
  0
LINE
  8
_0-0_0
  6
CONTINUOUS
 62
    4
 10
160.82471720972421
 20
152.36358954292327
 11
161.2749518763909
 21
152.5698708762566
  0
LINE
  8
_0-0_0
  6
CONTINUOUS
 62
    4
 10
161.2749518763909
 20
152.5698708762566
 11
161.6875145430576
 21
152.79498820959
  0
LINE
  8
_0-0_0
  6
CONTINUOUS
 62
    4
 10
161.6875145430576
 20
152.79498820959
 11
162.05926787639089
 21
153.03722687625659
  0
LINE
  8
_0-0_0
  6
CONTINUOUS
 62
    4
 10
162.05926787639089
 20
153.03722687625659
 11
162.26154120972429
 21
153.19002687625658
  0
LINE
  8
_0-0_0
  6
CONTINUOUS
 62
    4
 10
160.2965505430576
 20
155.79474420958987
 11
160.40113720972419
 21
155.79702820958999
  0
LINE
  8
_0-0_0
  6
CONTINUOUS
 62
    4
 10
160.40113720972419
 20
155.79702820958999
 11
160.50492787639089
 21
155.80386020958999
  0
LINE
  8
_0-0_0
  6
CONTINUOUS
 62
    4
 10
160.50492787639089
 20
155.80386020958999
 11
160.60713320972431
 21
155.81518954292329
  0
LINE
  8
_0-0_0
  6
CONTINUOUS
 62
    4
 10
160.60713320972431
 20
155.81518954292329
 11
160.70697454305761
 21
155.83092954292328
  0
LINE
  8
_0-0_0
  6
CONTINUOUS
 62
    4
 10
160.70697454305761
 20
155.83092954292328
 11
160.8036918763909
 21
155.85096020958999
  0
LINE
  8
_0-0_0
  6
CONTINUOUS
 62
    4
 10
160.8036918763909
 20
155.85096020958999
 11
160.8965505430576
 21
155.87512954292327
  0
LINE
  8
_0-0_0
  6
CONTINUOUS
 62
    4
 10
160.8965505430576
 20
155.87512954292327
 11
160.98484254305759
 21
155.90325354292329
  0
LINE
  8
_0-0_0
  6
CONTINUOUS
 62
    4
 10
160.98484254305759
 20
155.90325354292329
 11
161.06789587639099
 21
155.93511754292327
  0
LINE
  8
_0-0_0
  6
CONTINUOUS
 62
    4
 10
149.5385278763909
 20
139.11173220959
 11
150.41008520972428
 21
139.13075887625657
  0
LINE
  8
_0-0_0
  6
CONTINUOUS
 62
    4
 10
150.41008520972428
 20
139.13075887625657
 11
151.27501054305758
 21
139.18769354292328
  0
LINE
  8
_0-0_0
  6
CONTINUOUS
 62
    4
 10
151.27501054305758
 20
139.18769354292328
 11
152.12671854305759
 21
139.2821028762566
  0
LINE
  8
_0-0_0
  6
CONTINUOUS
 62
    4
 10
152.12671854305759
 20
139.2821028762566
 11
152.95872920972431
 21
139.41326820958988
  0
LINE
  8
_0-0_0
  6
CONTINUOUS
 62
    4
 10
152.95872920972431
 20
139.41326820958988
 11
153.76471054305758
 21
139.58019354292329
  0
LINE
  8
_0-0_0
  6
CONTINUOUS
 62
    4
 10
153.76471054305758
 20
139.58019354292329
 11
154.5385278763909
 21
139.78160554292318
  0
LINE
  8
_0-0_0
  6
CONTINUOUS
 62
    4
 10
154.5385278763909
 20
139.78160554292318
 11
155.2742932097243
 21
140.01597220958998
  0
LINE
  8
_0-0_0
  6
CONTINUOUS
 62
    4
 10
155.2742932097243
 20
140.01597220958998
 11
155.96640387639101
 21
140.28150954292328
  0
LINE
  8
_0-0_0
  6
CONTINUOUS
 62
    4
 10
155.96640387639101
 20
140.28150954292328
 11
156.60959587639101
 21
140.57619754292329
  0
LINE
  8
_0-0_0
  6
CONTINUOUS
 62
    4
 10
156.60959587639101
 20
140.57619754292329
 11
156.73192654305759
 21
140.63844020958998
  0
LINE
  8
_0-0_0
  6
CONTINUOUS
 62
    4
 10
149.5385278763909
 20
139.54474420958999
 11
150.41008520972428
 21
139.56377087625659
  0
LINE
  8
_0-0_0
  6
CONTINUOUS
 62
    4
 10
150.41008520972428
 20
139.56377087625659
 11
151.27501054305758
 21
139.62070554292327
  0
LINE
  8
_0-0_0
  6
CONTINUOUS
 62
    4
 10
151.27501054305758
 20
139.62070554292327
 11
152.12671854305759
 21
139.71511487625659
  0
LINE
  8
_0-0_0
  6
CONTINUOUS
 62
    4
 10
152.12671854305759
 20
139.71511487625659
 11
152.95872920972431
 21
139.84628154292329
  0
LINE
  8
_0-0_0
  6
CONTINUOUS
 62
    4
 10
152.95872920972431
 20
139.84628154292329
 11
153.76471054305758
 21
140.01320554292328
  0
LINE
  8
_0-0_0
  6
CONTINUOUS
 62
    4
 10
153.76471054305758
 20
140.01320554292328
 11
154.5385278763909
 21
140.21461754292329
  0
LINE
  8
_0-0_0
  6
CONTINUOUS
 62
    4
 10
154.5385278763909
 20
140.21461754292329
 11
155.2742932097243
 21
140.44898420958998
  0
LINE
  8
_0-0_0
  6
CONTINUOUS
 62
    4
 10
155.2742932097243
 20
140.44898420958998
 11
155.96640387639101
 21
140.71452287625658
  0
LINE
  8
_0-0_0
  6
CONTINUOUS
 62
    4
 10
155.96640387639101
 20
140.71452287625658
 11
156.60959587639101
 21
141.00921087625658
  0
LINE
  8
_0-0_0
  6
CONTINUOUS
 62
    4
 10
156.60959587639101
 20
141.00921087625658
 11
156.73192654305759
 21
141.07145220958989
  0
LINE
  8
_0-0_0
  6
CONTINUOUS
 62
    4
 10
156.7874532097243
 20
143.79474420958999
 11
156.9181865430576
 21
143.79759887625658
  0
LINE
  8
_0-0_0
  6
CONTINUOUS
 62
    4
 10
156.9181865430576
 20
143.79759887625658
 11
157.04792520972421
 21
143.80613887625659
  0
LINE
  8
_0-0_0
  6
CONTINUOUS
 62
    4
 10
157.04792520972421
 20
143.80613887625659
 11
157.1756812097243
 21
143.8203002095899
  0
LINE
  8
_0-0_0
  6
CONTINUOUS
 62
    4
 10
157.1756812097243
 20
143.8203002095899
 11
157.30048387639089
 21
143.83997487625657
  0
LINE
  8
_0-0_0
  6
CONTINUOUS
 62
    4
 10
157.30048387639089
 20
143.83997487625657
 11
157.4213812097243
 21
143.86501354292329
  0
LINE
  8
_0-0_0
  6
CONTINUOUS
 62
    4
 10
157.4213812097243
 20
143.86501354292329
 11
157.5374532097243
 21
143.89522554292329
  0
LINE
  8
_0-0_0
  6
CONTINUOUS
 62
    4
 10
157.5374532097243
 20
143.89522554292329
 11
157.6478172097243
 21
143.93038020958988
  0
LINE
  8
_0-0_0
  6
CONTINUOUS
 62
    4
 10
134.5707238763909
 20
127.11173220958998
 11
136.7496172097243
 21
127.15929754292328
  0
LINE
  8
_0-0_0
  6
CONTINUOUS
 62
    4
 10
136.7496172097243
 20
127.15929754292328
 11
138.91192920972429
 21
127.30163487625658
  0
LINE
  8
_0-0_0
  6
CONTINUOUS
 62
    4
 10
138.91192920972429
 20
127.30163487625658
 11
141.04119987639089
 21
127.53765887625658
  0
LINE
  8
_0-0_0
  6
CONTINUOUS
 62
    4
 10
141.04119987639089
 20
127.53765887625658
 11
143.12122787639088
 21
127.86557354292328
  0
LINE
  8
_0-0_0
  6
CONTINUOUS
 62
    4
 10
143.12122787639088
 20
127.86557354292328
 11
145.13618120972429
 21
128.28288420958989
  0
LINE
  8
_0-0_0
  6
CONTINUOUS
 62
    4
 10
145.13618120972429
 20
128.28288420958989
 11
147.0707238763909
 21
128.7864148762566
  0
LINE
  8
_0-0_0
  6
CONTINUOUS
 62
    4
 10
147.0707238763909
 20
128.7864148762566
 11
148.5505465430576
 21
129.24876287625659
  0
LINE
  8
_0-0_0
  6
CONTINUOUS
 62
    4
 10
134.5707238763909
 20
127.54474420958999
 11
136.7496172097243
 21
127.59231087625659
  0
LINE
  8
_0-0_0
  6
CONTINUOUS
 62
    4
 10
136.7496172097243
 20
127.59231087625659
 11
138.91192920972429
 21
127.73464820958999
  0
LINE
  8
_0-0_0
  6
CONTINUOUS
 62
    4
 10
138.91192920972429
 20
127.73464820958999
 11
141.04119987639089
 21
127.97067220958999
  0
LINE
  8
_0-0_0
  6
CONTINUOUS
 62
    4
 10
141.04119987639089
 20
127.97067220958999
 11
143.12122787639088
 21
128.29858687625659
  0
LINE
  8
_0-0_0
  6
CONTINUOUS
 62
    4
 10
143.12122787639088
 20
128.29858687625659
 11
145.13618120972429
 21
128.7158975429233
  0
LINE
  8
_0-0_0
  6
CONTINUOUS
 62
    4
 10
145.13618120972429
 20
128.7158975429233
 11
147.0707238763909
 21
129.21942687625659
  0
LINE
  8
_0-0_0
  6
CONTINUOUS
 62
    4
 10
147.0707238763909
 20
129.21942687625659
 11
148.5505465430576
 21
129.68177487625658
  0
LINE
  8
_0-0_0
  6
CONTINUOUS
 62
    4
 10
149.74073054305759
 20
131.79474420958987
 11
149.89761187639089
 21
131.79816954292329
  0
LINE
  8
_0-0_0
  6
CONTINUOUS
 62
    4
 10
149.89761187639089
 20
131.79816954292329
 11
150.05329720972429
 21
131.80841754292328
  0
LINE
  8
_0-0_0
  6
CONTINUOUS
 62
    4
 10
150.05329720972429
 20
131.80841754292328
 11
150.20660520972418
 21
131.82541087625659
  0
LINE
  8
_0-0_0
  6
CONTINUOUS
 62
    4
 10
150.20660520972418
 20
131.82541087625659
 11
150.35636787639089
 21
131.84902154292328
  0
LINE
  8
_0-0_0
  6
CONTINUOUS
 62
    4
 10
150.35636787639089
 20
131.84902154292328
 11
150.5014438763909
 21
131.87906820959
  0
LINE
  8
_0-0_0
  6
CONTINUOUS
 62
    4
 10
150.5014438763909
 20
131.87906820959
 11
150.6407305430576
 21
131.91532154292329
  0
LINE
  8
_0-0_0
  6
CONTINUOUS
 62
    4
 10
150.6407305430576
 20
131.91532154292329
 11
150.6945852097242
 21
131.93150154292328
  0
LINE
  8
_0-0_0
  6
CONTINUOUS
 62
    4
 10
113.67497054305759
 20
115.54474420958999
 11
118.2942238763909
 21
115.64558554292328
  0
LINE
  8
_0-0_0
  6
CONTINUOUS
 62
    4
 10
118.2942238763909
 20
115.64558554292328
 11
122.87832387639089
 21
115.94733887625659
  0
LINE
  8
_0-0_0
  6
CONTINUOUS
 62
    4
 10
122.87832387639089
 20
115.94733887625659
 11
127.3923798763909
 21
116.44771087625659
  0
LINE
  8
_0-0_0
  6
CONTINUOUS
 62
    4
 10
127.3923798763909
 20
116.44771087625659
 11
131.80203720972428
 21
117.14288954292318
  0
LINE
  8
_0-0_0
  6
CONTINUOUS
 62
    4
 10
131.80203720972428
 20
117.14288954292318
 11
136.0737385430576
 21
118.02758820958999
  0
LINE
  8
_0-0_0
  6
CONTINUOUS
 62
    4
 10
136.0737385430576
 20
118.02758820958999
 11
140.17497054305761
 21
119.09507087625658
  0
LINE
  8
_0-0_0
  6
CONTINUOUS
 62
    4
 10
140.17497054305761
 20
119.09507087625658
 11
143.22154654305759
 21
120.04474554292329
  0
LINE
  8
_0-0_0
  6
CONTINUOUS
 62
    4
 10
113.67497054305759
 20
115.11173220958998
 11
118.2942238763909
 21
115.21257220958999
  0
LINE
  8
_0-0_0
  6
CONTINUOUS
 62
    4
 10
118.2942238763909
 20
115.21257220958999
 11
122.87832387639089
 21
115.51432687625658
  0
LINE
  8
_0-0_0
  6
CONTINUOUS
 62
    4
 10
122.87832387639089
 20
115.51432687625658
 11
127.3923798763909
 21
116.01469754292328
  0
LINE
  8
_0-0_0
  6
CONTINUOUS
 62
    4
 10
127.3923798763909
 20
116.01469754292328
 11
131.80203720972428
 21
116.70987754292329
  0
LINE
  8
_0-0_0
  6
CONTINUOUS
 62
    4
 10
131.80203720972428
 20
116.70987754292329
 11
136.0737385430576
 21
117.59457620958998
  0
LINE
  8
_0-0_0
  6
CONTINUOUS
 62
    4
 10
136.0737385430576
 20
117.59457620958998
 11
140.17497054305761
 21
118.66205887625659
  0
LINE
  8
_0-0_0
  6
CONTINUOUS
 62
    4
 10
140.17497054305761
 20
118.66205887625659
 11
143.22154654305759
 21
119.61173354292328
  0
LINE
  8
_0-0_0
  6
CONTINUOUS
 62
    4
 10
137.23465454305758
 20
119.79474420958999
 11
137.4089665430576
 21
119.79854954292328
  0
LINE
  8
_0-0_0
  6
CONTINUOUS
 62
    4
 10
137.4089665430576
 20
119.79854954292328
 11
137.581951876391
 21
119.80993620958999
  0
LINE
  8
_0-0_0
  6
CONTINUOUS
 62
    4
 10
137.581951876391
 20
119.80993620958999
 11
137.75229320972431
 21
119.82881887625659
  0
LINE
  8
_0-0_0
  6
CONTINUOUS
 62
    4
 10
137.75229320972431
 20
119.82881887625659
 11
137.91869587639101
 21
119.85505220958998
  0
LINE
  8
_0-0_0
  6
CONTINUOUS
 62
    4
 10
137.91869587639101
 20
119.85505220958998
 11
138.07989187639088
 21
119.88843620958998
  0
LINE
  8
_0-0_0
  6
CONTINUOUS
 62
    4
 10
138.07989187639088
 20
119.88843620958998
 11
138.11139720972428
 21
119.89595087625659
  0
LINE
  8
_0-2_0-10
  6
CONTINUOUS
 62
    7
 10
112.54425185237779
 20
167.794744213537
 11
112.3582452097243
 21
166.66309620958998
  0
LINE
  8
_0-2_0-10
  6
CONTINUOUS
 62
    7
 10
112.3582452097243
 20
166.66309620958998
 11
112.17363987639089
 21
165.14631620958999
  0
LINE
  8
_0-2_0-10
  6
CONTINUOUS
 62
    7
 10
112.17363987639089
 20
165.14631620958999
 11
112.04472787639089
 21
163.61595220958997
  0
LINE
  8
_0-2_0-10
  6
CONTINUOUS
 62
    7
 10
112.04472787639089
 20
163.61595220958997
 11
112.01865770889939
 21
163.11173225271917
  0
LINE
  8
_0-2_0-10
  6
CONTINUOUS
 62
    7
 10
112.01865770889939
 20
163.11173225271917
 11
111.96497720972429
 21
162.07350420958999
  0
LINE
  8
_0-2_0-10
  6
CONTINUOUS
 62
    7
 10
111.96497720972429
 20
162.07350420958999
 11
111.9278518763909
 21
160.52047220958988
  0
LINE
  8
_0-2_0-10
  6
CONTINUOUS
 62
    7
 10
111.9278518763909
 20
160.52047220958988
 11
111.92682120972429
 21
158.95835487625657
  0
LINE
  8
_0-2_0-10
  6
CONTINUOUS
 62
    7
 10
111.92682120972429
 20
158.95835487625657
 11
111.9553492097243
 21
157.38865220958999
  0
LINE
  8
_0-2_0-10
  6
CONTINUOUS
 62
    7
 10
111.9553492097243
 20
157.38865220958999
 11
112.00690387639089
 21
155.81286420958997
  0
LINE
  8
_0-2_0-10
  6
CONTINUOUS
 62
    7
 10
112.00690387639089
 20
155.81286420958997
 11
112.0076840899605
 21
155.79474420958987
  0
LINE
  8
_0-2_0-10
  6
CONTINUOUS
 62
    7
 10
112.0076840899605
 20
155.79474420958987
 11
112.07495187639099
 21
154.23248954292327
  0
LINE
  8
_0-2_0-10
  6
CONTINUOUS
 62
    7
 10
112.07495187639099
 20
154.23248954292327
 11
112.15295987639089
 21
152.6490295429233
  0
LINE
  8
_0-2_0-10
  6
CONTINUOUS
 62
    7
 10
112.15295987639089
 20
152.6490295429233
 11
112.23194028597579
 21
151.11172743554089
  0
LINE
  8
_0-2_0-10
  6
CONTINUOUS
 62
    7
 10
112.23194028597579
 20
151.11172743554089
 11
112.2343932097242
 21
151.06398287625657
  0
LINE
  8
_0-2_0-10
  6
CONTINUOUS
 62
    7
 10
112.2343932097242
 20
151.06398287625657
 11
112.3127198763909
 21
149.47884820958989
  0
LINE
  8
_0-2_0-10
  6
CONTINUOUS
 62
    7
 10
112.3127198763909
 20
149.47884820958989
 11
112.38140654305759
 21
147.89512820958998
  0
LINE
  8
_0-2_0-10
  6
CONTINUOUS
 62
    7
 10
112.38140654305759
 20
147.89512820958998
 11
112.433919876391
 21
146.31431887625657
  0
LINE
  8
_0-2_0-10
  6
CONTINUOUS
 62
    7
 10
112.433919876391
 20
146.31431887625657
 11
112.4637252097243
 21
144.73792287625659
  0
LINE
  8
_0-2_0-10
  6
CONTINUOUS
 62
    7
 10
112.4637252097243
 20
144.73792287625659
 11
112.4640647294772
 21
143.79474420941707
  0
LINE
  8
_0-2_0-10
  6
CONTINUOUS
 62
    7
 10
112.4640647294772
 20
143.79474420941707
 11
112.4642905430576
 21
143.16743887625659
  0
LINE
  8
_0-2_0-10
  6
CONTINUOUS
 62
    7
 10
112.4642905430576
 20
143.16743887625659
 11
112.4290825430576
 21
141.60436554292328
  0
LINE
  8
_0-2_0-10
  6
CONTINUOUS
 62
    7
 10
112.4290825430576
 20
141.60436554292328
 11
112.3515665430576
 21
140.05020420958999
  0
LINE
  8
_0-2_0-10
  6
CONTINUOUS
 62
    7
 10
112.3515665430576
 20
140.05020420958999
 11
112.2747517950242
 21
139.11173221624989
  0
LINE
  8
_0-2_0-10
  6
CONTINUOUS
 62
    7
 10
112.2747517950242
 20
139.11173221624989
 11
112.22520920972429
 21
138.50645354292328
  0
LINE
  8
_0-2_0-10
  6
CONTINUOUS
 62
    7
 10
112.22520920972429
 20
138.50645354292328
 11
112.0434785430576
 21
136.97461220958999
  0
LINE
  8
_0-2_0-10
  6
CONTINUOUS
 62
    7
 10
112.0434785430576
 20
136.97461220958999
 11
111.74158787639089
 21
135.12887487625658
  0
LINE
  8
_0-2_0-10
  6
CONTINUOUS
 62
    7
 10
111.74158787639089
 20
135.12887487625658
 11
111.3557425430576
 21
133.30123087625659
  0
LINE
  8
_0-2_0-10
  6
CONTINUOUS
 62
    7
 10
111.3557425430576
 20
133.30123087625659
 11
110.97135067666489
 21
131.79474420958987
  0
LINE
  8
_0-2_0-10
  6
CONTINUOUS
 62
    7
 10
110.97135067666489
 20
131.79474420958987
 11
110.89357720972429
 21
131.48993887625658
  0
LINE
  8
_0-2_0-10
  6
CONTINUOUS
 62
    7
 10
110.89357720972429
 20
131.48993887625658
 11
110.362727876391
 21
129.69325354292328
  0
LINE
  8
_0-2_0-10
  6
CONTINUOUS
 62
    7
 10
110.362727876391
 20
129.69325354292328
 11
109.77082920972429
 21
127.90943087625659
  0
LINE
  8
_0-2_0-10
  6
CONTINUOUS
 62
    7
 10
109.77082920972429
 20
127.90943087625659
 11
109.48044524758229
 21
127.11173220958988
  0
LINE
  8
_0-2_0-10
  6
CONTINUOUS
 62
    7
 10
109.48044524758229
 20
127.11173220958988
 11
109.125515876391
 21
126.13672420958988
  0
LINE
  8
_0-2_0-10
  6
CONTINUOUS
 62
    7
 10
109.125515876391
 20
126.13672420958988
 11
108.43442254305759
 21
124.37339220958989
  0
LINE
  8
_0-2_0-10
  6
CONTINUOUS
 62
    7
 10
108.43442254305759
 20
124.37339220958989
 11
107.7051838763909
 21
122.61768954292328
  0
LINE
  8
_0-2_0-10
  6
CONTINUOUS
 62
    7
 10
107.7051838763909
 20
122.61768954292328
 11
106.9454345430576
 21
120.86787087625658
  0
LINE
  8
_0-2_0-10
  6
CONTINUOUS
 62
    7
 10
106.9454345430576
 20
120.86787087625658
 11
106.46432957201669
 21
119.79474420958999
  0
LINE
  8
_0-2_0-10
  6
CONTINUOUS
 62
    7
 10
106.46432957201669
 20
119.79474420958999
 11
106.1628105430576
 21
119.12219220958998
  0
LINE
  8
_0-2_0-10
  6
CONTINUOUS
 62
    7
 10
106.1628105430576
 20
119.12219220958998
 11
105.36494654305759
 21
117.37890954292328
  0
LINE
  8
_0-2_0-10
  6
CONTINUOUS
 62
    7
 10
105.36494654305759
 20
117.37890954292328
 11
104.5594772097243
 21
115.63627887625658
  0
LINE
  8
_0-2_0-10
  6
CONTINUOUS
 62
    7
 10
104.5594772097243
 20
115.63627887625658
 11
104.50221592309509
 21
115.51231220651429
  0
LINE
  8
_0-2_0-10
  6
CONTINUOUS
 62
    7
 10
104.50221592309509
 20
115.51231220651429
 11
103.7540358763909
 21
113.89255487625658
  0
LINE
  8
_0-2_0-10
  6
CONTINUOUS
 62
    7
 10
103.7540358763909
 20
113.89255487625658
 11
102.9562598763909
 21
112.14599220958989
  0
LINE
  8
_0-2_0-10
  6
CONTINUOUS
 62
    7
 10
102.9562598763909
 20
112.14599220958989
 11
102.17378254305759
 21
110.39484820958989
  0
LINE
  8
_0-2_0-10
  6
CONTINUOUS
 62
    7
 10
102.17378254305759
 20
110.39484820958989
 11
101.9185194603332
 21
109.80420721006699
  0
LINE
  8
_0-2_0-10
  6
CONTINUOUS
 62
    7
 10
101.9185194603332
 20
109.80420721006699
 11
101.41423987639099
 21
108.63737887625659
  0
LINE
  8
_0-2_0-10
  6
CONTINUOUS
 62
    7
 10
101.41423987639099
 20
108.63737887625659
 11
100.6852652097243
 21
106.87183754292328
  0
LINE
  8
_0-2_0-10
  6
CONTINUOUS
 62
    7
 10
100.6852652097243
 20
106.87183754292328
 11
99.994493209724296
 21
105.09648154292199
  0
LINE
  8
_0-2_0-10
  6
CONTINUOUS
 62
    7
 10
99.994493209724296
 20
105.09648154292199
 11
99.349561209724285
 21
103.30956687625658
  0
LINE
  8
_0-2_0-10
  6
CONTINUOUS
 62
    7
 10
99.349561209724285
 20
103.30956687625658
 11
98.758102543057646
 21
101.50934687625658
  0
LINE
  8
_0-2_0-10
  6
CONTINUOUS
 62
    7
 10
98.758102543057646
 20
101.50934687625658
 11
98.227751876390968
 21
99.694078876256639
  0
LINE
  8
_0-2_0-10
  6
CONTINUOUS
 62
    7
 10
98.227751876390968
 20
99.694078876256639
 11
98.058506543057603
 21
99.057393542923307
  0
LINE
  8
_0-2_0-10
  6
CONTINUOUS
 62
    7
 10
98.058506543057603
 20
99.057393542923307
 11
97.897218543057604
 21
98.418764209589951
  0
LINE
  8
_0-2_0-10
  6
CONTINUOUS
 62
    7
 10
97.897218543057604
 20
98.418764209589951
 11
97.74349054305766
 21
97.778288209589959
  0
LINE
  8
_0-2_0-10
  6
CONTINUOUS
 62
    7
 10
97.74349054305766
 20
97.778288209589959
 11
97.596923876390988
 21
97.136062876256644
  0
LINE
  8
_0-2_0-10
  6
CONTINUOUS
 62
    7
 10
97.596923876390988
 20
97.136062876256644
 11
97.457121209724306
 21
96.492185542923294
  0
LINE
  8
_0-2_0-10
  6
CONTINUOUS
 62
    7
 10
97.457121209724306
 20
96.492185542923294
 11
97.323683876390944
 21
95.846753542923295
  0
LINE
  8
_0-2_0-10
  6
CONTINUOUS
 62
    7
 10
97.323683876390944
 20
95.846753542923295
 11
97.196214543057649
 21
95.199862876256602
  0
LINE
  8
_0-2_0-10
  6
CONTINUOUS
 62
    7
 10
97.196214543057649
 20
95.199862876256602
 11
97.074315876390954
 21
94.551610876256631
  0
LINE
  8
_0-2_0-10
  6
CONTINUOUS
 62
    7
 10
97.074315876390954
 20
94.551610876256631
 11
96.957589209724304
 21
93.902096209589956
  0
LINE
  8
_0-2_0-10
  6
CONTINUOUS
 62
    7
 10
96.957589209724304
 20
93.902096209589956
 11
96.845637209724316
 21
93.251414876256632
  0
LINE
  8
_0-2_0-10
  6
CONTINUOUS
 62
    7
 10
96.845637209724316
 20
93.251414876256632
 11
96.738061209724307
 21
92.599665542923276
  0
LINE
  8
_0-2_0-10
  6
CONTINUOUS
 62
    7
 10
96.738061209724307
 20
92.599665542923276
 11
96.634463876390967
 21
91.946942876256642
  0
LINE
  8
_0-2_0-10
  6
CONTINUOUS
 62
    7
 10
96.634463876390967
 20
91.946942876256642
 11
96.534447876390956
 21
91.293346876256634
  0
LINE
  8
_0-2_0-10
  6
CONTINUOUS
 62
    7
 10
96.534447876390956
 20
91.293346876256634
 11
96.437614543057634
 21
90.638972209589951
  0
LINE
  8
_0-2_0-10
  6
CONTINUOUS
 62
    7
 10
96.437614543057634
 20
90.638972209589951
 11
96.343566543057633
 21
89.983917542923279
  0
LINE
  8
_0-2_0-10
  6
CONTINUOUS
 62
    7
 10
96.343566543057633
 20
89.983917542923279
 11
96.251905209724284
 21
89.328278876256632
  0
LINE
  8
_0-2_0-10
  6
CONTINUOUS
 62
    7
 10
96.251905209724284
 20
89.328278876256632
 11
96.162233209724305
 21
88.672156209589957
  0
LINE
  8
_0-2_0-10
  6
CONTINUOUS
 62
    7
 10
96.162233209724305
 20
88.672156209589957
 11
96.074153209724315
 21
88.015642876256606
  0
LINE
  8
_0-2_0-10
  6
CONTINUOUS
 62
    7
 10
96.074153209724315
 20
88.015642876256606
 11
95.987266543057629
 21
87.358838876256641
  0
LINE
  8
_0-2_0-10
  6
CONTINUOUS
 62
    7
 10
95.987266543057629
 20
87.358838876256641
 11
95.901175876390965
 21
86.701840209589974
  0
LINE
  8
_0-2_0-10
  6
CONTINUOUS
 62
    7
 10
95.901175876390965
 20
86.701840209589974
 11
95.815482543057626
 21
86.044744209589964
  0
LINE
  8
_0-2_0-10
  6
CONTINUOUS
 62
    3
 10
209.99999804305821
 20
288.49999861698597
 11
209.99999804305821
 21
290.49999861698597
  0
LINE
  8
_0-2_0-10
  6
CONTINUOUS
 62
    7
 10
104.3704532460427
 20
115.22705525138668
 11
104.64623027128629
 21
115.50283227663028
  0
LINE
  8
_0-2_0-10
  6
CONTINUOUS
 62
    7
 10
102.16151777473059
 20
110.36646935062508
 11
107.1341126406935
 21
115.33906421658798
  0
LINE
  8
_0-2_0-10
  6
CONTINUOUS
 62
    7
 10
103.8652623045139
 20
109.41856345095878
 11
109.6463490953935
 21
115.19965024183838
  0
LINE
  8
_0-2_0-10
  6
CONTINUOUS
 62
    7
 10
106.15492307337039
 20
109.05657379036568
 11
112.2412283428703
 21
115.14287905986559
  0
LINE
  8
_0-2_0-10
  6
CONTINUOUS
 62
    7
 10
108.5334155598466
 20
108.78341584739239
 11
114.88821755065499
 21
115.13821783820078
  0
LINE
  8
_0-2_0-10
  6
CONTINUOUS
 62
    7
 10
111.0103948874665
 20
108.60874474556268
 11
117.59904637074289
 21
115.19739622883918
  0
LINE
  8
_0-2_0-10
  6
CONTINUOUS
 62
    7
 10
113.5980980186716
 20
108.54479744731818
 11
120.4048046539396
 21
115.35150408258618
  0
LINE
  8
_0-2_0-10
  6
CONTINUOUS
 62
    7
 10
116.3123974846963
 20
108.60744648389338
 11
123.2617832970037
 21
115.55683229620079
  0
LINE
  8
_0-2_0-10
  6
CONTINUOUS
 62
    7
 10
119.17449299755949
 20
108.81789156730708
 11
126.2440047560583
 21
115.88740332580589
  0
LINE
  8
_0-2_0-10
  6
CONTINUOUS
 62
    7
 10
122.2137895683462
 20
109.20553770864418
 11
129.32811732304179
 21
116.31986546333979
  0
LINE
  8
_0-2_0-10
  6
CONTINUOUS
 62
    7
 10
125.4731765238826
 20
109.81327423473098
 11
132.51807647971151
 21
116.85817419055999
  0
LINE
  8
_0-2_0-10
  6
CONTINUOUS
 62
    7
 10
129.0197433512624
 20
110.70819063266138
 11
135.86234862525469
 21
117.55079590665359
  0
LINE
  8
_0-2_0-10
  6
CONTINUOUS
 62
    7
 10
132.9699408566432
 20
112.00673770859248
 11
139.4318365790875
 21
118.46863343103689
  0
LINE
  8
_0-2_0-10
  6
CONTINUOUS
 62
    7
 10
137.56408864297358
 20
113.94923506547338
 11
144.1458363357382
 21
120.53098275823798
  0
LINE
  8
_0-2_0-10
  6
CONTINUOUS
 62
    7
 10
143.51695246240748
 20
117.25044845545778
 11
146.79630324071621
 21
120.52979923376648
  0
LINE
  8
_0-2_0-10
  6
CONTINUOUS
 62
    7
 10
102.1214028520159
 20
109.76062983338849
 11
101.96659222099239
 21
109.91544046441198
  0
LINE
  8
_0-2_0-10
  6
CONTINUOUS
 62
    7
 10
105.3629845868395
 20
109.17069852801448
 11
102.7806644444729
 21
111.75301867038108
  0
LINE
  8
_0-2_0-10
  6
CONTINUOUS
 62
    7
 10
108.3882157423443
 20
108.79711780195918
 11
103.60940893051109
 21
113.57592461379239
  0
LINE
  8
_0-2_0-10
  6
CONTINUOUS
 62
    7
 10
111.2387437005885
 20
108.59824027316459
 11
104.4461185802714
 21
115.39086539348168
  0
LINE
  8
_0-2_0-10
  6
CONTINUOUS
 62
    7
 10
113.94324181616789
 20
108.54539258703468
 11
107.1506593982332
 21
115.33797500496939
  0
LINE
  8
_0-2_0-10
  6
CONTINUOUS
 62
    7
 10
116.5224463763068
 20
108.61783845634528
 11
109.94721702740879
 21
115.19306780524338
  0
LINE
  8
_0-2_0-10
  6
CONTINUOUS
 62
    7
 10
118.99191976875539
 20
108.80001549334629
 11
112.65817829988519
 21
115.13375696221649
  0
LINE
  8
_0-2_0-10
  6
CONTINUOUS
 62
    7
 10
121.3636821832175
 20
109.07990350833368
 11
115.29645586082129
 21
115.14712983072999
  0
LINE
  8
_0-2_0-10
  6
CONTINUOUS
 62
    7
 10
123.64723179195459
 20
109.44800432904628
 11
117.89145647205269
 21
115.20377964894808
  0
LINE
  8
_0-2_0-10
  6
CONTINUOUS
 62
    7
 10
125.8502123592562
 20
109.89667419119419
 11
120.39596439033469
 21
115.35092216011568
  0
LINE
  8
_0-2_0-10
  6
CONTINUOUS
 62
    7
 10
127.97886670564329
 20
110.41967027425658
 11
122.88362273929429
 21
115.51491424060559
  0
LINE
  8
_0-2_0-10
  6
CONTINUOUS
 62
    7
 10
130.0383543883118
 20
111.01183302103768
 11
125.2706750040184
 21
115.77951240533109
  0
LINE
  8
_0-2_0-10
  6
CONTINUOUS
 62
    7
 10
132.0329801106458
 20
111.66885772815328
 11
127.64699963417839
 21
116.05483820462069
  0
LINE
  8
_0-2_0-10
  6
CONTINUOUS
 62
    7
 10
133.96636159254148
 20
112.38712667570709
 11
129.93754661895829
 21
116.41594164929028
  0
LINE
  8
_0-2_0-10
  6
CONTINUOUS
 62
    7
 10
135.84155526336431
 20
113.16358343433378
 11
132.21063727638019
 21
116.79450142131798
  0
LINE
  8
_0-2_0-10
  6
CONTINUOUS
 62
    7
 10
137.6611518606399
 20
113.99563726650778
 11
134.40733626695759
 21
117.24945286019008
  0
LINE
  8
_0-2_0-10
  6
CONTINUOUS
 62
    7
 10
139.42735008988009
 20
114.88108946671708
 11
136.58165985411059
 21
117.72677970248658
  0
LINE
  8
_0-2_0-10
  6
CONTINUOUS
 62
    7
 10
141.1420139721954
 20
115.81807601385138
 11
138.68567106297189
 21
118.27441892307489
  0
LINE
  8
_0-2_0-10
  6
CONTINUOUS
 62
    7
 10
142.8067178358128
 20
116.80502257968349
 11
140.7655781212037
 21
118.84616229429268
  0
LINE
  8
_0-2_0-10
  6
CONTINUOUS
 62
    7
 10
144.4227817778742
 20
117.84060906707168
 11
142.787086588161
 21
119.47630425678488
  0
LINE
  8
_0-2_0-10
  6
CONTINUOUS
 62
    7
 10
145.9912996419849
 20
118.92374163241058
 11
144.37029706480549
 21
120.54474420958989
  0
LINE
  8
_0-2_0-10
  6
CONTINUOUS
 62
    7
 10
129.2901019076913
 20
209.08961507872368
 11
131.3122190385576
 21
211.11173220959
  0
LINE
  8
_0-2_0-10
  6
CONTINUOUS
 62
    7
 10
134.5907257408748
 20
214.39023891190717
 11
134.685185072362
 21
214.48469824339449
  0
LINE
  8
_0-2_0-10
  6
CONTINUOUS
 62
    7
 10
128.7445470686315
 20
205.89240981021427
 11
133.96386946800708
 21
211.11173220959008
  0
LINE
  8
_0-2_0-10
  6
CONTINUOUS
 62
    7
 10
136.73042219700349
 20
213.87828493858637
 11
137.12350965003489
 21
214.27137239161777
  0
LINE
  8
_0-2_0-10
  6
CONTINUOUS
 62
    7
 10
129.29853189745671
 20
203.79474420958999
 11
136.61551989745669
 21
211.11173220959008
  0
LINE
  8
_0-2_0-10
  6
CONTINUOUS
 62
    7
 10
138.855050784717
 20
213.35126309685037
 11
138.9561449035132
 21
213.45235721564648
  0
LINE
  8
_0-2_0-10
  6
CONTINUOUS
 62
    7
 10
131.9501823269062
 20
203.79474420958999
 11
140.68454144897819
 21
212.52910333166198
  0
LINE
  8
_0-2_0-10
  6
CONTINUOUS
 62
    7
 10
134.6018327563558
 20
203.79474420959007
 11
142.3625797375042
 21
211.55549119073839
  0
LINE
  8
_0-2_0-10
  6
CONTINUOUS
 62
    7
 10
137.2534831858054
 20
203.79474420958999
 11
143.9916453971692
 21
210.53290642095379
  0
LINE
  8
_0-2_0-10
  6
CONTINUOUS
 62
    7
 10
139.90513361525489
 20
203.79474420958999
 11
145.5728909008157
 21
209.46250149515077
  0
LINE
  8
_0-2_0-10
  6
CONTINUOUS
 62
    7
 10
142.5567840447045
 20
203.79474420958999
 11
143.712059876391
 21
204.95002004127658
  0
LINE
  8
_0-2_0-10
  6
CONTINUOUS
 62
    7
 10
146.30678404470438
 20
207.54474420958999
 11
147.0882334514425
 21
208.32619361632808
  0
LINE
  8
_0-2_0-10
  6
CONTINUOUS
 62
    7
 10
130.06320823049389
 20
203.79474420958999
 11
128.6077222998002
 21
205.25023014028357
  0
LINE
  8
_0-2_0-10
  6
CONTINUOUS
 62
    7
 10
132.7148586599435
 20
203.79474420958999
 11
129.0362340923765
 21
207.47336877715687
  0
LINE
  8
_0-2_0-10
  6
CONTINUOUS
 62
    7
 10
135.36650908939299
 20
203.79474420958999
 11
129.38898042794659
 21
209.77227287103627
  0
LINE
  8
_0-2_0-10
  6
CONTINUOUS
 62
    7
 10
138.01815951884259
 20
203.79474420958999
 11
130.70117151884261
 21
211.11173220959
  0
LINE
  8
_0-2_0-10
  6
CONTINUOUS
 62
    7
 10
140.66980994829211
 20
203.79474420958987
 11
133.3528219482921
 21
211.11173220959
  0
LINE
  8
_0-2_0-10
  6
CONTINUOUS
 62
    7
 10
143.31578810880941
 20
203.80041647852229
 11
136.0044723777417
 21
211.11173220959
  0
LINE
  8
_0-2_0-10
  6
CONTINUOUS
 62
    7
 10
143.76518870701019
 20
206.00266630977088
 11
138.55371029949731
 21
211.21414471728388
  0
LINE
  8
_0-2_0-10
  6
CONTINUOUS
 62
    7
 10
135.625107125519
 20
214.14274789126218
 11
135.3404884118164
 21
214.42736660496478
  0
LINE
  8
_0-2_0-10
  6
CONTINUOUS
 62
    7
 10
145.00421259393669
 20
207.41529285229398
 11
139.591252950684
 21
212.82825249554679
  0
LINE
  8
_0-2_0-10
  6
CONTINUOUS
 62
    7
 10
139.27857091317449
 20
213.14093453305619
 11
138.978691493647
 21
213.44081395258368
  0
LINE
  8
_0-2_0-10
  6
CONTINUOUS
 62
    7
 10
147.1574846577337
 20
207.91367121794658
 11
145.693842071623
 21
209.37731380405728
  0
LINE
  8
_0-2_0-10
  6
CONTINUOUS
 62
    7
 10
126.68052498740689
 20
198.52508687009057
 11
127.26717032690619
 21
199.11173220959
  0
LINE
  8
_0-2_0-10
  6
CONTINUOUS
 62
    7
 10
124.6820236053732
 20
193.87493505860737
 11
129.91882075635581
 21
199.11173220959
  0
LINE
  8
_0-2_0-10
  6
CONTINUOUS
 62
    7
 10
125.25348318580539
 20
191.79474420958999
 11
132.57047118580538
 21
199.11173220959
  0
LINE
  8
_0-2_0-10
  6
CONTINUOUS
 62
    7
 10
127.90513361525489
 20
191.79474420958999
 11
135.2221216152549
 21
199.11173220959
  0
LINE
  8
_0-2_0-10
  6
CONTINUOUS
 62
    7
 10
130.5567840447045
 20
191.79474420958999
 11
137.8737720447045
 21
199.11173220959
  0
LINE
  8
_0-2_0-10
  6
CONTINUOUS
 62
    7
 10
133.20843447415398
 20
191.79474420958999
 11
140.52542247415399
 21
199.11173220959
  0
LINE
  8
_0-2_0-10
  6
CONTINUOUS
 62
    7
 10
135.86008490360359
 20
191.79474420958999
 11
143.1770729036036
 21
199.11173220959
  0
LINE
  8
_0-2_0-10
  6
CONTINUOUS
 62
    7
 10
148.1719465765239
 20
204.10660588251039
 11
148.6100849036035
 21
204.54474420958999
  0
LINE
  8
_0-2_0-10
  6
CONTINUOUS
 62
    7
 10
138.51173533305311
 20
191.79474420958999
 11
145.82872333305309
 21
199.11173220959
  0
LINE
  8
_0-2_0-10
  6
CONTINUOUS
 62
    7
 10
149.69955418042241
 20
202.98256305695929
 11
151.2565367032285
 21
204.53954557976538
  0
LINE
  8
_0-2_0-10
  6
CONTINUOUS
 62
    7
 10
141.16338576250271
 20
191.79474420958999
 11
148.48037376250269
 21
199.11173220959
  0
LINE
  8
_0-2_0-10
  6
CONTINUOUS
 62
    7
 10
151.2465412292181
 20
201.87789967630547
 11
152.78838655797861
 21
203.41974500506589
  0
LINE
  8
_0-2_0-10
  6
CONTINUOUS
 62
    7
 10
143.8150361919522
 20
191.79474420958999
 11
151.52083986386409
 21
199.5005478815018
  0
LINE
  8
_0-2_0-10
  6
CONTINUOUS
 62
    7
 10
152.176539721288
 20
200.15624773892579
 11
154.09623051909949
 21
202.07593853673719
  0
LINE
  8
_0-2_0-10
  6
CONTINUOUS
 62
    7
 10
146.4666866214018
 20
191.79474420958999
 11
155.35920783819199
 21
200.68726542638017
  0
LINE
  8
_0-2_0-10
  6
CONTINUOUS
 62
    7
 10
149.1183370508514
 20
191.79474420958999
 11
156.577101918109
 21
199.25350907684759
  0
LINE
  8
_0-2_0-10
  6
CONTINUOUS
 62
    7
 10
151.76998748030089
 20
191.79474420958999
 11
154.4060583315319
 21
194.43081506082097
  0
LINE
  8
_0-2_0-10
  6
CONTINUOUS
 62
    7
 10
155.31299569182658
 20
195.33775242111568
 11
157.7495375194502
 21
197.77429424873929
  0
LINE
  8
_0-2_0-10
  6
CONTINUOUS
 62
    7
 10
158.17163790975038
 20
195.54474420958999
 11
158.81128331201779
 21
196.18438961185739
  0
LINE
  8
_0-2_0-10
  6
CONTINUOUS
 62
    7
 10
126.15330565379659
 20
191.79474420958999
 11
124.48383271186069
 21
193.46421715152578
  0
LINE
  8
_0-2_0-10
  6
CONTINUOUS
 62
    7
 10
128.80495608324611
 20
191.79474420958999
 11
125.33655895944289
 21
195.26314133339317
  0
LINE
  8
_0-2_0-10
  6
CONTINUOUS
 62
    7
 10
131.45660651269571
 20
191.79474420958999
 11
126.1371325508596
 21
197.11421817142598
  0
LINE
  8
_0-2_0-10
  6
CONTINUOUS
 62
    7
 10
134.1082569421452
 20
191.79474420958987
 11
126.87020385844149
 21
199.03279729329369
  0
LINE
  8
_0-2_0-10
  6
CONTINUOUS
 62
    7
 10
136.7599073715948
 20
191.79474420958999
 11
129.44291937159479
 21
199.11173220958988
  0
LINE
  8
_0-2_0-10
  6
CONTINUOUS
 62
    7
 10
139.4115578010444
 20
191.79474420958999
 11
132.0945698010444
 21
199.11173220958988
  0
LINE
  8
_0-2_0-10
  6
CONTINUOUS
 62
    7
 10
142.06320823049389
 20
191.79474420958999
 11
134.74622023049388
 21
199.11173220959
  0
LINE
  8
_0-2_0-10
  6
CONTINUOUS
 62
    7
 10
144.7148586599435
 20
191.79474420958999
 11
137.39787065994349
 21
199.11173220958988
  0
LINE
  8
_0-2_0-10
  6
CONTINUOUS
 62
    7
 10
147.36650908939299
 20
191.79474420958999
 11
140.04952108939301
 21
199.11173220958988
  0
LINE
  8
_0-2_0-10
  6
CONTINUOUS
 62
    7
 10
150.0181595188425
 20
191.79474420958999
 11
142.7011715188425
 21
199.11173220959
  0
LINE
  8
_0-2_0-10
  6
CONTINUOUS
 62
    7
 10
152.66980994829211
 20
191.79474420958999
 11
145.3528219482921
 21
199.11173220958988
  0
LINE
  8
_0-2_0-10
  6
CONTINUOUS
 62
    7
 10
154.078761878118
 20
193.03744270921367
 11
148.00447237774159
 21
199.11173220958988
  0
LINE
  8
_0-2_0-10
  6
CONTINUOUS
 62
    7
 10
154.79692621333279
 20
194.9709288034484
 11
150.57829969374981
 21
199.18955532303129
  0
LINE
  8
_0-2_0-10
  6
CONTINUOUS
 62
    7
 10
156.8747612366408
 20
195.54474420958999
 11
152.19461372848721
 21
200.22489171774347
  0
LINE
  8
_0-2_0-10
  6
CONTINUOUS
 62
    7
 10
148.78109317769551
 20
203.63841226853529
 11
148.14024300658599
 21
204.27926243964478
  0
LINE
  8
_0-2_0-10
  6
CONTINUOUS
 62
    7
 10
158.79888548994028
 20
196.27227038574
 11
150.52641166609041
 21
204.54474420958999
  0
LINE
  8
_0-2_0-10
  6
CONTINUOUS
 62
    7
 10
118.15754550342489
 20
182.04715609775999
 11
123.2221216152549
 21
187.11173220959
  0
LINE
  8
_0-2_0-10
  6
CONTINUOUS
 62
    7
 10
118.5567840447044
 20
179.79474420958999
 11
125.87377204470439
 21
187.11173220959
  0
LINE
  8
_0-2_0-10
  6
CONTINUOUS
 62
    7
 10
121.208434474154
 20
179.79474420958999
 11
128.52542247415399
 21
187.11173220959
  0
LINE
  8
_0-2_0-10
  6
CONTINUOUS
 62
    7
 10
123.8600849036035
 20
179.79474420958999
 11
131.17707290360348
 21
187.11173220959
  0
LINE
  8
_0-2_0-10
  6
CONTINUOUS
 62
    7
 10
126.51173533305309
 20
179.79474420958999
 11
133.82872333305309
 21
187.11173220959
  0
LINE
  8
_0-2_0-10
  6
CONTINUOUS
 62
    7
 10
129.16338576250271
 20
179.79474420958999
 11
136.4803737625026
 21
187.11173220959
  0
LINE
  8
_0-2_0-10
  6
CONTINUOUS
 62
    7
 10
131.8150361919522
 20
179.79474420958999
 11
139.13202419195221
 21
187.11173220959
  0
LINE
  8
_0-2_0-10
  6
CONTINUOUS
 62
    7
 10
134.4666866214018
 20
179.79474420958999
 11
141.78367462140178
 21
187.11173220959
  0
LINE
  8
_0-2_0-10
  6
CONTINUOUS
 62
    7
 10
137.11833705085129
 20
179.79474420958999
 11
144.4353250508513
 21
187.11173220959
  0
LINE
  8
_0-2_0-10
  6
CONTINUOUS
 62
    7
 10
139.76998748030089
 20
179.79474420958999
 11
147.0869754803009
 21
187.11173220959
  0
LINE
  8
_0-2_0-10
  6
CONTINUOUS
 62
    7
 10
142.42163790975038
 20
179.79474420958999
 11
149.73862590975039
 21
187.11173220959
  0
LINE
  8
_0-2_0-10
  6
CONTINUOUS
 62
    7
 10
145.07328833919999
 20
179.79474420958999
 11
152.39027633919999
 21
187.11173220959
  0
LINE
  8
_0-2_0-10
  6
CONTINUOUS
 62
    7
 10
147.7249387686495
 20
179.79474420958999
 11
155.04192676864948
 21
187.11173220959
  0
LINE
  8
_0-2_0-10
  6
CONTINUOUS
 62
    7
 10
158.6377080455758
 20
190.70751348651617
 11
160.4749387686495
 21
192.54474420958999
  0
LINE
  8
_0-2_0-10
  6
CONTINUOUS
 62
    7
 10
150.37658919809911
 20
179.79474420958999
 11
158.2557052064626
 21
187.67386021795348
  0
LINE
  8
_0-2_0-10
  6
CONTINUOUS
 62
    7
 10
158.8226404230445
 20
188.24079543453538
 11
161.9711767343532
 21
191.38933174584408
  0
LINE
  8
_0-2_0-10
  6
CONTINUOUS
 62
    7
 10
153.02823962754871
 20
179.79474420958999
 11
162.90448803546848
 21
189.67099261750979
  0
LINE
  8
_0-2_0-10
  6
CONTINUOUS
 62
    7
 10
155.6798900569982
 20
179.79474420958999
 11
163.78614023195768
 21
187.90099438454947
  0
LINE
  8
_0-2_0-10
  6
CONTINUOUS
 62
    7
 10
158.3315404864478
 20
179.79474420958999
 11
160.3281463508388
 21
181.79135007398099
  0
LINE
  8
_0-2_0-10
  6
CONTINUOUS
 62
    7
 10
162.05163807719648
 20
183.5148418003387
 11
164.6142467103742
 21
186.07745043351647
  0
LINE
  8
_0-2_0-10
  6
CONTINUOUS
 62
    7
 10
164.7451921778298
 20
183.55674547152247
 11
165.3041166759198
 21
184.11566996961249
  0
LINE
  8
_0-2_0-10
  6
CONTINUOUS
 62
    7
 10
119.59175264764969
 20
179.79474420958987
 11
117.8671924805174
 21
181.51930437672217
  0
LINE
  8
_0-2_0-10
  6
CONTINUOUS
 62
    7
 10
122.2434030770993
 20
179.79474420958987
 11
118.8140224035301
 21
183.22412488315907
  0
LINE
  8
_0-2_0-10
  6
CONTINUOUS
 62
    7
 10
124.8950535065488
 20
179.79474420958987
 11
119.77535675154619
 21
184.91444096459258
  0
LINE
  8
_0-2_0-10
  6
CONTINUOUS
 62
    7
 10
127.54670393599829
 20
179.79474420958987
 11
120.7415492491104
 21
186.59989889647789
  0
LINE
  8
_0-2_0-10
  6
CONTINUOUS
 62
    7
 10
130.19835436544801
 20
179.79474420958987
 11
122.881366365448
 21
187.11173220958988
  0
LINE
  8
_0-2_0-10
  6
CONTINUOUS
 62
    7
 10
132.8500047948975
 20
179.79474420958987
 11
125.5330167948975
 21
187.11173220958988
  0
LINE
  8
_0-2_0-10
  6
CONTINUOUS
 62
    7
 10
135.5016552243471
 20
179.79474420958987
 11
128.18466722434709
 21
187.11173220958988
  0
LINE
  8
_0-2_0-10
  6
CONTINUOUS
 62
    7
 10
138.15330565379659
 20
179.79474420958987
 11
130.83631765379661
 21
187.11173220958988
  0
LINE
  8
_0-2_0-10
  6
CONTINUOUS
 62
    7
 10
140.80495608324611
 20
179.79474420958987
 11
133.48796808324618
 21
187.11173220958988
  0
LINE
  8
_0-2_0-10
  6
CONTINUOUS
 62
    7
 10
143.45660651269571
 20
179.79474420958987
 11
136.1396185126957
 21
187.11173220958988
  0
LINE
  8
_0-2_0-10
  6
CONTINUOUS
 62
    7
 10
146.1082569421452
 20
179.79474420958987
 11
138.79126894214519
 21
187.11173220958988
  0
LINE
  8
_0-2_0-10
  6
CONTINUOUS
 62
    7
 10
148.7599073715948
 20
179.79474420958987
 11
141.44291937159479
 21
187.11173220958988
  0
LINE
  8
_0-2_0-10
  6
CONTINUOUS
 62
    7
 10
151.4115578010444
 20
179.79474420958987
 11
144.0945698010444
 21
187.11173220958988
  0
LINE
  8
_0-2_0-10
  6
CONTINUOUS
 62
    7
 10
154.06320823049389
 20
179.79474420958987
 11
146.74622023049388
 21
187.11173220958988
  0
LINE
  8
_0-2_0-10
  6
CONTINUOUS
 62
    7
 10
156.7148586599435
 20
179.79474420958987
 11
149.39787065994349
 21
187.11173220958988
  0
LINE
  8
_0-2_0-10
  6
CONTINUOUS
 62
    7
 10
159.30550451195421
 20
179.85574878702868
 11
152.04952108939301
 21
187.11173220958988
  0
LINE
  8
_0-2_0-10
  6
CONTINUOUS
 62
    7
 10
160.23678572418168
 20
181.57611800425078
 11
154.70117151884261
 21
187.11173220958988
  0
LINE
  8
_0-2_0-10
  6
CONTINUOUS
 62
    7
 10
161.268231493846
 20
183.19632266403607
 11
157.20665903466439
 21
187.25789512321767
  0
LINE
  8
_0-2_0-10
  6
CONTINUOUS
 62
    7
 10
163.57146037774168
 20
183.54474420958987
 11
158.83885007087869
 21
188.2773545164529
  0
LINE
  8
_0-2_0-10
  6
CONTINUOUS
 62
    7
 10
165.26795207732749
 20
184.49990293945367
 11
158.54807239028031
 21
191.2197826265008
  0
LINE
  8
_0-2_0-10
  6
CONTINUOUS
 62
    7
 10
163.07104028605141
 20
189.34846516017938
 11
159.8747612366408
 21
192.54474420958987
  0
LINE
  8
_0-2_0-10
  6
CONTINUOUS
 62
    7
 10
113.6637383642428
 20
172.25004809967867
 11
116.52542247415399
 21
175.11173220959
  0
LINE
  8
_0-2_0-10
  6
CONTINUOUS
 62
    7
 10
112.70625328478749
 20
168.64091259077389
 11
119.1770729036035
 21
175.11173220959
  0
LINE
  8
_0-2_0-10
  6
CONTINUOUS
 62
    7
 10
114.51173533305309
 20
167.79474420958999
 11
121.8287233330531
 21
175.11173220959
  0
LINE
  8
_0-2_0-10
  6
CONTINUOUS
 62
    7
 10
117.16338576250269
 20
167.79474420958999
 11
124.48037376250269
 21
175.11173220959
  0
LINE
  8
_0-2_0-10
  6
CONTINUOUS
 62
    7
 10
119.8150361919522
 20
167.79474420958999
 11
127.13202419195219
 21
175.11173220959
  0
LINE
  8
_0-2_0-10
  6
CONTINUOUS
 62
    7
 10
122.4666866214018
 20
167.79474420958999
 11
129.78367462140178
 21
175.11173220959
  0
LINE
  8
_0-2_0-10
  6
CONTINUOUS
 62
    7
 10
125.11833705085129
 20
167.79474420958999
 11
132.4353250508513
 21
175.11173220959
  0
LINE
  8
_0-2_0-10
  6
CONTINUOUS
 62
    7
 10
127.76998748030089
 20
167.79474420958999
 11
135.0869754803009
 21
175.11173220959
  0
LINE
  8
_0-2_0-10
  6
CONTINUOUS
 62
    7
 10
130.42163790975038
 20
167.79474420958999
 11
137.73862590975039
 21
175.11173220959
  0
LINE
  8
_0-2_0-10
  6
CONTINUOUS
 62
    7
 10
133.07328833919999
 20
167.79474420958999
 11
140.39027633919999
 21
175.11173220959
  0
LINE
  8
_0-2_0-10
  6
CONTINUOUS
 62
    7
 10
135.7249387686495
 20
167.79474420958999
 11
143.0419267686496
 21
175.11173220959
  0
LINE
  8
_0-2_0-10
  6
CONTINUOUS
 62
    7
 10
138.37658919809911
 20
167.79474420958999
 11
145.69357719809909
 21
175.11173220959
  0
LINE
  8
_0-2_0-10
  6
CONTINUOUS
 62
    7
 10
141.02823962754871
 20
167.79474420958999
 11
148.34522762754869
 21
175.11173220959
  0
LINE
  8
_0-2_0-10
  6
CONTINUOUS
 62
    7
 10
143.6798900569982
 20
167.79474420958999
 11
150.99687805699821
 21
175.11173220959
  0
LINE
  8
_0-2_0-10
  6
CONTINUOUS
 62
    7
 10
146.33154048644769
 20
167.79474420958999
 11
153.6485284864477
 21
175.11173220959
  0
LINE
  8
_0-2_0-10
  6
CONTINUOUS
 62
    7
 10
148.98319091589729
 20
167.79474420958999
 11
156.3001789158973
 21
175.11173220959
  0
LINE
  8
_0-2_0-10
  6
CONTINUOUS
 62
    7
 10
151.63484134534681
 20
167.79474420958999
 11
158.95461083040891
 21
175.11451369465208
  0
LINE
  8
_0-2_0-10
  6
CONTINUOUS
 62
    7
 10
154.28649177479638
 20
167.79474420958999
 11
166.68531286668888
 21
180.19356530148249
  0
LINE
  8
_0-2_0-10
  6
CONTINUOUS
 62
    7
 10
156.93814220424599
 20
167.79474420958999
 11
167.34029147713749
 21
178.19689348248149
  0
LINE
  8
_0-2_0-10
  6
CONTINUOUS
 62
    7
 10
159.5897926336955
 20
167.79474420958999
 11
167.8580907124454
 21
176.0630422883398
  0
LINE
  8
_0-2_0-10
  6
CONTINUOUS
 62
    7
 10
165.9891215100219
 20
171.54242265646678
 11
168.3011513016888
 21
173.85445244813368
  0
LINE
  8
_0-2_0-10
  6
CONTINUOUS
 62
    7
 10
113.0301996415028
 20
167.79474420958987
 11
112.61472847385459
 21
168.21021537723819
  0
LINE
  8
_0-2_0-10
  6
CONTINUOUS
 62
    7
 10
115.6818500709524
 20
167.79474420958999
 11
113.10959662721269
 21
170.36699765332969
  0
LINE
  8
_0-2_0-10
  6
CONTINUOUS
 62
    7
 10
118.33350050040189
 20
167.79474420958999
 11
113.71475945129449
 21
172.41348525869739
  0
LINE
  8
_0-2_0-10
  6
CONTINUOUS
 62
    7
 10
120.98515092985149
 20
167.79474420958999
 11
114.4282358714681
 21
174.35165926797327
  0
LINE
  8
_0-2_0-10
  6
CONTINUOUS
 62
    7
 10
123.636801359301
 20
167.79474420958999
 11
116.31981335930099
 21
175.11173220958988
  0
LINE
  8
_0-2_0-10
  6
CONTINUOUS
 62
    7
 10
126.2884517887506
 20
167.79474420958999
 11
118.97146378875059
 21
175.11173220959
  0
LINE
  8
_0-2_0-10
  6
CONTINUOUS
 62
    7
 10
128.94010221820019
 20
167.79474420958999
 11
121.6231142182002
 21
175.11173220958988
  0
LINE
  8
_0-2_0-10
  6
CONTINUOUS
 62
    7
 10
131.59175264764971
 20
167.79474420958999
 11
124.2747646476497
 21
175.11173220958988
  0
LINE
  8
_0-2_0-10
  6
CONTINUOUS
 62
    7
 10
134.2434030770992
 20
167.79474420958999
 11
126.9264150770993
 21
175.11173220958988
  0
LINE
  8
_0-2_0-10
  6
CONTINUOUS
 62
    7
 10
136.8950535065488
 20
167.79474420958999
 11
129.57806550654879
 21
175.11173220958988
  0
LINE
  8
_0-2_0-10
  6
CONTINUOUS
 62
    7
 10
139.5467039359984
 20
167.79474420958999
 11
132.22971593599839
 21
175.11173220959
  0
LINE
  8
_0-2_0-10
  6
CONTINUOUS
 62
    7
 10
142.19835436544789
 20
167.79474420958999
 11
134.88136636544788
 21
175.11173220959
  0
LINE
  8
_0-2_0-10
  6
CONTINUOUS
 62
    7
 10
144.8500047948975
 20
167.79474420958999
 11
137.53301679489749
 21
175.11173220959
  0
LINE
  8
_0-2_0-10
  6
CONTINUOUS
 62
    7
 10
147.50165522434699
 20
167.79474420958999
 11
140.184667224347
 21
175.11173220959
  0
LINE
  8
_0-2_0-10
  6
CONTINUOUS
 62
    7
 10
150.15330565379659
 20
167.79474420958999
 11
142.83631765379661
 21
175.11173220959
  0
LINE
  8
_0-2_0-10
  6
CONTINUOUS
 62
    7
 10
152.80495608324611
 20
167.79474420958987
 11
145.4879680832461
 21
175.11173220958988
  0
LINE
  8
_0-2_0-10
  6
CONTINUOUS
 62
    7
 10
155.45660651269571
 20
167.79474420958999
 11
148.13961851269559
 21
175.11173220959
  0
LINE
  8
_0-2_0-10
  6
CONTINUOUS
 62
    7
 10
158.1082569421452
 20
167.79474420958999
 11
150.79126894214519
 21
175.11173220958988
  0
LINE
  8
_0-2_0-10
  6
CONTINUOUS
 62
    7
 10
160.7599073715948
 20
167.79474420958999
 11
153.44291937159479
 21
175.11173220959
  0
LINE
  8
_0-2_0-10
  6
CONTINUOUS
 62
    7
 10
162.4056398354935
 20
168.80066217514078
 11
156.0945698010444
 21
175.11173220959
  0
LINE
  8
_0-2_0-10
  6
CONTINUOUS
 62
    7
 10
163.6154705189736
 20
170.24248192111028
 11
158.74622023049388
 21
175.11173220959
  0
LINE
  8
_0-2_0-10
  6
CONTINUOUS
 62
    7
 10
165.1288447144814
 20
171.38075815505197
 11
161.0567889774087
 21
175.45281389212468
  0
LINE
  8
_0-2_0-10
  6
CONTINUOUS
 62
    7
 10
167.61650908939299
 20
171.54474420958999
 11
162.6430474596097
 21
176.51820583937328
  0
LINE
  8
_0-2_0-10
  6
CONTINUOUS
 62
    7
 10
168.3741759561521
 20
173.4387277722804
 11
163.49113351415729
 21
178.32177021427517
  0
LINE
  8
_0-2_0-10
  6
CONTINUOUS
 62
    7
 10
167.69700533149099
 20
176.76754882639107
 11
164.1679653849479
 21
180.29658877293408
  0
LINE
  8
_0-2_0-10
  6
CONTINUOUS
 62
    7
 10
111.9934835558562
 20
162.62484200294349
 11
112.48037376250259
 21
163.11173220959
  0
LINE
  8
_0-2_0-10
  6
CONTINUOUS
 62
    7
 10
111.9274472170554
 20
159.90715523469319
 11
115.13202419195219
 21
163.11173220959
  0
LINE
  8
_0-2_0-10
  6
CONTINUOUS
 62
    7
 10
111.95868341353299
 20
157.28674100172119
 11
117.7836746214018
 21
163.11173220959
  0
LINE
  8
_0-2_0-10
  6
CONTINUOUS
 62
    7
 10
113.11833705085129
 20
155.79474420958987
 11
120.4353250508513
 21
163.11173220959
  0
LINE
  8
_0-2_0-10
  6
CONTINUOUS
 62
    7
 10
115.76998748030089
 20
155.79474420958999
 11
123.0869754803009
 21
163.11173220959
  0
LINE
  8
_0-2_0-10
  6
CONTINUOUS
 62
    7
 10
118.4216379097504
 20
155.79474420958987
 11
125.73862590975039
 21
163.11173220959
  0
LINE
  8
_0-2_0-10
  6
CONTINUOUS
 62
    7
 10
121.0732883392
 20
155.79474420958999
 11
128.39027633919999
 21
163.11173220959
  0
LINE
  8
_0-2_0-10
  6
CONTINUOUS
 62
    7
 10
123.72493876864949
 20
155.79474420958999
 11
131.04192676864948
 21
163.11173220959
  0
LINE
  8
_0-2_0-10
  6
CONTINUOUS
 62
    7
 10
126.37658919809909
 20
155.79474420958987
 11
133.69357719809909
 21
163.11173220959
  0
LINE
  8
_0-2_0-10
  6
CONTINUOUS
 62
    7
 10
129.0282396275486
 20
155.79474420958987
 11
136.3452276275486
 21
163.11173220959
  0
LINE
  8
_0-2_0-10
  6
CONTINUOUS
 62
    7
 10
131.6798900569982
 20
155.79474420958999
 11
138.99687805699821
 21
163.11173220959
  0
LINE
  8
_0-2_0-10
  6
CONTINUOUS
 62
    7
 10
134.33154048644769
 20
155.79474420958987
 11
141.64852848644778
 21
163.11173220959
  0
LINE
  8
_0-2_0-10
  6
CONTINUOUS
 62
    7
 10
136.98319091589729
 20
155.79474420958999
 11
144.3001789158973
 21
163.11173220959
  0
LINE
  8
_0-2_0-10
  6
CONTINUOUS
 62
    7
 10
139.63484134534689
 20
155.79474420958999
 11
146.9518293453469
 21
163.11173220959
  0
LINE
  8
_0-2_0-10
  6
CONTINUOUS
 62
    7
 10
142.28649177479638
 20
155.79474420958999
 11
149.60347977479639
 21
163.11173220959
  0
LINE
  8
_0-2_0-10
  6
CONTINUOUS
 62
    7
 10
144.9381422042459
 20
155.79474420958999
 11
152.255130204246
 21
163.11173220959
  0
LINE
  8
_0-2_0-10
  6
CONTINUOUS
 62
    7
 10
147.5897926336955
 20
155.79474420958987
 11
154.90678063369549
 21
163.11173220959
  0
LINE
  8
_0-2_0-10
  6
CONTINUOUS
 62
    7
 10
150.24144306314511
 20
155.79474420958999
 11
157.55843106314509
 21
163.11173220959
  0
LINE
  8
_0-2_0-10
  6
CONTINUOUS
 62
    7
 10
152.8930934925946
 20
155.79474420958999
 11
160.27775387817121
 21
163.1794045951666
  0
LINE
  8
_0-2_0-10
  6
CONTINUOUS
 62
    7
 10
155.54474392204409
 20
155.79474420958987
 11
168.28541409008718
 21
168.53541437763297
  0
LINE
  8
_0-2_0-10
  6
CONTINUOUS
 62
    7
 10
158.19639435149369
 20
155.79474420958999
 11
169.1098753336947
 21
166.70822519179088
  0
LINE
  8
_0-2_0-10
  6
CONTINUOUS
 62
    7
 10
160.943331408336
 20
155.89003083698267
 11
169.17248600006328
 21
164.11918542870998
  0
LINE
  8
_0-2_0-10
  6
CONTINUOUS
 62
    7
 10
167.24969521039278
 20
159.54474420958999
 11
169.11103858919949
 21
161.40608758839658
  0
LINE
  8
_0-2_0-10
  6
CONTINUOUS
 62
    7
 10
114.4235979237046
 20
155.79474420958987
 11
111.9391646769598
 21
158.27917745633479
  0
LINE
  8
_0-2_0-10
  6
CONTINUOUS
 62
    7
 10
117.07524835315419
 20
155.79474420958987
 11
111.9376965517748
 21
160.93229601096928
  0
LINE
  8
_0-2_0-10
  6
CONTINUOUS
 62
    7
 10
119.72689878260369
 20
155.79474420958987
 11
112.4099107826037
 21
163.11173220959
  0
LINE
  8
_0-2_0-10
  6
CONTINUOUS
 62
    7
 10
122.3785492120533
 20
155.79474420958987
 11
115.0615612120533
 21
163.11173220958988
  0
LINE
  8
_0-2_0-10
  6
CONTINUOUS
 62
    7
 10
125.0301996415028
 20
155.79474420958987
 11
117.71321164150279
 21
163.11173220958988
  0
LINE
  8
_0-2_0-10
  6
CONTINUOUS
 62
    7
 10
127.6818500709524
 20
155.79474420958987
 11
120.36486207095239
 21
163.11173220959
  0
LINE
  8
_0-2_0-10
  6
CONTINUOUS
 62
    7
 10
130.33350050040201
 20
155.79474420958987
 11
123.0165125004019
 21
163.11173220959
  0
LINE
  8
_0-2_0-10
  6
CONTINUOUS
 62
    7
 10
132.98515092985149
 20
155.79474420958987
 11
125.6681629298515
 21
163.11173220958988
  0
LINE
  8
_0-2_0-10
  6
CONTINUOUS
 62
    7
 10
135.6368013593011
 20
155.79474420958987
 11
128.31981335930109
 21
163.11173220958988
  0
LINE
  8
_0-2_0-10
  6
CONTINUOUS
 62
    7
 10
138.28845178875059
 20
155.79474420958987
 11
130.97146378875061
 21
163.11173220958988
  0
LINE
  8
_0-2_0-10
  6
CONTINUOUS
 62
    7
 10
140.9401022182001
 20
155.79474420958987
 11
133.62311421820018
 21
163.11173220958988
  0
LINE
  8
_0-2_0-10
  6
CONTINUOUS
 62
    7
 10
143.59175264764971
 20
155.79474420958987
 11
136.2747646476497
 21
163.11173220958988
  0
LINE
  8
_0-2_0-10
  6
CONTINUOUS
 62
    7
 10
146.24340307709928
 20
155.79474420958987
 11
138.92641507709919
 21
163.11173220958988
  0
LINE
  8
_0-2_0-10
  6
CONTINUOUS
 62
    7
 10
148.8950535065488
 20
155.79474420958987
 11
141.57806550654879
 21
163.11173220958988
  0
LINE
  8
_0-2_0-10
  6
CONTINUOUS
 62
    7
 10
151.54670393599829
 20
155.79474420958987
 11
144.22971593599839
 21
163.11173220958988
  0
LINE
  8
_0-2_0-10
  6
CONTINUOUS
 62
    7
 10
154.19835436544789
 20
155.79474420958987
 11
146.881366365448
 21
163.11173220958988
  0
LINE
  8
_0-2_0-10
  6
CONTINUOUS
 62
    7
 10
156.8500047948975
 20
155.79474420958987
 11
149.53301679489749
 21
163.11173220958988
  0
LINE
  8
_0-2_0-10
  6
CONTINUOUS
 62
    7
 10
159.50165522434699
 20
155.79474420958987
 11
152.184667224347
 21
163.11173220958988
  0
LINE
  8
_0-2_0-10
  6
CONTINUOUS
 62
    7
 10
161.6413629355992
 20
156.30668692778729
 11
154.83631765379661
 21
163.11173220958988
  0
LINE
  8
_0-2_0-10
  6
CONTINUOUS
 62
    7
 10
163.08318258143981
 20
157.51651771139628
 11
157.4879680832461
 21
163.11173220958988
  0
LINE
  8
_0-2_0-10
  6
CONTINUOUS
 62
    7
 10
164.52797733161239
 20
158.72337339067317
 11
160.092483106553
 21
163.15886761573258
  0
LINE
  8
_0-2_0-10
  6
CONTINUOUS
 62
    7
 10
166.39747267677751
 20
159.50552847495768
 11
162.24775257185041
 21
163.65524857988478
  0
LINE
  8
_0-2_0-10
  6
CONTINUOUS
 62
    7
 10
168.76900939118058
 20
159.78564219000409
 11
163.82478778878498
 21
164.72986379239978
  0
LINE
  8
_0-2_0-10
  6
CONTINUOUS
 62
    7
 10
169.1380391944894
 20
162.06826281614488
 11
165.04229948352198
 21
166.1640025271123
  0
LINE
  8
_0-2_0-10
  6
CONTINUOUS
 62
    7
 10
169.1688697774602
 20
164.68908266262369
 11
166.25981117825901
 21
167.59814126182479
  0
LINE
  8
_0-2_0-10
  6
CONTINUOUS
 62
    7
 10
169.07074839522809
 20
167.43885447430528
 11
167.9648586599435
 21
168.54474420958987
  0
LINE
  8
_0-2_0-10
  6
CONTINUOUS
 62
    7
 10
112.3029739965947
 20
149.67608029643417
 11
113.73862590975039
 21
151.11173220959
  0
LINE
  8
_0-2_0-10
  6
CONTINUOUS
 62
    7
 10
112.40687886318789
 20
147.1283347335779
 11
116.39027633919999
 21
151.11173220959
  0
LINE
  8
_0-2_0-10
  6
CONTINUOUS
 62
    7
 10
112.46379875912579
 20
144.53360420006617
 11
119.0419267686495
 21
151.11173220959
  0
LINE
  8
_0-2_0-10
  6
CONTINUOUS
 62
    7
 10
114.37658919809909
 20
143.79474420958999
 11
121.6935771980991
 21
151.11173220959
  0
LINE
  8
_0-2_0-10
  6
CONTINUOUS
 62
    7
 10
117.0282396275486
 20
143.79474420958999
 11
124.34522762754859
 21
151.11173220959
  0
LINE
  8
_0-2_0-10
  6
CONTINUOUS
 62
    7
 10
119.6798900569982
 20
143.79474420958999
 11
126.99687805699819
 21
151.11173220959
  0
LINE
  8
_0-2_0-10
  6
CONTINUOUS
 62
    7
 10
122.33154048644769
 20
143.79474420958999
 11
129.64852848644778
 21
151.11173220959
  0
LINE
  8
_0-2_0-10
  6
CONTINUOUS
 62
    7
 10
124.98319091589729
 20
143.79474420958999
 11
132.3001789158973
 21
151.11173220959
  0
LINE
  8
_0-2_0-10
  6
CONTINUOUS
 62
    7
 10
127.63484134534679
 20
143.79474420958999
 11
134.95182934534679
 21
151.11173220959
  0
LINE
  8
_0-2_0-10
  6
CONTINUOUS
 62
    7
 10
130.28649177479638
 20
143.79474420958999
 11
137.60347977479639
 21
151.11173220959
  0
LINE
  8
_0-2_0-10
  6
CONTINUOUS
 62
    7
 10
132.9381422042459
 20
143.79474420958999
 11
140.25513020424588
 21
151.11173220959
  0
LINE
  8
_0-2_0-10
  6
CONTINUOUS
 62
    7
 10
135.5897926336955
 20
143.79474420958999
 11
142.90678063369549
 21
151.11173220959
  0
LINE
  8
_0-2_0-10
  6
CONTINUOUS
 62
    7
 10
138.24144306314511
 20
143.79474420958999
 11
145.55843106314509
 21
151.11173220959
  0
LINE
  8
_0-2_0-10
  6
CONTINUOUS
 62
    7
 10
140.8930934925946
 20
143.79474420958999
 11
148.21008149259461
 21
151.11173220959
  0
LINE
  8
_0-2_0-10
  6
CONTINUOUS
 62
    7
 10
143.5447439220442
 20
143.79474420958999
 11
150.86173192204421
 21
151.11173220959
  0
LINE
  8
_0-2_0-10
  6
CONTINUOUS
 62
    7
 10
146.19639435149369
 20
143.79474420958999
 11
153.5133823514937
 21
151.11173220959
  0
LINE
  8
_0-2_0-10
  6
CONTINUOUS
 62
    7
 10
148.84804478094329
 20
143.79474420958999
 11
156.1650327809433
 21
151.11173220959
  0
LINE
  8
_0-2_0-10
  6
CONTINUOUS
 62
    7
 10
151.49969521039278
 20
143.79474420958999
 11
159.1083179530303
 21
151.4033669522274
  0
LINE
  8
_0-2_0-10
  6
CONTINUOUS
 62
    7
 10
154.15134563984238
 20
143.79474420958999
 11
166.90134563984238
 21
156.54474420958987
  0
LINE
  8
_0-2_0-10
  6
CONTINUOUS
 62
    7
 10
156.80334303633711
 20
143.79509117663508
 11
168.5140666220592
 21
155.50581476235717
  0
LINE
  8
_0-2_0-10
  6
CONTINUOUS
 62
    7
 10
162.93775516827119
 20
147.27785287911959
 11
167.90451718758919
 21
152.24461489843767
  0
LINE
  8
_0-2_0-10
  6
CONTINUOUS
 62
    7
 10
165.85629692819111
 20
147.54474420958999
 11
167.01103137401389
 21
148.69947865541277
  0
LINE
  8
_0-2_0-10
  6
CONTINUOUS
 62
    7
 10
113.1653457764569
 20
143.79474420958999
 11
112.463812195661
 21
144.49627779038578
  0
LINE
  8
_0-2_0-10
  6
CONTINUOUS
 62
    7
 10
115.8169962059064
 20
143.79474420958999
 11
112.40424934747829
 21
147.20749106801798
  0
LINE
  8
_0-2_0-10
  6
CONTINUOUS
 62
    7
 10
118.46864663535599
 20
143.79474420958999
 11
112.2881936567483
 21
149.97519718819759
  0
LINE
  8
_0-2_0-10
  6
CONTINUOUS
 62
    7
 10
121.12029706480549
 20
143.79474420958999
 11
113.8033090648055
 21
151.11173220959
  0
LINE
  8
_0-2_0-10
  6
CONTINUOUS
 62
    7
 10
123.7719474942551
 20
143.79474420958999
 11
116.4549594942551
 21
151.11173220959
  0
LINE
  8
_0-2_0-10
  6
CONTINUOUS
 62
    7
 10
126.4235979237046
 20
143.79474420958999
 11
119.10660992370459
 21
151.11173220959
  0
LINE
  8
_0-2_0-10
  6
CONTINUOUS
 62
    7
 10
129.07524835315419
 20
143.79474420958999
 11
121.75826035315419
 21
151.11173220959
  0
LINE
  8
_0-2_0-10
  6
CONTINUOUS
 62
    7
 10
131.72689878260371
 20
143.79474420958987
 11
124.4099107826037
 21
151.11173220958988
  0
LINE
  8
_0-2_0-10
  6
CONTINUOUS
 62
    7
 10
134.37854921205328
 20
143.79474420958987
 11
127.0615612120533
 21
151.11173220958988
  0
LINE
  8
_0-2_0-10
  6
CONTINUOUS
 62
    7
 10
137.0301996415028
 20
143.79474420958987
 11
129.71321164150279
 21
151.11173220958988
  0
LINE
  8
_0-2_0-10
  6
CONTINUOUS
 62
    7
 10
139.6818500709524
 20
143.79474420958999
 11
132.36486207095239
 21
151.11173220959
  0
LINE
  8
_0-2_0-10
  6
CONTINUOUS
 62
    7
 10
142.33350050040189
 20
143.79474420958999
 11
135.01651250040188
 21
151.11173220959
  0
LINE
  8
_0-2_0-10
  6
CONTINUOUS
 62
    7
 10
144.98515092985149
 20
143.79474420958999
 11
137.66816292985149
 21
151.11173220959
  0
LINE
  8
_0-2_0-10
  6
CONTINUOUS
 62
    7
 10
147.6368013593011
 20
143.79474420958987
 11
140.319813359301
 21
151.11173220959
  0
LINE
  8
_0-2_0-10
  6
CONTINUOUS
 62
    7
 10
150.28845178875059
 20
143.79474420958987
 11
142.97146378875061
 21
151.11173220958988
  0
LINE
  8
_0-2_0-10
  6
CONTINUOUS
 62
    7
 10
152.94010221820019
 20
143.79474420958987
 11
145.62311421820018
 21
151.11173220958988
  0
LINE
  8
_0-2_0-10
  6
CONTINUOUS
 62
    7
 10
155.59175264764971
 20
143.79474420958987
 11
148.2747646476497
 21
151.11173220958988
  0
LINE
  8
_0-2_0-10
  6
CONTINUOUS
 62
    7
 10
157.9856081646532
 20
144.05253912203599
 11
150.9264150770993
 21
151.11173220958988
  0
LINE
  8
_0-2_0-10
  6
CONTINUOUS
 62
    7
 10
159.54521211276178
 20
145.14458560337689
 11
153.57806550654879
 21
151.11173220958988
  0
LINE
  8
_0-2_0-10
  6
CONTINUOUS
 62
    7
 10
161.1048160608704
 20
146.23663208471788
 11
156.22971593599839
 21
151.11173220958988
  0
LINE
  8
_0-2_0-10
  6
CONTINUOUS
 62
    7
 10
162.7741508547368
 20
147.21894772030108
 11
158.67697075072248
 21
151.3161278243154
  0
LINE
  8
_0-2_0-10
  6
CONTINUOUS
 62
    7
 10
165.1000047948975
 20
147.54474420958987
 11
160.7448245598095
 21
151.89992444467787
  0
LINE
  8
_0-2_0-10
  6
CONTINUOUS
 62
    7
 10
166.91789041855719
 20
148.37850901537979
 11
162.4158842815577
 21
152.88051515237927
  0
LINE
  8
_0-2_0-10
  6
CONTINUOUS
 62
    7
 10
167.4859607523183
 20
150.46208911106819
 11
163.8888865172428
 21
154.05916334614369
  0
LINE
  8
_0-2_0-10
  6
CONTINUOUS
 62
    7
 10
167.98398238139529
 20
152.61571791144069
 11
165.36188875292791
 21
155.23781153990807
  0
LINE
  8
_0-2_0-10
  6
CONTINUOUS
 62
    7
 10
168.40657881595001
 20
154.84477190633558
 11
166.70660651269571
 21
156.54474420958987
  0
LINE
  8
_0-2_0-10
  6
CONTINUOUS
 62
    7
 10
112.2684690371656
 20
139.03497361920688
 11
112.34522762754859
 21
139.11173220958988
  0
LINE
  8
_0-2_0-10
  6
CONTINUOUS
 62
    7
 10
111.88385960422739
 20
135.99871375681919
 11
114.99687805699819
 21
139.11173220959
  0
LINE
  8
_0-2_0-10
  6
CONTINUOUS
 62
    7
 10
111.19052808760609
 20
132.65373181074838
 11
117.6485284864477
 21
139.11173220958988
  0
LINE
  8
_0-2_0-10
  6
CONTINUOUS
 62
    7
 10
112.98319091589729
 20
131.79474420958999
 11
120.3001789158973
 21
139.11173220959
  0
LINE
  8
_0-2_0-10
  6
CONTINUOUS
 62
    7
 10
115.63484134534689
 20
131.79474420958999
 11
122.95182934534679
 21
139.11173220959
  0
LINE
  8
_0-2_0-10
  6
CONTINUOUS
 62
    7
 10
118.2864917747964
 20
131.79474420958999
 11
125.60347977479639
 21
139.11173220959
  0
LINE
  8
_0-2_0-10
  6
CONTINUOUS
 62
    7
 10
120.938142204246
 20
131.79474420958999
 11
128.25513020424588
 21
139.11173220959
  0
LINE
  8
_0-2_0-10
  6
CONTINUOUS
 62
    7
 10
123.58979263369549
 20
131.79474420958999
 11
130.90678063369549
 21
139.11173220959
  0
LINE
  8
_0-2_0-10
  6
CONTINUOUS
 62
    7
 10
126.24144306314499
 20
131.79474420958987
 11
133.55843106314509
 21
139.11173220959
  0
LINE
  8
_0-2_0-10
  6
CONTINUOUS
 62
    7
 10
128.8930934925946
 20
131.79474420958999
 11
136.21008149259461
 21
139.11173220959
  0
LINE
  8
_0-2_0-10
  6
CONTINUOUS
 62
    7
 10
131.5447439220442
 20
131.79474420958999
 11
138.86173192204421
 21
139.11173220959
  0
LINE
  8
_0-2_0-10
  6
CONTINUOUS
 62
    7
 10
134.19639435149369
 20
131.79474420958999
 11
141.5133823514937
 21
139.11173220959
  0
LINE
  8
_0-2_0-10
  6
CONTINUOUS
 62
    7
 10
136.84804478094321
 20
131.79474420958987
 11
144.16503278094319
 21
139.11173220959
  0
LINE
  8
_0-2_0-10
  6
CONTINUOUS
 62
    7
 10
139.49969521039278
 20
131.79474420958987
 11
146.81668321039279
 21
139.11173220959
  0
LINE
  8
_0-2_0-10
  6
CONTINUOUS
 62
    7
 10
142.15134563984238
 20
131.79474420958987
 11
149.46833363984239
 21
139.11173220959
  0
LINE
  8
_0-2_0-10
  6
CONTINUOUS
 62
    7
 10
144.8029960692919
 20
131.79474420958987
 11
152.32097974659419
 21
139.31272788689219
  0
LINE
  8
_0-2_0-10
  6
CONTINUOUS
 62
    7
 10
147.45464649874151
 20
131.79474420958987
 11
155.92585455203951
 21
140.26595226288799
  0
LINE
  8
_0-2_0-10
  6
CONTINUOUS
 62
    7
 10
150.1282818938769
 20
131.81672917527589
 11
161.33148306961018
 21
143.01993035100909
  0
LINE
  8
_0-2_0-10
  6
CONTINUOUS
 62
    7
 10
156.02852216401541
 20
135.06531901596477
 11
165.19762181941709
 21
144.23441867136639
  0
LINE
  8
_0-2_0-10
  6
CONTINUOUS
 62
    7
 10
159.15959778709009
 20
135.54474420958999
 11
163.7704796871742
 21
140.15562610967398
  0
LINE
  8
_0-2_0-10
  6
CONTINUOUS
 62
    7
 10
111.9070936292091
 20
131.79474420958987
 11
111.1615754709621
 21
132.5402623678369
  0
LINE
  8
_0-2_0-10
  6
CONTINUOUS
 62
    7
 10
114.5587440586586
 20
131.79474420958987
 11
111.6514712495548
 21
134.70201701869379
  0
LINE
  8
_0-2_0-10
  6
CONTINUOUS
 62
    7
 10
117.2103944881082
 20
131.79474420958987
 11
112.0416578811444
 21
136.96348081655378
  0
LINE
  8
_0-2_0-10
  6
CONTINUOUS
 62
    7
 10
119.86204491755769
 20
131.79474420958987
 11
112.5450569175578
 21
139.11173220958988
  0
LINE
  8
_0-2_0-10
  6
CONTINUOUS
 62
    7
 10
122.51369534700729
 20
131.79474420958987
 11
115.1967073470073
 21
139.11173220958988
  0
LINE
  8
_0-2_0-10
  6
CONTINUOUS
 62
    7
 10
125.1653457764568
 20
131.79474420958987
 11
117.84835777645689
 21
139.11173220958988
  0
LINE
  8
_0-2_0-10
  6
CONTINUOUS
 62
    7
 10
127.8169962059064
 20
131.79474420958987
 11
120.50000820590639
 21
139.11173220958988
  0
LINE
  8
_0-2_0-10
  6
CONTINUOUS
 62
    7
 10
130.468646635356
 20
131.79474420958999
 11
123.151658635356
 21
139.11173220958988
  0
LINE
  8
_0-2_0-10
  6
CONTINUOUS
 62
    7
 10
133.12029706480549
 20
131.79474420958987
 11
125.8033090648055
 21
139.11173220958988
  0
LINE
  8
_0-2_0-10
  6
CONTINUOUS
 62
    7
 10
135.7719474942551
 20
131.79474420958987
 11
128.45495949425509
 21
139.11173220958988
  0
LINE
  8
_0-2_0-10
  6
CONTINUOUS
 62
    7
 10
138.42359792370459
 20
131.79474420958987
 11
131.10660992370469
 21
139.11173220958988
  0
LINE
  8
_0-2_0-10
  6
CONTINUOUS
 62
    7
 10
141.07524835315419
 20
131.79474420958987
 11
133.75826035315421
 21
139.11173220958988
  0
LINE
  8
_0-2_0-10
  6
CONTINUOUS
 62
    7
 10
143.72689878260371
 20
131.79474420958987
 11
136.40991078260378
 21
139.11173220958988
  0
LINE
  8
_0-2_0-10
  6
CONTINUOUS
 62
    7
 10
146.37854921205328
 20
131.79474420958987
 11
139.0615612120533
 21
139.11173220958988
  0
LINE
  8
_0-2_0-10
  6
CONTINUOUS
 62
    7
 10
149.0301996415028
 20
131.79474420958987
 11
141.7132116415029
 21
139.11173220958988
  0
LINE
  8
_0-2_0-10
  6
CONTINUOUS
 62
    7
 10
151.28771083254238
 20
132.18888344799989
 11
144.36486207095239
 21
139.11173220958988
  0
LINE
  8
_0-2_0-10
  6
CONTINUOUS
 62
    7
 10
152.91962679645121
 20
133.20861791354067
 11
147.016512500402
 21
139.11173220958988
  0
LINE
  8
_0-2_0-10
  6
CONTINUOUS
 62
    7
 10
154.55154276036
 20
134.22835237908148
 11
149.6653933730769
 21
139.11450176636449
  0
LINE
  8
_0-2_0-10
  6
CONTINUOUS
 62
    7
 10
156.26967638187051
 20
135.16186918702049
 11
152.14634811733981
 21
139.28519745155119
  0
LINE
  8
_0-2_0-10
  6
CONTINUOUS
 62
    7
 10
158.53845178875059
 20
135.54474420958999
 11
154.35052462731098
 21
139.73267137102948
  0
LINE
  8
_0-2_0-10
  6
CONTINUOUS
 62
    7
 10
161.10201930907709
 20
135.63282711871298
 11
156.3003393644999
 21
140.43450706329019
  0
LINE
  8
_0-2_0-10
  6
CONTINUOUS
 62
    7
 10
162.22788755085889
 20
137.15860930638078
 11
158.06028098931861
 21
141.32621586792097
  0
LINE
  8
_0-2_0-10
  6
CONTINUOUS
 62
    7
 10
163.14743458847229
 20
138.8907126982169
 11
159.80735655248111
 21
142.23079073420808
  0
LINE
  8
_0-2_0-10
  6
CONTINUOUS
 62
    7
 10
164.0148442213497
 20
140.67495349478909
 11
161.55443211564369
 21
143.13536560049507
  0
LINE
  8
_0-2_0-10
  6
CONTINUOUS
 62
    7
 10
164.82814354635701
 20
142.51330459923127
 11
162.90133936718689
 21
144.44010877840128
  0
LINE
  8
_0-2_0-10
  6
CONTINUOUS
 62
    7
 10
108.57682130631489
 20
124.73672417055799
 11
110.95182934534679
 21
127.11173220958988
  0
LINE
  8
_0-2_0-10
  6
CONTINUOUS
 62
    7
 10
106.6088490193847
 20
120.11710145417818
 11
113.60347977479639
 21
127.11173220958988
  0
LINE
  8
_0-2_0-10
  6
CONTINUOUS
 62
    7
 10
108.938142204246
 20
119.79474420958999
 11
116.2551302042459
 21
127.11173220958988
  0
LINE
  8
_0-2_0-10
  6
CONTINUOUS
 62
    7
 10
111.58979263369549
 20
119.79474420958999
 11
118.9067806336955
 21
127.11173220958988
  0
LINE
  8
_0-2_0-10
  6
CONTINUOUS
 62
    7
 10
114.24144306314509
 20
119.79474420958999
 11
121.55843106314499
 21
127.11173220958988
  0
LINE
  8
_0-2_0-10
  6
CONTINUOUS
 62
    7
 10
116.8930934925946
 20
119.79474420958999
 11
124.21008149259459
 21
127.11173220958988
  0
LINE
  8
_0-2_0-10
  6
CONTINUOUS
 62
    7
 10
119.5447439220442
 20
119.79474420958999
 11
126.8617319220441
 21
127.11173220958988
  0
LINE
  8
_0-2_0-10
  6
CONTINUOUS
 62
    7
 10
122.19639435149369
 20
119.79474420958999
 11
129.5133823514937
 21
127.11173220958998
  0
LINE
  8
_0-2_0-10
  6
CONTINUOUS
 62
    7
 10
124.84804478094329
 20
119.79474420958999
 11
132.1650327809433
 21
127.11173220958988
  0
LINE
  8
_0-2_0-10
  6
CONTINUOUS
 62
    7
 10
127.4996952103928
 20
119.79474420958999
 11
134.82217234097629
 21
127.11722134017348
  0
LINE
  8
_0-2_0-10
  6
CONTINUOUS
 62
    7
 10
130.15134563984238
 20
119.79474420958999
 11
137.56989494876469
 21
127.21329351851228
  0
LINE
  8
_0-2_0-10
  6
CONTINUOUS
 62
    7
 10
132.8029960692919
 20
119.79474420958999
 11
140.48416488628168
 21
127.47591302657968
  0
LINE
  8
_0-2_0-10
  6
CONTINUOUS
 62
    7
 10
135.45464649874151
 20
119.79474420958999
 11
143.631067018017
 21
127.97116472886548
  0
LINE
  8
_0-2_0-10
  6
CONTINUOUS
 62
    7
 10
138.2384993379583
 20
119.92694661935729
 11
147.11034734165468
 21
128.79879462305359
  0
LINE
  8
_0-2_0-10
  6
CONTINUOUS
 62
    7
 10
143.1848459146137
 20
122.22164276656299
 11
151.0574194523493
 21
130.09421630429869
  0
LINE
  8
_0-2_0-10
  6
CONTINUOUS
 62
    7
 10
147.13645277396489
 20
123.52159919646469
 11
155.0584262429395
 21
131.44357266543929
  0
LINE
  8
_0-2_0-10
  6
CONTINUOUS
 62
    7
 10
155.557039876391
 20
131.94218629889078
 11
155.8721251713882
 21
132.25727159388799
  0
LINE
  8
_0-2_0-10
  6
CONTINUOUS
 62
    7
 10
149.81124821653969
 20
123.54474420958999
 11
158.63618491446931
 21
132.36968090751958
  0
LINE
  8
_0-2_0-10
  6
CONTINUOUS
 62
    7
 10
107.99719105251179
 20
119.79474420958989
 11
106.9388195130856
 21
120.85311574901608
  0
LINE
  8
_0-2_0-10
  6
CONTINUOUS
 62
    7
 10
110.64884148196129
 20
119.79474420958999
 11
107.7406084778798
 21
122.70297721367148
  0
LINE
  8
_0-2_0-10
  6
CONTINUOUS
 62
    7
 10
113.3004919114109
 20
119.79474420958999
 11
108.51535187051719
 21
124.57988425048358
  0
LINE
  8
_0-2_0-10
  6
CONTINUOUS
 62
    7
 10
115.9521423408604
 20
119.79474420958999
 11
109.25485675259339
 21
126.49202979785698
  0
LINE
  8
_0-2_0-10
  6
CONTINUOUS
 62
    7
 10
118.60379277030999
 20
119.79474420958989
 11
111.28680477030999
 21
127.11173220958988
  0
LINE
  8
_0-2_0-10
  6
CONTINUOUS
 62
    7
 10
121.25544319975949
 20
119.79474420958999
 11
113.9384551997596
 21
127.11173220958988
  0
LINE
  8
_0-2_0-10
  6
CONTINUOUS
 62
    7
 10
123.9070936292091
 20
119.79474420958999
 11
116.5901056292091
 21
127.11173220958988
  0
LINE
  8
_0-2_0-10
  6
CONTINUOUS
 62
    7
 10
126.5587440586586
 20
119.79474420958999
 11
119.24175605865869
 21
127.11173220958988
  0
LINE
  8
_0-2_0-10
  6
CONTINUOUS
 62
    7
 10
129.21039448810819
 20
119.79474420958999
 11
121.89340648810819
 21
127.11173220958988
  0
LINE
  8
_0-2_0-10
  6
CONTINUOUS
 62
    7
 10
131.86204491755771
 20
119.79474420958999
 11
124.5450569175578
 21
127.11173220958988
  0
LINE
  8
_0-2_0-10
  6
CONTINUOUS
 62
    7
 10
134.51369534700731
 20
119.79474420958999
 11
127.1967073470073
 21
127.11173220958988
  0
LINE
  8
_0-2_0-10
  6
CONTINUOUS
 62
    7
 10
137.1653457764568
 20
119.79474420958989
 11
129.8483577764569
 21
127.11173220958988
  0
LINE
  8
_0-2_0-10
  6
CONTINUOUS
 62
    7
 10
139.2898262726
 20
120.32191414289638
 11
132.50000820590639
 21
127.11173220958988
  0
LINE
  8
_0-2_0-10
  6
CONTINUOUS
 62
    7
 10
141.0721695311725
 20
121.19122131377338
 11
135.1392477355406
 21
127.12414310940528
  0
LINE
  8
_0-2_0-10
  6
CONTINUOUS
 62
    7
 10
142.854512789745
 20
122.06052848465049
 11
137.69360440119299
 21
127.22143687320239
  0
LINE
  8
_0-2_0-10
  6
CONTINUOUS
 62
    7
 10
144.6462685241893
 20
122.92042317965568
 11
140.13003323100249
 21
127.43665847284249
  0
LINE
  8
_0-2_0-10
  6
CONTINUOUS
 62
    7
 10
146.73726539845318
 20
123.48107673484139
 11
142.45741770602938
 21
127.76092442726519
  0
LINE
  8
_0-2_0-10
  6
CONTINUOUS
 62
    7
 10
149.32524835315419
 20
123.54474420958989
 11
144.68131439321558
 21
128.18867816952848
  0
LINE
  8
_0-2_0-10
  6
CONTINUOUS
 62
    7
 10
151.7892601201494
 20
123.73238287204428
 11
146.80451741975559
 21
128.71712557243807
  0
LINE
  8
_0-2_0-10
  6
CONTINUOUS
 62
    7
 10
153.14553093230699
 20
125.02776248933618
 11
148.83021214527119
 21
129.34308127637197
  0
LINE
  8
_0-2_0-10
  6
CONTINUOUS
 62
    7
 10
154.4412866270951
 20
126.38365722399768
 11
150.81311892629361
 21
130.01182492479918
  0
LINE
  8
_0-2_0-10
  6
CONTINUOUS
 62
    7
 10
155.6921326229586
 20
127.78446165758369
 11
152.79602570731589
 21
130.68056857322639
  0
LINE
  8
_0-2_0-10
  6
CONTINUOUS
 62
    7
 10
156.89781002143578
 20
129.2304346885561
 11
154.77893248833819
 21
131.34931222165369
  0
LINE
  8
_0-2_0-10
  6
CONTINUOUS
 62
    7
 10
158.0578997891273
 20
130.72199535031407
 11
156.28680687156079
 21
132.49308826788058
  0
TEXT
  8
_0-1_0-00
 62
    7
 10
14.347999020947213
 20
14.121999308493002
 40
3.5099999999999988
 41
1
 50
0
  1
型番：VC100JKAP-FD□　　※)□はカラーを示します。
  0
TEXT
  8
_0-1_0-00
 62
    7
 10
344.8159211023028
 20
9.2637315968289897
 40
3.8999999999999999
 41
1
 50
0
  1
対外風型フード付換気口(網・FD付)
  0
ENDSEC
  0
EOF
