  0
SECTION
  2
HEADER
  9
$ACADVER
  1
AC1009
  9
$INSBASE
 10
0
 20
0
 30
0
  9
$EXTMIN
 10
0
 20
0
  9
$EXTMAX
 10
297
 20
210
  9
$LIMMIN
 10
0
 20
0
  9
$LIMMAX
 10
297
 20
210
  9
$LTSCALE
 40
0.5
  0
ENDSEC
  0
SECTION
  2
TABLES
  0
TABLE
  2
LTYPE
 70
     9
  0
LTYPE
  2
CONTINUOUS
 70
    64
  3
実線
 72
    65
 73
     0
 40
0.0
  0
LTYPE
  2
DASHED1
 70
    64
  3
--  --  --  --  --  --  --  --  
 72
    65
 73
     2
 40
2.5
 49
1.25
 49
-1.25
  0
LTYPE
  2
DASHED2
 70
    64
  3
----    ----    ----    ----    
 72
    65
 73
     2
 40
5.0
 49
2.5
 49
-2.5
  0
LTYPE
  2
DASHED3
 70
    64
  3
------  ------  ------  ------  
 72
    65
 73
     2
 40
5.0
 49
3.75
 49
-1.25
  0
LTYPE
  2
CENTER1
 70
    64
  3
----- - ----- - ----- - ----- - 
 72
    65
 73
     4
 40
10.0
 49
6.25
 49
-1.25
 49
1.25
 49
-1.25
  0
LTYPE
  2
CENTER2
 70
    64
  3
----------  --  ----------  --  
 72
    65
 73
     4
 40
20.0
 49
12.5
 49
-2.5
 49
2.5
 49
-2.5
  0
LTYPE
  2
PHANTOM1
 70
    64
  3
--- - - --- - - --- - - --- - - 
 72
    65
 73
     6
 40
10.0
 49
3.25
 49
-1.25
 49
1.25
 49
-1.25
 49
1.25
 49
-1.25
  0
LTYPE
  2
PHANTOM2
 70
    64
  3
--------  -  -  --------  -  -  
 72
    65
 73
     6
 40
20.0
 49
10.0
 49
-2.5
 49
1.25
 49
-2.5
 49
1.25
 49
-2.5
  0
LTYPE
  2
DOT
 70
    64
  3
-   -   -   -   -   -   -   -   
 72
    65
 73
     2
 40
2.5
 49
0.625
 49
-1.875
  0
LTYPE
  2
DUMMY
 70
    64
  3
ダミー
 72
    65
 73
     0
 40
0.0
  0
LTYPE
  2
RAND1
 70
    64
  3
ランダム線1
 72
    65
 73
     4
 40
10.0
 49
1.0
 49
-2.0
 49
3.0
 49
-4.0
  0
LTYPE
  2
RAND2
 70
    64
  3
ランダム線2
 72
    65
 73
     4
 40
14.0
 49
2.0
 49
-3.0
 49
4.0
 49
-5.0
  0
LTYPE
  2
RAND3
 70
    64
  3
ランダム線3
 72
    65
 73
     4
 40
18.0
 49
3.0
 49
-4.0
 49
5.0
 49
-6.0
  0
LTYPE
  2
RAND4
 70
    64
  3
ランダム線4
 72
    65
 73
     4
 40
22.0
 49
4.0
 49
-5.0
 49
6.0
 49
-7.0
  0
LTYPE
  2
RAND5
 70
    64
  3
ランダム線5
 72
    65
 73
     4
 40
26.0
 49
5.0
 49
-6.0
 49
7.0
 49
-8.0
  0
LTYPE
  2
LONG1
 70
    64
  3
----------  --  ----------  --  
 72
    65
 73
     4
 40
40.0
 49
32.5
 49
-2.5
 49
2.5
 49
-2.5
  0
LTYPE
  2
LONG2
 70
    64
  3
--------  -  -  --------  -  -  
 72
    65
 73
     6
 40
40.0
 49
30.0
 49
-2.5
 49
1.25
 49
-2.5
 49
1.25
 49
-2.5
  0
LTYPE
  2
LONG3
 70
    64
  3
+++++++++++++++..+++++++++++++++
 72
    65
 73
     2
 40
40.0
 49
37.5
 49
-2.5
  0
LTYPE
  2
LONG4
 70
    64
  3
+++++++++++++++..+++++++++++++++
 72
    65
 73
     2
 40
80.0
 49
75.0
 49
-5.0
  0
LTYPE
  2
LONG5
 70
    64
  3
----------  --  ----------  --  
 72
    65
 73
     4
 40
60.0
 49
37.5
 49
-7.5
 49
7.5
 49
-7.5
  0
LTYPE
  2
dashed
 70
   64
  3
-------   -------------   ------
 72
   65
 73
    2
 40
7.5
 49
6
 49
-1.5
  0
LTYPE
  2
dashed_spaced
 70
   64
  3
----        --------        ----
 72
   65
 73
    2
 40
12
 49
6
 49
-6
  0
LTYPE
  2
long_dashed_dotted
 70
   64
  3
------------- --- --------------
 72
   65
 73
    4
 40
15.25
 49
12
 49
-1.5
 49
0.25
 49
-1.5
  0
LTYPE
  2
long_dashed_double-dotted
 70
   64
  3
----------- --- --- ------------
 72
   65
 73
    6
 40
17
 49
12
 49
-1.5
 49
0.25
 49
-1.5
 49
0.25
 49
-1.5
  0
LTYPE
  2
long_dashed_triplicate-dotted
 70
   64
  3
--------- --- --- --- ----------
 72
   65
 73
    8
 40
18.75
 49
12
 49
-1.5
 49
0.25
 49
-1.5
 49
0.25
 49
-1.5
 49
0.25
 49
-1.5
  0
LTYPE
  2
dotted
 70
   64
  3
   -       -       -       -    
 72
   65
 73
    2
 40
1.75
 49
0.25
 49
-1.5
  0
LTYPE
  2
chain
 70
   64
  3
-------------- -- --------------
 72
   65
 73
    4
 40
18.5
 49
12
 49
-1.5
 49
3.5
 49
-1.5
  0
LTYPE
  2
chain_double_dash
 70
   64
  3
------------ -- -- -------------
 72
   65
 73
    6
 40
23.5
 49
12
 49
-1.5
 49
3.5
 49
-1.5
 49
3.5
 49
-1.5
  0
LTYPE
  2
dashed_dotted
 70
   64
  3
-----------     -     ----------
 72
   65
 73
    4
 40
9.25
 49
6
 49
-1.5
 49
0.25
 49
-1.5
  0
LTYPE
  2
double-dashed_dotted
 70
   64
  3
------   -----------   -   -----
 72
   65
 73
    6
 40
16.75
 49
6
 49
-1.5
 49
6
 49
-1.5
 49
0.25
 49
-1.5
  0
LTYPE
  2
dashed_double-dotted
 70
   64
  3
---------    -    -    ---------
 72
   65
 73
    6
 40
11
 49
6
 49
-1.5
 49
0.25
 49
-1.5
 49
0.25
 49
-1.5
  0
LTYPE
  2
double-dashed_double-dotted
 70
   64
  3
-----   ---------   -   -   ----
 72
   65
 73
    8
 40
18.5
 49
6
 49
-1.5
 49
6
 49
-1.5
 49
0.25
 49
-1.5
 49
0.25
 49
-1.5
  0
LTYPE
  2
dashed_triplicate-dotted
 70
   64
  3
-------    -    -    -    ------
 72
   65
 73
    8
 40
12.75
 49
6
 49
-1.5
 49
0.25
 49
-1.5
 49
0.25
 49
-1.5
 49
0.25
 49
-1.5
  0
LTYPE
  2
double-dashed_triplicate-dotted
 70
   64
  3
-----  ---------  -  -  -  -----
 72
   65
 73
   10
 40
20.25
 49
6
 49
-1.5
 49
6
 49
-1.5
 49
0.25
 49
-1.5
 49
0.25
 49
-1.5
 49
0.25
 49
-1.5
  0
LTYPE
  2
undefined
 70
   64
  3
--------------------------------
 72
   65
 73
    0
 40
0
  0
LTYPE
  2
DOT_CENTER
 70
   64
  3
----------    ----    ----------
 72
   65
 73
    4
 40
2
 49
1.25
 49
-0.25
 49
0.25
 49
-0.25
  0
LTYPE
  2
_
 70
   64
  3
                                
 72
   65
 73
    0
 40
0
  0
LTYPE
  2
__19
 70
   64
  3
                                
 72
   65
 73
    0
 40
0
  0
LTYPE
  2
__20
 70
   64
  3
                                
 72
   65
 73
    0
 40
0
  0
LTYPE
  2
__21
 70
   64
  3
                                
 72
   65
 73
    0
 40
0
  0
LTYPE
  2
__22
 70
   64
  3
                                
 72
   65
 73
    0
 40
0
  0
LTYPE
  2
__23
 70
   64
  3
                                
 72
   65
 73
    0
 40
0
  0
LTYPE
  2
__24
 70
   64
  3
                                
 72
   65
 73
    0
 40
0
  0
LTYPE
  2
__25
 70
   64
  3
                                
 72
   65
 73
    0
 40
0
  0
LTYPE
  2
__26
 70
   64
  3
                                
 72
   65
 73
    0
 40
0
  0
LTYPE
  2
__27
 70
   64
  3
                                
 72
   65
 73
    0
 40
0
  0
LTYPE
  2
__28
 70
   64
  3
                                
 72
   65
 73
    0
 40
0
  0
LTYPE
  2
__29
 70
   64
  3
                                
 72
   65
 73
    0
 40
0
  0
LTYPE
  2
__30
 70
   64
  3
                                
 72
   65
 73
    0
 40
0
  0
LTYPE
  2
__31
 70
   64
  3
                                
 72
   65
 73
    0
 40
0
  0
LTYPE
  2
__32
 70
   64
  3
                                
 72
   65
 73
    0
 40
0
  0
ENDTAB
  0
TABLE
  2
STYLE
  5
3
100
AcDbSymbolTable
 70
     1
  0
STYLE
  5
10
100
AcDbSymbolTableRecord
100
AcDbTextStyleTableRecord
  2
STANDARD
 70
     0
 40
0.0
 41
1.0
 50
0.0
 71
     0
 42
0.2
  3
txt
  4
bigfont.shx
  0
STYLE
  5
26
100
AcDbSymbolTableRecord
100
AcDbTextStyleTableRecord
  2
TATEGAKI
 70
    68
 40
0.0
 41
1.0
 50
0.0
 71
     0
 42
1.0
  3
txt
  4
bigfont.shx
  0
ENDTAB
  0
TABLE
  2
LAYER
 70
    7
  0
LAYER
  2
_0-0_0
 70
   64
 62
    7
  6
CONTINUOUS
  0
LAYER
  2
_0-1_1
 70
   64
 62
    7
  6
CONTINUOUS
  0
LAYER
  2
_0-2_1__DRAFT_DIMS
 70
   64
 62
    7
  6
CONTINUOUS
  0
LAYER
  2
_0-3_8_ALL_NOTES_BALLOONS_SS_GT
 70
   64
 62
    7
  6
CONTINUOUS
  0
LAYER
  2
_0-4_DEFAULT_1
 70
   64
 62
    7
  6
CONTINUOUS
  0
LAYER
  2
_0-5__U_30EC_U_30A4_U_30E4_FC_1
 70
   64
 62
    7
  6
CONTINUOUS
  0
LAYER
  2
ADD_LINE
 70
   64
 62
    7
  6
CONTINUOUS
  0
ENDTAB
  0
ENDSEC
  0
SECTION
  2
BLOCKS
  0
BLOCK
  2
-000-A3_ZUWAKU
 70
   64
 10
0
 20
0
 30
0
  0
TEXT
  8
_0-1_1
 62
    7
 10
42.684236538666539
 20
12.847415409981096
 40
2.799999999999998
 41
1
 50
0
  1
 
  0
TEXT
  8
_0-1_1
 62
    7
 10
209.50920645619382
 20
4.309787576569704
 40
3.2000000000000002
 41
1
 50
0
  1
 
  0
TEXT
  8
_0-1_1
 62
    7
 10
341.08257744877312
 20
9.285836069514886
 40
4
 41
1
 50
0
  1
 
  0
TEXT
  8
_0-1_1
 62
    7
 10
361.22835782965512
 20
25.585836069514897
 40
4
 41
1
 50
0
  1
 
  0
TEXT
  8
_0-1_1
 62
    7
 10
361.42835782965511
 20
40.185836069515091
 40
3.2000000000000002
 41
1
 50
0
  1
 
  0
TEXT
  8
_0-1_1
 62
    7
 10
369.75332230402392
 20
0
 40
2.5
 41
0.9
 50
0
  1
(980123)
  0
TEXT
  8
_0-1_1
 62
    7
 10
6.0443632638239215
 20
0
 40
2.5
 41
0.9
 50
0
  1
G1-151-A3
  0
TEXT
  8
_0-1_1
 62
    7
 10
378.2728077880663
 20
15.251888440943304
 40
3.2000000000000002
 41
1
 50
0
  1
通 番
  0
TEXT
  8
_0-1_1
 62
    7
 10
319.45871823237252
 20
13.444999999999993
 40
3.2000000000000002
 41
1
 50
0
  1
仕様書番号
  0
TEXT
  8
_0-1_1
 62
    7
 10
321.974580205758
 20
21.644999999999982
 40
2.799999999999998
 41
1
 50
0
  1
PARTNAME
  0
TEXT
  8
_0-1_1
 62
    7
 10
322.07940836544441
 20
29.694999999999993
 40
3.2000000000000002
 41
1
 50
0
  1
部品名
  0
TEXT
  8
_0-1_1
 62
    7
 10
320.58613231221574
 20
36.969999999999999
 40
2.8999999999999999
 41
1
 50
0
  1
PROD.MARK
  0
TEXT
  8
_0-1_1
 62
    7
 10
322.3111323122157
 20
42.819999999999993
 40
3.2000000000000002
 41
1
 50
0
  1
商品名
  0
TEXT
  8
_0-1_1
 62
    7
 10
192.82500000000013
 20
0.0197849601954942
 40
1.5
 41
1
 50
0
  1
&^ 
  0
TEXT
  8
_0-1_1
 62
    7
 10
28.897458524802172
 20
17.191813735573191
 40
2.2000000000000002
 41
1
 50
0
  1
 
  0
LINE
  8
_0-1_1
  6
CONTINUOUS
 62
    2
 10
344.53737985591522
 20
10.464109602345701
 11
370.72476218121892
 21
10.464109602345701
  0
LINE
  8
_0-1_1
  6
CONTINUOUS
 62
    6
 10
0
 20
1.347390560641287
 11
0
 21
0
  0
LINE
  8
_0-1_1
  6
CONTINUOUS
 62
    6
 10
0
 20
0
 11
3.2121524194419599
 21
0
  0
LINE
  8
_0-1_1
  6
CONTINUOUS
 62
    7
 10
0.2000000000001591
 20
276.62000000000012
 11
0.2000000000001591
 21
3.4200000000001012
  0
LINE
  8
_0-1_1
  6
CONTINUOUS
 62
    2
 10
376.69999999999999
 20
18.919999999999987
 11
376.69999999999999
 21
3.4200000000001012
  0
LINE
  8
_0-1_1
  6
CONTINUOUS
 62
    2
 10
376.69999999999999
 20
14.919999999999987
 11
387.69999999999999
 21
14.919999999999987
  0
LINE
  8
_0-1_1
  6
CONTINUOUS
 62
    2
 10
319.19999999999999
 20
35.419999999999987
 11
387.69999999999999
 21
35.419999999999987
  0
LINE
  8
_0-1_1
  6
CONTINUOUS
 62
    2
 10
337.19999999999999
 20
47.419999999999987
 11
337.19999999999999
 21
3.4200000000001012
  0
LINE
  8
_0-1_1
  6
CONTINUOUS
 62
    2
 10
319.19999999999999
 20
47.419999999999987
 11
319.19999999999999
 21
3.4200000000001012
  0
LINE
  8
_0-1_1
  6
CONTINUOUS
 62
    7
 10
0.2000000000001591
 20
276.62000000000012
 11
387.69999999999999
 21
276.62000000000012
  0
LINE
  8
_0-1_1
  6
CONTINUOUS
 62
    7
 10
387.69999999999999
 20
3.4200000000001012
 11
387.69999999999999
 21
276.62000000000012
  0
LINE
  8
_0-1_1
  6
CONTINUOUS
 62
    7
 10
387.69999999999999
 20
3.4200000000001012
 11
0.2000000000001591
 21
3.4200000000001012
  0
LINE
  8
_0-1_1
  6
CONTINUOUS
 62
    2
 10
319.19999999999999
 20
47.419999999999987
 11
387.69999999999999
 21
47.419999999999987
  0
LINE
  8
_0-1_1
  6
CONTINUOUS
 62
    2
 10
319.19999999999999
 20
18.919999999999987
 11
387.69999999999999
 21
18.919999999999987
  0
ENDBLK
  0
BLOCK
  2
-001-_D21
 70
   64
 10
0
 20
0
 30
0
  0
LINE
  8
_0-1_1
  6
CONTINUOUS
 62
    2
 10
192.20835775716341
 20
354.65549385442011
 11
192.20835775716341
 21
371.19333254665833
  0
LINE
  8
_0-1_1
  6
CONTINUOUS
 62
    2
 10
207.9083577571634
 20
367.65549385442
 11
207.9083577571634
 21
371.19333254665833
  0
LINE
  8
_0-1_1
  6
CONTINUOUS
 62
    2
 10
189.0083577571634
 20
370.19333254665833
 11
185.80835775716329
 21
370.19333254665833
  0
LINE
  8
_0-1_1
  6
CONTINUOUS
 62
    2
 10
211.10835775716339
 20
370.19333254665833
 11
214.30835775716341
 21
370.19333254665833
  0
SOLID
  8
_0-1_1
  6
CONTINUOUS
 62
    2
 10
189.0083577571634
 20
370.72666587999169
 11
189.0083577571634
 21
369.65999921332491
 12
192.20835775716341
 22
370.19333254665833
 13
192.20835775716341
 23
370.19333254665833
  0
SOLID
  8
_0-1_1
  6
CONTINUOUS
 62
    2
 10
211.10835775716339
 20
370.72666587999169
 11
211.10835775716339
 21
369.65999921332491
 12
207.9083577571634
 22
370.19333254665833
 13
207.9083577571634
 23
370.19333254665833
  0
TEXT
  8
_0-1_1
 62
    7
 10
196.85836163568223
 20
368.59332478964421
 40
3.2000000000000002
 41
1
 50
0.0001388888872612
  1
15.7
  0
POINT
  8
_0-6_Defpoints
 62
    7
 10
192.20835775716341
 20
353.65549385442
  0
POINT
  8
_0-6_Defpoints
 62
    7
 10
207.9083577571634
 20
366.65549385442
  0
POINT
  8
_0-6_Defpoints
 62
    7
 10
207.9083577571634
 20
370.19333254665833
  0
ENDBLK
  0
BLOCK
  2
-002-_D22
 70
   64
 10
0
 20
0
 30
0
  0
LINE
  8
_0-1_1
  6
CONTINUOUS
 62
    2
 10
211.70835775716341
 20
331.50549385442002
 11
222.2225149934454
 21
331.50549385442002
  0
LINE
  8
_0-1_1
  6
CONTINUOUS
 62
    2
 10
211.70835775716341
 20
325.80549385442009
 11
222.2225149934454
 21
325.80549385442009
  0
LINE
  8
_0-1_1
  6
CONTINUOUS
 62
    2
 10
221.2225149934454
 20
334.70549385442001
 11
221.2225149934454
 21
337.90549385442
  0
LINE
  8
_0-1_1
  6
CONTINUOUS
 62
    2
 10
221.2225149934454
 20
322.6054938544201
 11
221.2225149934454
 21
319.40549385442
  0
SOLID
  8
_0-1_1
  6
CONTINUOUS
 62
    2
 10
220.6891816601121
 20
334.70549385442001
 11
221.7558483267787
 21
334.70549385442001
 12
221.2225149934454
 22
331.50549385442002
 13
221.2225149934454
 23
331.50549385442002
  0
SOLID
  8
_0-1_1
  6
CONTINUOUS
 62
    2
 10
220.6891816601121
 20
322.6054938544201
 11
221.7558483267787
 21
322.6054938544201
 12
221.2225149934454
 22
325.80549385442009
 13
221.2225149934454
 23
325.80549385442009
  0
TEXT
  8
_0-1_1
 62
    7
 10
218.99751499344541
 20
317.00549385442014
 40
3.2000000000000002
 41
1
 50
90
  1
5.7
  0
POINT
  8
_0-6_Defpoints
 62
    7
 10
210.70835775716341
 20
331.50549385442002
  0
POINT
  8
_0-6_Defpoints
 62
    7
 10
210.70835775716341
 20
325.80549385442009
  0
POINT
  8
_0-6_Defpoints
 62
    7
 10
221.2225149934454
 20
325.80549385442009
  0
ENDBLK
  0
BLOCK
  2
-003-_D23
 70
   64
 10
0
 20
0
 30
0
  0
LINE
  8
_0-1_1
  6
CONTINUOUS
 62
    2
 10
362.07495811491071
 20
354.40559385442009
 11
362.07495811491071
 21
380.82762883913767
  0
LINE
  8
_0-1_1
  6
CONTINUOUS
 62
    2
 10
316.0749581149106
 20
354.40559385442009
 11
316.0749581149106
 21
380.82762883913767
  0
LINE
  8
_0-1_1
  6
CONTINUOUS
 62
    2
 10
358.87495811491073
 20
379.82762883913767
 11
342.36662478158689
 21
379.82762883913767
  0
LINE
  8
_0-1_1
  6
CONTINUOUS
 62
    2
 10
319.2749581149107
 20
379.82762883913767
 11
335.78329144823419
 21
379.82762883913767
  0
SOLID
  8
_0-1_1
  6
CONTINUOUS
 62
    2
 10
358.87495811491073
 20
380.36096217247098
 11
358.87495811491073
 21
379.29429550580431
 12
362.07495811491071
 22
379.82762883913767
 13
362.07495811491071
 23
379.82762883913767
  0
SOLID
  8
_0-1_1
  6
CONTINUOUS
 62
    2
 10
319.2749581149107
 20
380.36096217247098
 11
319.2749581149107
 21
379.29429550580431
 12
316.0749581149106
 22
379.82762883913767
 13
316.0749581149106
 23
379.82762883913767
  0
TEXT
  8
_0-1_1
 62
    7
 10
337.4749619934247
 20
378.22762496063297
 40
3.2000000000000002
 41
1
 50
0.0001388888872612
  1
46
  0
POINT
  8
_0-6_Defpoints
 62
    7
 10
362.07495811491071
 20
353.40559385441998
  0
POINT
  8
_0-6_Defpoints
 62
    7
 10
316.0749581149106
 20
353.40559385441998
  0
POINT
  8
_0-6_Defpoints
 62
    7
 10
316.0749581149106
 20
379.82762883913767
  0
ENDBLK
  0
BLOCK
  2
-004-_D24
 70
   64
 10
0
 20
0
 30
0
  0
LINE
  8
_0-1_1
  6
CONTINUOUS
 62
    2
 10
326.0749581149106
 20
369.5996064041201
 11
326.0749581149106
 21
389.87663604620781
  0
LINE
  8
_0-1_1
  6
CONTINUOUS
 62
    2
 10
306.0749581149106
 20
369.5996064041201
 11
306.0749581149106
 21
389.87663604620781
  0
LINE
  8
_0-1_1
  6
CONTINUOUS
 62
    2
 10
322.87495811491061
 20
388.87663604620758
 11
319.0999581149195
 21
388.87663604620758
  0
LINE
  8
_0-1_1
  6
CONTINUOUS
 62
    2
 10
309.2749581149107
 20
388.87663604620758
 11
313.0499581149017
 21
388.87663604620758
  0
SOLID
  8
_0-1_1
  6
CONTINUOUS
 62
    2
 10
322.87495811491061
 20
389.40996937954111
 11
322.87495811491061
 21
388.34330271287439
 12
326.0749581149106
 22
388.87663604620758
 13
326.0749581149106
 23
388.87663604620758
  0
SOLID
  8
_0-1_1
  6
CONTINUOUS
 62
    2
 10
309.2749581149107
 20
389.40996937954111
 11
309.2749581149107
 21
388.34330271287439
 12
306.0749581149106
 22
388.87663604620758
 13
306.0749581149106
 23
388.87663604620758
  0
TEXT
  8
_0-1_1
 62
    7
 10
314.4749619934247
 20
387.27663216770287
 40
3.2000000000000002
 41
1
 50
0.0001388888872612
  1
20
  0
POINT
  8
_0-6_Defpoints
 62
    7
 10
326.0749581149106
 20
368.5996064041201
  0
POINT
  8
_0-6_Defpoints
 62
    7
 10
306.0749581149106
 20
368.5996064041201
  0
POINT
  8
_0-6_Defpoints
 62
    7
 10
306.0749581149106
 20
388.87663604620758
  0
ENDBLK
  0
BLOCK
  2
-005-_D25
 70
   64
 10
0
 20
0
 30
0
  0
LINE
  8
_0-1_1
  6
CONTINUOUS
 62
    2
 10
352.0749581149106
 20
369.5996064041201
 11
352.0749581149106
 21
389.87663604620781
  0
LINE
  8
_0-1_1
  6
CONTINUOUS
 62
    2
 10
326.0749581149106
 20
369.5996064041201
 11
326.0749581149106
 21
389.87663604620781
  0
LINE
  8
_0-1_1
  6
CONTINUOUS
 62
    2
 10
348.87495811491073
 20
388.87663604620758
 11
342.36662478158689
 21
388.87663604620758
  0
LINE
  8
_0-1_1
  6
CONTINUOUS
 62
    2
 10
329.27495811491059
 20
388.87663604620758
 11
335.78329144823419
 21
388.87663604620758
  0
SOLID
  8
_0-1_1
  6
CONTINUOUS
 62
    2
 10
348.87495811491073
 20
389.40996937954111
 11
348.87495811491073
 21
388.34330271287439
 12
352.0749581149106
 22
388.87663604620758
 13
352.0749581149106
 23
388.87663604620758
  0
SOLID
  8
_0-1_1
  6
CONTINUOUS
 62
    2
 10
329.27495811491059
 20
389.40996937954111
 11
329.27495811491059
 21
388.34330271287439
 12
326.0749581149106
 22
388.87663604620758
 13
326.0749581149106
 23
388.87663604620758
  0
TEXT
  8
_0-1_1
 62
    7
 10
337.4749619934247
 20
387.27663216770287
 40
3.2000000000000002
 41
1
 50
0.0001388888872612
  1
26
  0
POINT
  8
_0-6_Defpoints
 62
    7
 10
352.0749581149106
 20
368.5996064041201
  0
POINT
  8
_0-6_Defpoints
 62
    7
 10
326.0749581149106
 20
368.5996064041201
  0
POINT
  8
_0-6_Defpoints
 62
    7
 10
326.0749581149106
 20
388.87663604620758
  0
ENDBLK
  0
BLOCK
  2
-006-_D26
 70
   64
 10
0
 20
0
 30
0
  0
LINE
  8
_0-1_1
  6
CONTINUOUS
 62
    2
 10
372.07495811491071
 20
369.5996064041201
 11
372.07495811491071
 21
389.87663604620781
  0
LINE
  8
_0-1_1
  6
CONTINUOUS
 62
    2
 10
352.0749581149106
 20
369.5996064041201
 11
352.0749581149106
 21
389.87663604620781
  0
LINE
  8
_0-1_1
  6
CONTINUOUS
 62
    2
 10
368.87495811491073
 20
388.87663604620758
 11
365.0999581149195
 21
388.87663604620758
  0
LINE
  8
_0-1_1
  6
CONTINUOUS
 62
    2
 10
355.27495811491059
 20
388.87663604620758
 11
359.04995811490181
 21
388.87663604620758
  0
SOLID
  8
_0-1_1
  6
CONTINUOUS
 62
    2
 10
368.87495811491073
 20
389.40996937954111
 11
368.87495811491073
 21
388.34330271287439
 12
372.07495811491071
 22
388.87663604620758
 13
372.07495811491071
 23
388.87663604620758
  0
SOLID
  8
_0-1_1
  6
CONTINUOUS
 62
    2
 10
355.27495811491059
 20
389.40996937954111
 11
355.27495811491059
 21
388.34330271287439
 12
352.0749581149106
 22
388.87663604620758
 13
352.0749581149106
 23
388.87663604620758
  0
TEXT
  8
_0-1_1
 62
    7
 10
360.47496199342481
 20
387.27663216770287
 40
3.2000000000000002
 41
1
 50
0.0001388888872612
  1
20
  0
POINT
  8
_0-6_Defpoints
 62
    7
 10
372.07495811491071
 20
368.5996064041201
  0
POINT
  8
_0-6_Defpoints
 62
    7
 10
352.0749581149106
 20
368.5996064041201
  0
POINT
  8
_0-6_Defpoints
 62
    7
 10
352.0749581149106
 20
388.87663604620758
  0
ENDBLK
  0
BLOCK
  2
-007-_D27
 70
   64
 10
0
 20
0
 30
0
  0
LINE
  8
_0-1_1
  6
CONTINUOUS
 62
    2
 10
310.07485811491051
 20
264.90549385442
 11
272.90151359647149
 21
264.90549385442
  0
LINE
  8
_0-1_1
  6
CONTINUOUS
 62
    2
 10
310.07485811491051
 20
348.40549385442
 11
272.90151359647149
 21
348.40549385442
  0
LINE
  8
_0-1_1
  6
CONTINUOUS
 62
    2
 10
273.9015135964716
 20
268.10549385441999
 11
273.9015135964716
 21
301.23049385441999
  0
LINE
  8
_0-1_1
  6
CONTINUOUS
 62
    2
 10
273.9015135964716
 20
345.20549385442001
 11
273.9015135964716
 21
312.08049385442001
  0
SOLID
  8
_0-1_1
  6
CONTINUOUS
 62
    2
 10
273.36818026313819
 20
268.10549385441999
 11
274.43484692980491
 21
268.10549385441999
 12
273.9015135964716
 22
264.90549385442
 13
273.9015135964716
 23
264.90549385442
  0
SOLID
  8
_0-1_1
  6
CONTINUOUS
 62
    2
 10
273.36818026313819
 20
345.20549385442001
 11
274.43484692980491
 21
345.20549385442001
 12
273.9015135964716
 22
348.40549385442
 13
273.9015135964716
 23
348.40549385442
  0
TEXT
  8
_0-1_1
 62
    7
 10
275.50151359647151
 20
303.45549385442013
 40
3.2000000000000002
 41
1
 50
90
  1
83.5
  0
POINT
  8
_0-6_Defpoints
 62
    7
 10
311.07485811491051
 20
264.90549385442
  0
POINT
  8
_0-6_Defpoints
 62
    7
 10
311.07485811491051
 20
348.40549385442
  0
POINT
  8
_0-6_Defpoints
 62
    7
 10
273.9015135964716
 20
348.40549385442
  0
ENDBLK
  0
BLOCK
  2
-008-_D28
 70
   64
 10
0
 20
0
 30
0
  0
LINE
  8
_0-1_1
  6
CONTINUOUS
 62
    2
 10
293.63084556531049
 20
256.15549385442
 11
261.70414934454038
 21
256.15549385442
  0
LINE
  8
_0-1_1
  6
CONTINUOUS
 62
    2
 10
293.63084556531049
 20
357.15549385442
 11
261.70414934454038
 21
357.15549385442
  0
LINE
  8
_0-1_1
  6
CONTINUOUS
 62
    2
 10
262.7041493445405
 20
259.35549385441999
 11
262.7041493445405
 21
303.09716052108672
  0
LINE
  8
_0-1_1
  6
CONTINUOUS
 62
    2
 10
262.7041493445405
 20
353.95549385442001
 11
262.7041493445405
 21
310.21382718775328
  0
SOLID
  8
_0-1_1
  6
CONTINUOUS
 62
    2
 10
262.17081601120708
 20
259.35549385441999
 11
263.23748267787391
 21
259.35549385441999
 12
262.7041493445405
 22
256.15549385442
 13
262.7041493445405
 23
256.15549385442
  0
SOLID
  8
_0-1_1
  6
CONTINUOUS
 62
    2
 10
262.17081601120708
 20
353.95549385442001
 11
263.23748267787391
 21
353.95549385442001
 12
262.7041493445405
 22
357.15549385442
 13
262.7041493445405
 23
357.15549385442
  0
TEXT
  8
_0-1_1
 62
    7
 10
264.30414934454041
 20
304.25549385442014
 40
3.2000000000000002
 41
1
 50
90
  1
101
  0
POINT
  8
_0-6_Defpoints
 62
    7
 10
294.63084556531061
 20
256.15549385442
  0
POINT
  8
_0-6_Defpoints
 62
    7
 10
294.63084556531061
 20
357.15549385442
  0
POINT
  8
_0-6_Defpoints
 62
    7
 10
262.7041493445405
 20
357.15549385442
  0
ENDBLK
  0
BLOCK
  2
-009-_D29
 70
   64
 10
0
 20
0
 30
0
  0
LINE
  8
_0-1_1
  6
CONTINUOUS
 62
    2
 10
133.43466842259639
 20
412.09301465215202
 11
133.43466842259639
 21
437.10918209366889
  0
LINE
  8
_0-1_1
  6
CONTINUOUS
 62
    2
 10
119.4346684225964
 20
412.09301465215202
 11
119.4346684225964
 21
437.10918209366889
  0
LINE
  8
_0-1_1
  6
CONTINUOUS
 62
    2
 10
130.2346684225964
 20
436.10918209366889
 11
129.19300175593779
 21
436.10918209366889
  0
LINE
  8
_0-1_1
  6
CONTINUOUS
 62
    2
 10
122.63466842259641
 20
436.10918209366889
 11
123.67633508925491
 21
436.10918209366889
  0
SOLID
  8
_0-1_1
  6
CONTINUOUS
 62
    2
 10
130.2346684225964
 20
436.64251542700219
 11
130.2346684225964
 21
435.5758487603353
 12
133.43466842259639
 22
436.10918209366889
 13
133.43466842259639
 23
436.10918209366889
  0
SOLID
  8
_0-1_1
  6
CONTINUOUS
 62
    2
 10
122.63466842259641
 20
436.64251542700219
 11
122.63466842259641
 21
435.5758487603353
 12
119.4346684225964
 22
436.10918209366889
 13
119.4346684225964
 23
436.10918209366889
  0
TEXT
  8
_0-1_1
 62
    7
 10
124.83467230111052
 20
434.50917821516418
 40
3.2000000000000002
 41
1
 50
0.0001388888872612
  1
14
  0
POINT
  8
_0-6_Defpoints
 62
    7
 10
133.43466842259639
 20
411.09301465215202
  0
POINT
  8
_0-6_Defpoints
 62
    7
 10
119.4346684225964
 20
411.09301465215202
  0
POINT
  8
_0-6_Defpoints
 62
    7
 10
119.4346684225964
 20
436.10918209366889
  0
ENDBLK
  0
BLOCK
  2
-010-_D30
 70
   64
 10
0
 20
0
 30
0
  0
LINE
  8
_0-1_1
  6
CONTINUOUS
 62
    2
 10
156.73466842259629
 20
413.29301465215212
 11
156.73466842259629
 21
428.20744477924092
  0
LINE
  8
_0-1_1
  6
CONTINUOUS
 62
    2
 10
142.73466842259629
 20
413.29301465215212
 11
142.73466842259629
 21
428.20744477924092
  0
LINE
  8
_0-1_1
  6
CONTINUOUS
 62
    2
 10
153.5346684225963
 20
427.20744477924097
 11
152.49300175593771
 21
427.20744477924097
  0
LINE
  8
_0-1_1
  6
CONTINUOUS
 62
    2
 10
145.9346684225963
 20
427.20744477924097
 11
146.9763350892548
 21
427.20744477924097
  0
SOLID
  8
_0-1_1
  6
CONTINUOUS
 62
    2
 10
153.5346684225963
 20
427.74077811257428
 11
153.5346684225963
 21
426.67411144590761
 12
156.73466842259629
 22
427.20744477924097
 13
156.73466842259629
 23
427.20744477924097
  0
SOLID
  8
_0-1_1
  6
CONTINUOUS
 62
    2
 10
145.9346684225963
 20
427.74077811257428
 11
145.9346684225963
 21
426.67411144590761
 12
142.73466842259629
 22
427.20744477924097
 13
142.73466842259629
 23
427.20744477924097
  0
TEXT
  8
_0-1_1
 62
    7
 10
148.13467230111041
 20
425.60744090073626
 40
3.2000000000000002
 41
1
 50
0.0001388888872612
  1
14
  0
POINT
  8
_0-6_Defpoints
 62
    7
 10
156.73466842259629
 20
412.29301465215201
  0
POINT
  8
_0-6_Defpoints
 62
    7
 10
142.73466842259629
 20
412.29301465215201
  0
POINT
  8
_0-6_Defpoints
 62
    7
 10
142.73466842259629
 20
427.20744477924097
  0
ENDBLK
  0
BLOCK
  2
-011-_D31
 70
   64
 10
0
 20
0
 30
0
  0
LINE
  8
_0-1_1
  6
CONTINUOUS
 62
    2
 10
213.5743352167714
 20
328.65549385442
 11
230.24105604561251
 21
328.65549385442
  0
LINE
  8
_0-1_1
  6
CONTINUOUS
 62
    2
 10
216.45343864776541
 20
306.65549385442
 11
230.24105604561251
 21
306.65549385442
  0
LINE
  8
_0-1_1
  6
CONTINUOUS
 62
    2
 10
229.2410560456124
 20
325.45549385442001
 11
229.2410560456124
 21
320.94716052108669
  0
LINE
  8
_0-1_1
  6
CONTINUOUS
 62
    2
 10
229.2410560456124
 20
309.85549385441999
 11
229.2410560456124
 21
314.36382718775332
  0
SOLID
  8
_0-1_1
  6
CONTINUOUS
 62
    2
 10
228.70772271227909
 20
325.45549385442001
 11
229.77438937894581
 21
325.45549385442001
 12
229.2410560456124
 22
328.65549385442
 13
229.2410560456124
 23
328.65549385442
  0
SOLID
  8
_0-1_1
  6
CONTINUOUS
 62
    2
 10
228.70772271227909
 20
309.85549385441999
 11
229.77438937894581
 21
309.85549385441999
 12
229.2410560456124
 22
306.65549385442
 13
229.2410560456124
 23
306.65549385442
  0
TEXT
  8
_0-1_1
 62
    7
 10
230.84105604561239
 20
316.05549385441998
 40
3.2000000000000002
 41
1
 50
90
  1
22
  0
POINT
  8
_0-6_Defpoints
 62
    7
 10
212.5743352167714
 20
328.65549385442
  0
POINT
  8
_0-6_Defpoints
 62
    7
 10
215.45343864776541
 20
306.65549385442
  0
POINT
  8
_0-6_Defpoints
 62
    7
 10
229.2410560456124
 20
306.65549385442
  0
ENDBLK
  0
BLOCK
  2
-012-_D32
 70
   64
 10
0
 20
0
 30
0
  0
LINE
  8
_0-1_1
  6
CONTINUOUS
 62
    2
 10
210.0083577571634
 20
311.65549385442
 11
222.2743477661945
 21
311.65549385442
  0
LINE
  8
_0-1_1
  6
CONTINUOUS
 62
    2
 10
216.45343864776541
 20
306.65549385442
 11
222.2743477661945
 21
306.65549385442
  0
LINE
  8
_0-1_1
  6
CONTINUOUS
 62
    2
 10
221.27434776619441
 20
314.85549385441999
 11
221.27434776619441
 21
318.05549385441998
  0
LINE
  8
_0-1_1
  6
CONTINUOUS
 62
    2
 10
221.27434776619441
 20
303.45549385442001
 11
221.27434776619441
 21
300.25549385442002
  0
SOLID
  8
_0-1_1
  6
CONTINUOUS
 62
    2
 10
220.74101443286111
 20
314.85549385441999
 11
221.80768109952771
 21
314.85549385441999
 12
221.27434776619441
 22
311.65549385442
 13
221.27434776619441
 23
311.65549385442
  0
SOLID
  8
_0-1_1
  6
CONTINUOUS
 62
    2
 10
220.74101443286111
 20
303.45549385442001
 11
221.80768109952771
 21
303.45549385442001
 12
221.27434776619441
 22
306.65549385442
 13
221.27434776619441
 23
306.65549385442
  0
TEXT
  8
_0-1_1
 62
    7
 10
222.8743477661944
 20
308.35549385441999
 40
3.2000000000000002
 41
1
 50
90
  1
5
  0
POINT
  8
_0-6_Defpoints
 62
    7
 10
209.0083577571634
 20
311.65549385442
  0
POINT
  8
_0-6_Defpoints
 62
    7
 10
215.45343864776541
 20
306.65549385442
  0
POINT
  8
_0-6_Defpoints
 62
    7
 10
221.27434776619441
 20
306.65549385442
  0
ENDBLK
  0
BLOCK
  2
-013-_D33
 70
   64
 10
0
 20
0
 30
0
  0
LINE
  8
_0-1_1
  6
CONTINUOUS
 62
    2
 10
177.23466842259629
 20
359.66036723822009
 11
177.23466842259629
 21
376.92429716159211
  0
LINE
  8
_0-1_1
  6
CONTINUOUS
 62
    2
 10
61.23466842259635
 20
359.66036723822009
 11
61.23466842259635
 21
376.92429716159211
  0
LINE
  8
_0-1_1
  6
CONTINUOUS
 62
    2
 10
174.0346684225963
 20
375.92429716159211
 11
123.0596684226075
 21
375.92429716159211
  0
LINE
  8
_0-1_1
  6
CONTINUOUS
 62
    2
 10
64.434668422596346
 20
375.92429716159211
 11
115.409668422585
 21
375.92429716159211
  0
SOLID
  8
_0-1_1
  6
CONTINUOUS
 62
    2
 10
174.0346684225963
 20
376.45763049492541
 11
174.0346684225963
 21
375.39096382825869
 12
177.23466842259629
 22
375.92429716159211
 13
177.23466842259629
 23
375.92429716159211
  0
SOLID
  8
_0-1_1
  6
CONTINUOUS
 62
    2
 10
64.434668422596346
 20
376.45763049492541
 11
64.434668422596346
 21
375.39096382825869
 12
61.23466842259635
 22
375.92429716159211
 13
61.23466842259635
 23
375.92429716159211
  0
TEXT
  8
_0-1_1
 62
    7
 10
116.83467230111276
 20
374.32429134383267
 40
3.2000000000000002
 41
1
 50
0.0001388888879397
  1
116
  0
POINT
  8
_0-6_Defpoints
 62
    7
 10
177.23466842259629
 20
358.66036723821998
  0
POINT
  8
_0-6_Defpoints
 62
    7
 10
61.23466842259635
 20
358.66036723821998
  0
POINT
  8
_0-6_Defpoints
 62
    7
 10
61.23466842259635
 20
375.92429716159211
  0
ENDBLK
  0
BLOCK
  2
-014-_D34
 70
   64
 10
0
 20
0
 30
0
  0
LINE
  8
_0-1_1
  6
CONTINUOUS
 62
    2
 10
68.22979503879634
 20
246.65549385442
 11
48.085027887232563
 21
246.65549385442
  0
LINE
  8
_0-1_1
  6
CONTINUOUS
 62
    2
 10
68.22979503879634
 20
366.65549385442
 11
48.085027887232577
 21
366.65549385442
  0
LINE
  8
_0-1_1
  6
CONTINUOUS
 62
    2
 10
49.08502788723257
 20
249.85549385441999
 11
49.085027887232592
 21
302.56382718775342
  0
LINE
  8
_0-1_1
  6
CONTINUOUS
 62
    2
 10
49.085027887232613
 20
363.45549385442001
 11
49.085027887232599
 21
310.7471605210867
  0
SOLID
  8
_0-1_1
  6
CONTINUOUS
 62
    2
 10
48.551694553899253
 20
249.85549385441999
 11
49.618361220565923
 21
249.85549385441999
 12
49.08502788723257
 22
246.65549385442
 13
49.08502788723257
 23
246.65549385442
  0
SOLID
  8
_0-1_1
  6
CONTINUOUS
 62
    2
 10
48.55169455389926
 20
363.45549385442001
 11
49.618361220565937
 21
363.45549385442001
 12
49.085027887232613
 22
366.65549385442
 13
49.085027887232613
 23
366.65549385442
  0
TEXT
  8
_0-1_1
 62
    7
 10
50.68502788723255
 20
304.25549385442002
 40
3.2000000000000002
 41
1
 50
90
  1
120
  0
POINT
  8
_0-6_Defpoints
 62
    7
 10
69.229795038796368
 20
246.65549385442
  0
POINT
  8
_0-6_Defpoints
 62
    7
 10
69.229795038796368
 20
366.65549385442
  0
POINT
  8
_0-6_Defpoints
 62
    7
 10
49.085027887232613
 20
366.65549385442
  0
ENDBLK
  0
BLOCK
  2
-015-_D35
 70
   64
 10
0
 20
0
 30
0
  0
LINE
  8
_0-1_1
  6
CONTINUOUS
 62
    2
 10
126.4346684225964
 20
423.09124556436012
 11
126.4346684225964
 21
428.20744477924092
  0
LINE
  8
_0-1_1
  6
CONTINUOUS
 62
    2
 10
119.2346684225963
 20
426.20744477924097
 11
119.2346684225963
 21
428.20744477924092
  0
LINE
  8
_0-1_1
  6
CONTINUOUS
 62
    2
 10
129.63466842259641
 20
427.20744477924097
 11
132.83466842259639
 21
427.20744477924097
  0
LINE
  8
_0-1_1
  6
CONTINUOUS
 62
    2
 10
116.0346684225963
 20
427.20744477924097
 11
112.83466842259629
 21
427.20744477924097
  0
SOLID
  8
_0-1_1
  6
CONTINUOUS
 62
    2
 10
129.63466842259641
 20
427.74077811257428
 11
129.63466842259641
 21
426.67411144590761
 12
126.4346684225964
 22
427.20744477924097
 13
126.4346684225964
 23
427.20744477924097
  0
SOLID
  8
_0-1_1
  6
CONTINUOUS
 62
    2
 10
116.0346684225963
 20
427.74077811257428
 11
116.0346684225963
 21
426.67411144590761
 12
119.2346684225963
 22
427.20744477924097
 13
119.2346684225963
 23
427.20744477924097
  0
TEXT
  8
_0-1_1
 62
    7
 10
106.60967230110145
 20
425.60743896148153
 40
3.2000000000000002
 41
1
 50
0.0001388888879397
  1
7.2
  0
POINT
  8
_0-6_Defpoints
 62
    7
 10
126.4346684225964
 20
422.09124556435978
  0
POINT
  8
_0-6_Defpoints
 62
    7
 10
119.2346684225963
 20
425.20744477924069
  0
POINT
  8
_0-6_Defpoints
 62
    7
 10
119.2346684225963
 20
427.20744477924097
  0
ENDBLK
  0
BLOCK
  2
-016-_D36
 70
   64
 10
0
 20
0
 30
0
  0
LINE
  8
_0-1_1
  6
CONTINUOUS
 62
    2
 10
149.73466842259629
 20
418.68391181821403
 11
149.73466842259629
 21
444.573758566832
  0
LINE
  8
_0-1_1
  6
CONTINUOUS
 62
    2
 10
119.2346684225963
 20
426.20744477924097
 11
119.2346684225963
 21
444.573758566832
  0
LINE
  8
_0-1_1
  6
CONTINUOUS
 62
    2
 10
146.5346684225963
 20
443.57375856683183
 11
139.64300175594479
 21
443.57375856683183
  0
LINE
  8
_0-1_1
  6
CONTINUOUS
 62
    2
 10
122.4346684225963
 20
443.57375856683183
 11
129.32633508924781
 21
443.57375856683183
  0
SOLID
  8
_0-1_1
  6
CONTINUOUS
 62
    2
 10
146.5346684225963
 20
444.1070919001653
 11
146.5346684225963
 21
443.04042523349858
 12
149.73466842259629
 22
443.57375856683183
 13
149.73466842259629
 23
443.57375856683183
  0
SOLID
  8
_0-1_1
  6
CONTINUOUS
 62
    2
 10
122.4346684225963
 20
444.1070919001653
 11
122.4346684225963
 21
443.04042523349858
 12
119.2346684225963
 22
443.57375856683183
 13
119.2346684225963
 23
443.57375856683183
  0
TEXT
  8
_0-1_1
 62
    7
 10
131.28467230111511
 20
441.97375080981772
 40
3.2000000000000002
 41
1
 50
0.0001388888872612
  1
30.5
  0
POINT
  8
_0-6_Defpoints
 62
    7
 10
149.73466842259629
 20
417.6839118182138
  0
POINT
  8
_0-6_Defpoints
 62
    7
 10
119.2346684225963
 20
425.20744477924069
  0
POINT
  8
_0-6_Defpoints
 62
    7
 10
119.2346684225963
 20
443.57375856683183
  0
ENDBLK
  0
BLOCK
  2
-017-_D37
 70
   64
 10
0
 20
0
 30
0
  0
LINE
  8
_0-1_1
  6
CONTINUOUS
 62
    2
 10
210.70835775716341
 20
332.50549385442019
 11
210.70835775716341
 21
376.92429716159211
  0
LINE
  8
_0-1_1
  6
CONTINUOUS
 62
    2
 10
207.9083577571634
 20
367.65549385442
 11
207.9083577571634
 21
376.92429716159211
  0
LINE
  8
_0-1_1
  6
CONTINUOUS
 62
    2
 10
213.9083577571634
 20
375.92429716159211
 11
217.10835775716339
 21
375.92429716159211
  0
LINE
  8
_0-1_1
  6
CONTINUOUS
 62
    2
 10
204.70835775716341
 20
375.92429716159211
 11
201.5083577571634
 21
375.92429716159211
  0
SOLID
  8
_0-1_1
  6
CONTINUOUS
 62
    2
 10
213.9083577571634
 20
376.45763049492541
 11
213.9083577571634
 21
375.39096382825869
 12
210.70835775716341
 22
375.92429716159211
 13
210.70835775716341
 23
375.92429716159211
  0
SOLID
  8
_0-1_1
  6
CONTINUOUS
 62
    2
 10
204.70835775716341
 20
376.45763049492541
 11
204.70835775716341
 21
375.39096382825869
 12
207.9083577571634
 22
375.92429716159211
 13
207.9083577571634
 23
375.92429716159211
  0
TEXT
  8
_0-1_1
 62
    7
 10
195.28336163566857
 20
374.32429134383267
 40
3.2000000000000002
 41
1
 50
0.0001388888879397
  1
2.8
  0
POINT
  8
_0-6_Defpoints
 62
    7
 10
210.70835775716341
 20
331.50549385442002
  0
POINT
  8
_0-6_Defpoints
 62
    7
 10
207.9083577571634
 20
366.65549385442
  0
POINT
  8
_0-6_Defpoints
 62
    7
 10
207.9083577571634
 20
375.92429716159211
  0
ENDBLK
  0
BLOCK
  2
-018-_D38
 70
   64
 10
0
 20
0
 30
0
  0
LINE
  8
_0-1_1
  6
CONTINUOUS
 62
    2
 10
210.0083577571634
 20
335.65549385442
 11
238.6550975583005
 21
335.65549385442
  0
LINE
  8
_0-1_1
  6
CONTINUOUS
 62
    2
 10
210.0083577571634
 20
311.65549385442
 11
238.65509755830041
 21
311.65549385442
  0
LINE
  8
_0-1_1
  6
CONTINUOUS
 62
    2
 10
237.65509755830041
 20
332.45549385442001
 11
237.65509755830041
 21
326.94716052108669
  0
LINE
  8
_0-1_1
  6
CONTINUOUS
 62
    2
 10
237.65509755830041
 20
314.85549385441999
 11
237.65509755830041
 21
320.36382718775332
  0
SOLID
  8
_0-1_1
  6
CONTINUOUS
 62
    2
 10
237.12176422496711
 20
332.45549385442001
 11
238.1884308916338
 21
332.45549385442001
 12
237.65509755830041
 22
335.65549385442
 13
237.65509755830041
 23
335.65549385442
  0
SOLID
  8
_0-1_1
  6
CONTINUOUS
 62
    2
 10
237.12176422496711
 20
314.85549385441999
 11
238.18843089163369
 21
314.85549385441999
 12
237.65509755830041
 22
311.65549385442
 13
237.65509755830041
 23
311.65549385442
  0
TEXT
  8
_0-1_1
 62
    7
 10
239.25509755830041
 20
322.05549385441998
 40
3.2000000000000002
 41
1
 50
90
  1
24
  0
POINT
  8
_0-6_Defpoints
 62
    7
 10
209.0083577571634
 20
335.65549385442
  0
POINT
  8
_0-6_Defpoints
 62
    7
 10
209.0083577571634
 20
311.65549385442
  0
POINT
  8
_0-6_Defpoints
 62
    7
 10
237.65509755830041
 20
311.65549385442
  0
ENDBLK
  0
ENDSEC
  0
SECTION
  2
ENTITIES
  0
ARC
  8
_0-1_1
  6
CONTINUOUS
 62
    7
 10
1.8582956000987565
 20
149.63789146978974
 40
1.5
 50
90
 51
180
  0
ARC
  8
_0-1_1
  6
CONTINUOUS
 62
    7
 10
1.8582956000987565
 20
141.63789146978962
 40
1.5
 50
180
 51
270
  0
ARC
  8
_0-1_1
  6
CONTINUOUS
 62
    7
 10
85.858295600098728
 20
149.63789146978974
 40
1.5
 50
0
 51
90
  0
ARC
  8
_0-1_1
  6
CONTINUOUS
 62
    7
 10
85.858295600098728
 20
141.63789146978962
 40
1.5
 50
270
 51
0
  0
ARC
  8
_0-1_1
  6
CONTINUOUS
 62
    7
 10
85.82554845017512
 20
38.169787627292521
 40
1.5
 50
270
 51
0
  0
ARC
  8
_0-1_1
  6
CONTINUOUS
 62
    7
 10
85.82554845017512
 20
46.169787627292521
 40
1.5
 50
0
 51
90
  0
ARC
  8
_0-1_1
  6
CONTINUOUS
 62
    7
 10
1.8255484501751198
 20
38.169787627292521
 40
1.5
 50
180
 51
270
  0
ARC
  8
_0-1_1
  6
CONTINUOUS
 62
    7
 10
1.8255484501751198
 20
46.169787627292521
 40
1.5
 50
90
 51
180
  0
LINE
  8
_0-1_1
  6
CONTINUOUS
 62
    7
 10
1.8582956000987565
 20
151.13789146978974
 11
85.858295600098728
 21
151.13789146978974
  0
LINE
  8
_0-1_1
  6
CONTINUOUS
 62
    7
 10
87.358295600098728
 20
149.63789146978974
 11
87.358295600098728
 21
141.63789146978962
  0
LINE
  8
_0-1_1
  6
CONTINUOUS
 62
    7
 10
85.858295600098728
 20
140.13789146978974
 11
1.8582956000987565
 21
140.13789146978974
  0
LINE
  8
_0-1_1
  6
CONTINUOUS
 62
    7
 10
0.3582956000987564
 20
141.63789146978962
 11
0.3582956000987564
 21
149.63789146978974
  0
LINE
  8
_0-1_1
  6
CONTINUOUS
 62
    7
 10
0.3255484501751198
 20
38.169787627292521
 11
0.3255484501751198
 21
46.169787627292521
  0
LINE
  8
_0-1_1
  6
CONTINUOUS
 62
    7
 10
85.82554845017512
 20
36.669787627292521
 11
1.8255484501751198
 21
36.669787627292521
  0
LINE
  8
_0-1_1
  6
CONTINUOUS
 62
    7
 10
87.32554845017512
 20
46.169787627292521
 11
87.32554845017512
 21
38.169787627292521
  0
LINE
  8
_0-1_1
  6
CONTINUOUS
 62
    7
 10
1.8255484501751198
 20
47.669787627292521
 11
85.82554845017512
 21
47.669787627292521
  0
INSERT
  2
-009-_D29
  8
_0-1_1
 10
-75.40911997242128
 20
-212.83570622707748
 41
1
 42
1
 50
0
  0
INSERT
  2
-008-_D28
  8
_0-1_1
 10
-75.40911997242128
 20
-212.83570622707748
 41
1
 42
1
 50
0
  0
INSERT
  2
-007-_D27
  8
_0-1_1
 10
-75.40911997242128
 20
-212.83570622707748
 41
1
 42
1
 50
0
  0
INSERT
  2
-006-_D26
  8
_0-1_1
 10
-75.40911997242128
 20
-212.83570622707748
 41
1
 42
1
 50
0
  0
INSERT
  2
-005-_D25
  8
_0-1_1
 10
-75.40911997242128
 20
-212.83570622707748
 41
1
 42
1
 50
0
  0
INSERT
  2
-004-_D24
  8
_0-1_1
 10
-75.40911997242128
 20
-212.83570622707748
 41
1
 42
1
 50
0
  0
INSERT
  2
-003-_D23
  8
_0-1_1
 10
-75.40911997242128
 20
-212.83570622707748
 41
1
 42
1
 50
0
  0
INSERT
  2
-018-_D38
  8
_0-1_1
 10
-75.40911997242128
 20
-212.83570622707748
 41
1
 42
1
 50
0
  0
INSERT
  2
-002-_D22
  8
_0-1_1
 10
-75.40911997242128
 20
-212.83570622707748
 41
1
 42
1
 50
0
  0
INSERT
  2
-017-_D37
  8
_0-1_1
 10
-75.40911997242128
 20
-212.83570622707748
 41
1
 42
1
 50
0
  0
INSERT
  2
-001-_D21
  8
_0-1_1
 10
-75.40911997242128
 20
-212.83570622707748
 41
1
 42
1
 50
0
  0
INSERT
  2
-010-_D30
  8
_0-1_1
 10
-75.40911997242128
 20
-212.83570622707748
 41
1
 42
1
 50
0
  0
INSERT
  2
-016-_D36
  8
_0-1_1
 10
-75.40911997242128
 20
-212.83570622707748
 41
1
 42
1
 50
0
  0
INSERT
  2
-015-_D35
  8
_0-1_1
 10
-75.40911997242128
 20
-212.83570622707748
 41
1
 42
1
 50
0
  0
INSERT
  2
-014-_D34
  8
_0-1_1
 10
-75.40911997242128
 20
-212.83570622707748
 41
1
 42
1
 50
0
  0
INSERT
  2
-013-_D33
  8
_0-1_1
 10
-75.40911997242128
 20
-212.83570622707748
 41
1
 42
1
 50
0
  0
INSERT
  2
-012-_D32
  8
_0-1_1
 10
-75.40911997242128
 20
-212.83570622707748
 41
1
 42
1
 50
0
  0
INSERT
  2
-011-_D31
  8
_0-1_1
 10
-75.40911997242128
 20
-212.83570622707748
 41
1
 42
1
 50
0
  0
TEXT
  8
_0-1_1
 62
    7
 10
304.65734731083626
 20
-8.2539245122606815
 40
3.2000000000000002
 41
0.89
 50
0
  1
リモコン外形図
  0
TEXT
  8
_0-1_1
 62
    7
 10
305.02562776879108
 20
27.221214022907617
 40
3.2000000000000002
 41
0.89
 50
0
  1
ハ
  0
TEXT
  8
_0-1_1
 62
    7
 10
220.66217529524423
 20
26.818524512293607
 40
3.2000000000000002
 41
0.89
 50
0
  1
ハ
  0
TEXT
  8
_0-1_1
 62
    7
 10
301.97267892174182
 20
157.0299735699673
 40
3.2000000000000002
 41
0.89
 50
0
  1
ハ
  0
TEXT
  8
_0-1_1
 62
    7
 10
221.46176135697752
 20
156.70305519826883
 40
3.2000000000000002
 41
0.89
 50
0
  1
ハ
  0
TEXT
  8
_0-1_1
 62
    7
 10
288.25394219216298
 20
66.768717171494245
 40
3.2000000000000002
 41
0.89
 50
0
  1
イ
  0
TEXT
  8
_0-1_1
 62
    7
 10
292.73235233964397
 20
66.872405473589424
 40
3.2000000000000002
 41
0.89
 50
0
  1
ロ
  0
TEXT
  8
_0-1_1
 62
    7
 10
231.87689864560591
 20
65.742569953019711
 40
3.2000000000000002
 41
0.89
 50
0
  1
イ
  0
TEXT
  8
_0-1_1
 62
    7
 10
236.35530879308672
 20
65.846258255114947
 40
3.2000000000000002
 41
0.89
 50
0
  1
ロ
  0
TEXT
  8
_0-1_1
 62
    7
 10
287.97132127746727
 20
122.68001920047703
 40
3.2000000000000002
 41
0.89
 50
0
  1
イ
  0
TEXT
  8
_0-1_1
 62
    7
 10
292.44973142494837
 20
122.7837075025721
 40
3.2000000000000002
 41
0.89
 50
0
  1
ロ
  0
TEXT
  8
_0-1_1
 62
    7
 10
231.93660404466263
 20
122.90609602324872
 40
3.2000000000000002
 41
0.89
 50
0
  1
イ
  0
TEXT
  8
_0-1_1
 62
    7
 10
236.41501419214373
 20
123.00978432534373
 40
3.2000000000000002
 41
0.89
 50
0
  1
ロ
  0
TEXT
  8
_0-1_1
 62
    7
 10
209.12500272892223
 20
209.30556660603312
 40
3.2000000000000002
 41
1
 50
0
  1
イ
  0
TEXT
  8
_0-1_1
 62
    7
 10
209.12500272892223
 20
204.50556660603314
 40
3.2000000000000002
 41
1
 50
0
  1
ロ
  0
TEXT
  8
_0-1_1
 62
    7
 10
209.12500272892223
 20
199.70556660603313
 40
3.2000000000000002
 41
1
 50
0
  1
ハ
  0
TEXT
  8
_0-1_1
 62
    7
 10
214.9470391721961
 20
207.47682966020554
 40
3.2000000000000002
 41
1
 50
0
  1
スイッチボックスを使用する場合。
  0
TEXT
  8
_0-1_1
 62
    7
 10
214.9470391721961
 20
202.67682966020556
 40
3.2000000000000002
 41
1
 50
0
  1
市販のはさみ金具を使用する場合。
  0
TEXT
  8
_0-1_1
 62
    7
 10
214.9470391721961
 20
197.87682966020554
 40
3.2000000000000002
 41
1
 50
0
  1
壁へ直接取付ける場合。
  0
TEXT
  8
_0-1_1
 62
    7
 10
208.69012014702614
 20
216.40298181033074
 40
3.2000000000000002
 41
0.89
 50
0
  1
リモコンは3通りの取付け方法ができます。
  0
TEXT
  8
_0-1_1
 62
    7
 10
73.325548450175006
 20
120.3197876273432
 40
5
 41
1
 50
0
  1
停止
  0
TEXT
  8
_0-1_1
 62
    7
 10
52.125548450175003
 20
118.45658853468191
 40
3.2000000000000002
 41
1
 50
0
  1
換気
  0
TEXT
  8
_0-1_1
 62
    7
 10
56.425548450175
 20
58.593424256735396
 40
3.2000000000000002
 41
1
 50
0
  1
0.5
  0
TEXT
  8
_0-1_1
 62
    7
 10
50.525548450175023
 20
58.593424256735396
 40
3.2000000000000002
 41
1
 50
0
  1
1
  0
TEXT
  8
_0-1_1
 62
    7
 10
43.025548450175023
 20
58.593424256735396
 40
3.2000000000000002
 41
1
 50
0
  1
2
  0
TEXT
  8
_0-1_1
 62
    7
 10
35.525548450175023
 20
58.593424256735396
 40
3.2000000000000002
 41
1
 50
0
  1
3
  0
TEXT
  8
_0-1_1
 62
    7
 10
28.025548450175023
 20
58.593424256735396
 40
3.2000000000000002
 41
1
 50
0
  1
4
  0
TEXT
  8
_0-1_1
 62
    7
 10
20.525548450175023
 20
58.593424256735396
 40
3.2000000000000002
 41
1
 50
0
  1
6
  0
TEXT
  8
_0-1_1
 62
    7
 10
13.025548450174995
 20
58.593424256735396
 40
3.2000000000000002
 41
1
 50
0
  1
8
  0
TEXT
  8
_0-1_1
 62
    7
 10
5.2248644735251446
 20
93.642975222706525
 40
5
 41
1
 50
0
  1
乾燥
  0
TEXT
  8
_0-1_1
 62
    7
 10
28.224864473525116
 20
93.642975222706525
 40
5
 41
1
 50
0
  1
涼風
  0
TEXT
  8
_0-1_1
 62
    7
 10
51.224864473525116
 20
93.642975222706525
 40
5
 41
1
 50
0
  1
暖房
  0
TEXT
  8
_0-1_1
 62
    7
 10
74.224864473525116
 20
93.642975222706525
 40
5
 41
1
 50
0
  1
換気
  0
TEXT
  8
_0-1_1
 62
    7
 10
3.970652537005094
 20
121.0522241836276
 40
3.2000000000000002
 41
1
 50
0
  1
リセット
  0
TEXT
  8
_0-1_1
 62
    7
 10
50.525548450175009
 20
122.73541100755901
 40
3.2000000000000002
 41
1
 50
0
  1
24時間
  0
TEXT
  8
_0-1_1
 62
    7
 10
36.201590737757911
 20
111.08500702646481
 40
3.2000000000000002
 41
1
 50
0
  1
点滅時一時停止
  0
TEXT
  8
_0-1_1
 62
    7
 10
72.629548450175008
 20
64.619787627342518
 40
3.2000000000000002
 41
1
 50
0
  1
運転
  0
TEXT
  8
_0-1_1
 62
    7
 10
72.629548450175008
 20
59.819787627342521
 40
3.2000000000000002
 41
1
 50
0
  1
時間
  0
ARC
  8
_0-1_1
  6
CONTINUOUS
 62
    7
 10
87.575548450175006
 20
99.195511787042506
 40
0.75
 50
0
 51
90
  0
ARC
  8
_0-1_1
  6
CONTINUOUS
 62
    7
 10
87.575548450175006
 20
99.195511787042506
 40
0.75
 50
0
 51
90
  0
ARC
  8
_0-1_1
  6
CONTINUOUS
 62
    7
 10
69.075548450175006
 20
99.195511787042506
 40
0.75
 50
90
 51
180
  0
ARC
  8
_0-1_1
  6
CONTINUOUS
 62
    7
 10
4.0755484501750061
 20
69.569787627342521
 40
0.75
 50
90
 51
180
  0
ARC
  8
_0-1_1
  6
CONTINUOUS
 62
    7
 10
4.0755484501750061
 20
58.069787627342521
 40
0.75
 50
180.0000000000087
 51
270
  0
ARC
  8
_0-1_1
  6
CONTINUOUS
 62
    7
 10
36.273055499587926
 20
80.742167932637415
 40
0.4000000000000499
 50
211.33659880378229
 51
303.6842611264355
  0
ARC
  8
_0-1_1
  6
CONTINUOUS
 62
    7
 10
36.478937558956119
 20
80.879392503667702
 40
0.39999999999982
 50
303.68426112639708
 51
32.093317642754151
  0
ARC
  8
_0-1_1
  6
CONTINUOUS
 62
    7
 10
30.342764872369017
 20
80.879392503667702
 40
0.39999999999994
 50
147.9066823572447
 51
236.31573887359266
  0
ARC
  8
_0-1_1
  6
CONTINUOUS
 62
    7
 10
30.548646931736926
 20
80.742167932637415
 40
0.4000000000002699
 50
236.31573887349163
 51
328.66340119623891
  0
ARC
  8
_0-1_1
  6
CONTINUOUS
 62
    7
 10
30.548646931736926
 20
80.742167932637415
 40
0.4000000000002699
 50
236.31573887349163
 51
328.66340119623891
  0
ARC
  8
_0-1_1
  6
CONTINUOUS
 62
    7
 10
32.162517326877918
 20
83.592860549666909
 40
0.5
 50
90
 51
147.90668235725238
  0
ARC
  8
_0-1_1
  6
CONTINUOUS
 62
    7
 10
34.659185104446024
 20
83.592860549666909
 40
0.50000000000022
 50
32.093317642735421
 51
90
  0
ARC
  8
_0-1_1
  6
CONTINUOUS
 62
    7
 10
46.07554845017502
 20
99.195511787042506
 40
0.75
 50
90
 51
180
  0
ARC
  8
_0-1_1
  6
CONTINUOUS
 62
    7
 10
64.575548450175006
 20
99.195511787042506
 40
0.75
 50
0
 51
90
  0
ARC
  8
_0-1_1
  6
CONTINUOUS
 62
    7
 10
64.575548450175006
 20
99.195511787042506
 40
0.75
 50
0
 51
90
  0
ARC
  8
_0-1_1
  6
CONTINUOUS
 62
    7
 10
41.57554845017502
 20
99.195511787042506
 40
0.75
 50
0
 51
90
  0
ARC
  8
_0-1_1
  6
CONTINUOUS
 62
    7
 10
41.57554845017502
 20
99.195511787042506
 40
0.75
 50
0
 51
90
  0
ARC
  8
_0-1_1
  6
CONTINUOUS
 62
    7
 10
23.075548450175035
 20
99.195511787042506
 40
0.75
 50
90
 51
180
  0
ARC
  8
_0-1_1
  6
CONTINUOUS
 62
    7
 10
0.0755484501750061
 20
99.195511787042506
 40
0.75
 50
90
 51
180
  0
ARC
  8
_0-1_1
  6
CONTINUOUS
 62
    7
 10
18.575548450175006
 20
99.195511787042506
 40
0.75
 50
0
 51
90
  0
ARC
  8
_0-1_1
  6
CONTINUOUS
 62
    7
 10
18.575548450175006
 20
99.195511787042506
 40
0.75
 50
0
 51
90
  0
CIRCLE
  8
_0-0_0
  6
CONTINUOUS
 62
    7
 10
296.66583814248941
 20
43.319787627342521
 40
2.1499999999999191
  0
CIRCLE
  8
_0-0_0
  6
CONTINUOUS
 62
    7
 10
276.66583814248929
 20
43.319787627342521
 40
2.1499999999999191
  0
CIRCLE
  8
_0-0_0
  6
CONTINUOUS
 62
    7
 10
230.66583814248932
 20
43.319787627342521
 40
2.1499999999999191
  0
CIRCLE
  8
_0-0_0
  6
CONTINUOUS
 62
    7
 10
250.66583814248932
 20
43.319787627342521
 40
2.1499999999999191
  0
CIRCLE
  8
_0-0_0
  6
CONTINUOUS
 62
    7
 10
296.66583814248941
 20
144.31978762734252
 40
2.1499999999999191
  0
CIRCLE
  8
_0-0_0
  6
CONTINUOUS
 62
    7
 10
276.66583814248929
 20
144.31978762734252
 40
2.1499999999999191
  0
CIRCLE
  8
_0-0_0
  6
CONTINUOUS
 62
    7
 10
230.66583814248932
 20
144.31978762734252
 40
2.1499999999999191
  0
CIRCLE
  8
_0-0_0
  6
CONTINUOUS
 62
    7
 10
250.66583814248932
 20
144.31978762734252
 40
2.1499999999999191
  0
CIRCLE
  8
_0-0_0
  6
CONTINUOUS
 62
    7
 10
263.66583814248929
 20
135.56978762734252
 40
2.5
  0
CIRCLE
  8
_0-1_1
  6
CONTINUOUS
 62
    2
 10
306.4440702295135
 20
28.479998297580522
 40
1.80620626130368
  0
CIRCLE
  8
_0-1_1
  6
CONTINUOUS
 62
    2
 10
222.08061775596653
 20
28.077308786966512
 40
1.80620626130368
  0
CIRCLE
  8
_0-1_1
  6
CONTINUOUS
 62
    2
 10
303.39112138246389
 20
158.2887578446402
 40
1.80620626130368
  0
CIRCLE
  8
_0-1_1
  6
CONTINUOUS
 62
    2
 10
222.88020381769994
 20
157.96183947294173
 40
1.80620626130369
  0
CIRCLE
  8
_0-1_1
  6
CONTINUOUS
 62
    2
 10
289.68435319865716
 20
68.138434921102316
 40
1.8062062613036991
  0
CIRCLE
  8
_0-1_1
  6
CONTINUOUS
 62
    2
 10
294.26026073181299
 20
68.092156284123234
 40
1.80620626130368
  0
CIRCLE
  8
_0-1_1
  6
CONTINUOUS
 62
    2
 10
233.3073096520998
 20
67.112287702627839
 40
1.80620626130369
  0
CIRCLE
  8
_0-1_1
  6
CONTINUOUS
 62
    2
 10
237.8832171852558
 20
67.0660090656487
 40
1.80620626130369
  0
CIRCLE
  8
_0-1_1
  6
CONTINUOUS
 62
    2
 10
289.40173228396122
 20
124.04973695008499
 40
1.806206261303738
  0
CIRCLE
  8
_0-1_1
  6
CONTINUOUS
 62
    2
 10
293.97763981711716
 20
124.00345831310602
 40
1.80620626130369
  0
CIRCLE
  8
_0-1_1
  6
CONTINUOUS
 62
    2
 10
233.36701505115664
 20
124.27581377285674
 40
1.80620626130369
  0
CIRCLE
  8
_0-1_1
  6
CONTINUOUS
 62
    2
 10
237.94292258431264
 20
124.22953513587771
 40
1.8062062613037999
  0
CIRCLE
  8
_0-1_1
  6
CONTINUOUS
 62
    2
 10
210.52954619165823
 20
201.09621626910649
 40
1.80620626130368
  0
CIRCLE
  8
_0-1_1
  6
CONTINUOUS
 62
    2
 10
210.497091994366
 20
211.88403901699149
 40
1.8062062613035801
  0
CIRCLE
  8
_0-1_1
  6
CONTINUOUS
 62
    2
 10
210.62785718027513
 20
206.86867478963831
 40
1.80620626130368
  0
CIRCLE
  8
_0-0_0
  6
CONTINUOUS
 62
    7
 10
256.46583814248947
 20
116.31978762734252
 40
3
  0
CIRCLE
  8
_0-1_1
  6
CONTINUOUS
 62
    7
 10
2.3255484501750061
 20
96.819787627342521
 40
1.4999999999998901
  0
CIRCLE
  8
_0-1_1
  6
CONTINUOUS
 62
    7
 10
25.32554845017502
 20
96.819787627342521
 40
1.5
  0
CIRCLE
  8
_0-1_1
  6
CONTINUOUS
 62
    7
 10
48.32554845017502
 20
96.819787627342521
 40
1.5
  0
CIRCLE
  8
_0-1_1
  6
CONTINUOUS
 62
    7
 10
71.325548450175006
 20
96.819787627342521
 40
1.5
  0
CIRCLE
  8
_0-1_1
  6
CONTINUOUS
 62
    7
 10
43.82554845017502
 20
64.819787627342521
 40
1.5
  0
CIRCLE
  8
_0-1_1
  6
CONTINUOUS
 62
    7
 10
51.32554845017502
 20
64.819787627342521
 40
1.4999999999998299
  0
CIRCLE
  8
_0-1_1
  6
CONTINUOUS
 62
    7
 10
58.825548450175006
 20
64.819787627342521
 40
1.500000000000238
  0
CIRCLE
  8
_0-1_1
  6
CONTINUOUS
 62
    7
 10
36.32554845017502
 20
64.819787627342521
 40
1.5
  0
CIRCLE
  8
_0-1_1
  6
CONTINUOUS
 62
    7
 10
28.82554845017502
 20
64.819787627342521
 40
1.5
  0
CIRCLE
  8
_0-1_1
  6
CONTINUOUS
 62
    7
 10
21.32554845017502
 20
64.819787627342521
 40
1.5
  0
CIRCLE
  8
_0-1_1
  6
CONTINUOUS
 62
    7
 10
2.325548450175063
 20
122.81978762734252
 40
0.9999999999999399
  0
CIRCLE
  8
_0-1_1
  6
CONTINUOUS
 62
    7
 10
78.325548450175006
 20
63.819787627342521
 40
5.5
  0
CIRCLE
  8
_0-1_1
  6
CONTINUOUS
 62
    7
 10
33.400313359097126
 20
85.675365055495433
 40
1.1217534059149701
  0
CIRCLE
  8
_0-1_1
  6
CONTINUOUS
 62
    7
 10
39.32554845017502
 20
122.81978762734252
 40
1.5000000000000879
  0
CIRCLE
  8
_0-1_1
  6
CONTINUOUS
 62
    7
 10
78.325548450175006
 20
83.819787627342521
 40
8.5
  0
CIRCLE
  8
_0-1_1
  6
CONTINUOUS
 62
    7
 10
55.325548450175006
 20
83.819787627342521
 40
8.5
  0
CIRCLE
  8
_0-1_1
  6
CONTINUOUS
 62
    7
 10
32.32554845017502
 20
83.819787627342521
 40
8.5
  0
CIRCLE
  8
_0-1_1
  6
CONTINUOUS
 62
    7
 10
9.3255484501750061
 20
83.819787627342293
 40
8.5
  0
CIRCLE
  8
_0-3_8_ALL_NOTES_BALLOONS_SS_GT
  6
CONTINUOUS
 62
    2
 10
10.624129450388125
 20
132.14598187824259
 40
0.89985899999979
  0
CIRCLE
  8
_0-3_8_ALL_NOTES_BALLOONS_SS_GT
  6
CONTINUOUS
 62
    2
 10
10.623440450388131
 20
132.14529287824251
 40
1.0989849999998
  0
CIRCLE
  8
_0-1_1
  6
CONTINUOUS
 62
    7
 10
78.325548450175006
 20
122.81978762734252
 40
6
  0
CIRCLE
  8
_0-1_1
  6
CONTINUOUS
 62
    7
 10
78.325548450175006
 20
122.81978762734252
 40
7
  0
CIRCLE
  8
_0-1_1
  6
CONTINUOUS
 62
    7
 10
55.325548450175006
 20
122.81978762734281
 40
6.5
  0
ARC
  8
_0-0_0
  6
CONTINUOUS
 62
    7
 10
238.66583814248932
 20
52.069787627342521
 40
2.149999999999979
 50
90
 51
270
  0
ARC
  8
_0-0_0
  6
CONTINUOUS
 62
    7
 10
242.66583814248932
 20
52.069787627342521
 40
2.149999999999979
 50
270
 51
90
  0
ARC
  8
_0-0_0
  6
CONTINUOUS
 62
    7
 10
284.66583814248941
 20
135.56978762734252
 40
2.149999999999979
 50
90
 51
270
  0
ARC
  8
_0-0_0
  6
CONTINUOUS
 62
    7
 10
288.66583814248941
 20
135.56978762734252
 40
2.149999999999979
 50
270
 51
90
  0
ARC
  8
_0-0_0
  6
CONTINUOUS
 62
    7
 10
238.66583814248932
 20
135.56978762734252
 40
2.149999999999979
 50
90
 51
270
  0
ARC
  8
_0-0_0
  6
CONTINUOUS
 62
    7
 10
242.66583814248932
 20
135.56978762734252
 40
2.149999999999979
 50
270
 51
90
  0
ARC
  8
_0-0_0
  6
CONTINUOUS
 62
    7
 10
284.66583814248941
 20
52.069787627342521
 40
2.149999999999979
 50
90
 51
270
  0
ARC
  8
_0-0_0
  6
CONTINUOUS
 62
    7
 10
288.66583814248941
 20
52.069787627342521
 40
2.149999999999979
 50
270
 51
90
  0
ARC
  8
_0-0_0
  6
CONTINUOUS
 62
    7
 10
261.66583814248929
 20
52.069787627342521
 40
2.5
 50
90
 51
270
  0
ARC
  8
_0-0_0
  6
CONTINUOUS
 62
    7
 10
265.66583814248929
 20
52.069787627342521
 40
2.5
 50
270
 51
90
  0
ARC
  8
_0-0_0
  6
CONTINUOUS
 62
    7
 10
213.66583814248932
 20
41.819787627342521
 40
8
 50
180
 51
270
  0
ARC
  8
_0-0_0
  6
CONTINUOUS
 62
    7
 10
213.66583814248932
 20
145.81978762734252
 40
8
 50
90
 51
180
  0
ARC
  8
_0-0_0
  6
CONTINUOUS
 62
    7
 10
313.66583814248941
 20
41.819787627342521
 40
8
 50
270
 51
0
  0
ARC
  8
_0-0_0
  6
CONTINUOUS
 62
    7
 10
250.66583814248932
 20
43.319787627342521
 40
4.1500000000000901
 50
180
 51
0
  0
ARC
  8
_0-0_0
  6
CONTINUOUS
 62
    7
 10
313.66583814248941
 20
145.81978762734252
 40
8
 50
0
 51
90
  0
ARC
  8
_0-0_0
  6
CONTINUOUS
 62
    7
 10
230.66583814248932
 20
43.319787627342521
 40
4.1499999999683697
 50
188.41111944570798
 51
0
  0
ARC
  8
_0-0_0
  6
CONTINUOUS
 62
    7
 10
276.66583814248929
 20
43.319787627342521
 40
4.1500000000000901
 50
180
 51
0
  0
ARC
  8
_0-0_0
  6
CONTINUOUS
 62
    7
 10
296.66583814248941
 20
43.319787627342521
 40
4.1500000000000901
 50
180
 51
351.58888055449393
  0
ARC
  8
_0-0_0
  6
CONTINUOUS
 62
    7
 10
250.66583814248932
 20
144.31978762734252
 40
4.1499999999999204
 50
0
 51
180
  0
ARC
  8
_0-0_0
  6
CONTINUOUS
 62
    7
 10
230.66583814248932
 20
144.31978762734252
 40
4.1499999999999204
 50
0
 51
171.58888055429239
  0
ARC
  8
_0-0_0
  6
CONTINUOUS
 62
    7
 10
276.66583814248929
 20
144.31978762734252
 40
4.1499999999999204
 50
0
 51
180
  0
ARC
  8
_0-0_0
  6
CONTINUOUS
 62
    7
 10
296.66583814248941
 20
144.31978762734252
 40
4.1500000000510404
 50
10.8195004322182
 51
180
  0
ARC
  8
_0-0_0
  6
CONTINUOUS
 62
    7
 10
276.66583814248929
 20
43.319787627342521
 40
6.4441125496998701
 50
164.24254301949981
 51
248.60418023035913
  0
ARC
  8
_0-0_0
  6
CONTINUOUS
 62
    7
 10
296.66583814248941
 20
144.31978762734252
 40
6.4441125497003791
 50
314.91612113019693
 51
68.60418023035912
  0
ARC
  8
_0-0_0
  6
CONTINUOUS
 62
    7
 10
230.66583814248932
 20
144.31978762734252
 40
6.4441125496948697
 50
111.3958197696408
 51
225.08387886980239
  0
ARC
  8
_0-0_0
  6
CONTINUOUS
 62
    7
 10
230.66583814248932
 20
43.319787627342521
 40
6.4441125496948697
 50
291.39581976964092
 51
21.865743538503185
  0
ARC
  8
_0-0_0
  6
CONTINUOUS
 62
    7
 10
250.66583814248932
 20
43.319787627342521
 40
6.44411254969999
 50
158.13425646149639
 51
248.60418023035913
  0
ARC
  8
_0-0_0
  6
CONTINUOUS
 62
    7
 10
276.66583814248929
 20
43.319787627342521
 40
6.4441125496948697
 50
291.39581976964092
 51
21.865743538503185
  0
ARC
  8
_0-0_0
  6
CONTINUOUS
 62
    7
 10
230.66583814248932
 20
43.319787627342521
 40
6.4441125496997298
 50
134.916121130204
 51
248.60418023035913
  0
ARC
  8
_0-0_0
  6
CONTINUOUS
 62
    7
 10
296.66583814248941
 20
144.31978762734252
 40
6.4441125496947889
 50
111.3958197696389
 51
195.29605816570469
  0
ARC
  8
_0-0_0
  6
CONTINUOUS
 62
    7
 10
238.66583814248932
 20
52.069787627342521
 40
3.9499999999987101
 50
154.50833775827999
 51
180
  0
ARC
  8
_0-0_0
  6
CONTINUOUS
 62
    7
 10
242.66583814248932
 20
52.069787627342521
 40
3.9500000000001001
 50
0
 51
25.491662241719236
  0
ARC
  8
_0-0_0
  6
CONTINUOUS
 62
    7
 10
284.66583814248941
 20
52.069787627342521
 40
3.9499999999987101
 50
154.50833775827999
 51
180
  0
ARC
  8
_0-0_0
  6
CONTINUOUS
 62
    7
 10
288.66583814248941
 20
52.069787627342521
 40
3.9499999999998678
 50
0
 51
25.491662241720672
  0
ARC
  8
_0-0_0
  6
CONTINUOUS
 62
    7
 10
284.66583814248941
 20
135.56978762734252
 40
4.6500000000000901
 50
180
 51
201.4439828649258
  0
ARC
  8
_0-0_0
  6
CONTINUOUS
 62
    7
 10
213.66583814248932
 20
41.819787627342521
 40
6.5
 50
180
 51
270
  0
ARC
  8
_0-0_0
  6
CONTINUOUS
 62
    7
 10
213.66583814248932
 20
41.819787627342521
 40
4.75
 50
180
 51
270
  0
ARC
  8
_0-0_0
  6
CONTINUOUS
 62
    7
 10
288.66583814248941
 20
135.56978762734252
 40
4.6500000000397961
 50
338.5560171355238
 51
0
  0
ARC
  8
_0-0_0
  6
CONTINUOUS
 62
    7
 10
238.66583814248932
 20
135.56978762734252
 40
3.94999999999999
 50
180
 51
205.49166224172001
  0
ARC
  8
_0-0_0
  6
CONTINUOUS
 62
    7
 10
242.66583814248932
 20
135.56978762734252
 40
3.949999999998818
 50
334.50833775828067
 51
0.000000000000019
  0
ARC
  8
_0-0_0
  6
CONTINUOUS
 62
    7
 10
276.66583814248929
 20
144.31978762734252
 40
6.4441125496997396
 50
344.70394183429499
 51
68.60418023035912
  0
ARC
  8
_0-0_0
  6
CONTINUOUS
 62
    7
 10
276.66583814248929
 20
144.31978762734252
 40
6.4441125496948697
 50
111.3958197696408
 51
195.75745698050017
  0
ARC
  8
_0-0_0
  6
CONTINUOUS
 62
    7
 10
296.66583814248941
 20
43.319787627342521
 40
6.44411254969999
 50
158.13425646149639
 51
248.6041802303611
  0
ARC
  8
_0-0_0
  6
CONTINUOUS
 62
    7
 10
250.66583814248932
 20
43.319787627342521
 40
6.4441125496948697
 50
291.39581976964092
 51
15.757456980500205
  0
ARC
  8
_0-0_0
  6
CONTINUOUS
 62
    7
 10
313.66583814248941
 20
41.819787627342521
 40
6.5
 50
270
 51
0
  0
ARC
  8
_0-0_0
  6
CONTINUOUS
 62
    7
 10
313.66583814248941
 20
41.819787627342521
 40
4.75
 50
270
 51
0
  0
ARC
  8
_0-0_0
  6
CONTINUOUS
 62
    7
 10
313.66583814248941
 20
145.81978762734252
 40
6.5
 50
0
 51
90
  0
ARC
  8
_0-0_0
  6
CONTINUOUS
 62
    7
 10
313.66583814248941
 20
145.81978762734252
 40
4.75
 50
0
 51
90
  0
ARC
  8
_0-0_0
  6
CONTINUOUS
 62
    7
 10
250.66583814248932
 20
144.31978762734252
 40
6.4441125496998701
 50
344.24254301949981
 51
68.604180230359148
  0
ARC
  8
_0-0_0
  6
CONTINUOUS
 62
    7
 10
250.66583814248932
 20
144.31978762734252
 40
6.4441125496948697
 50
111.3958197696408
 51
201.86574353850347
  0
ARC
  8
_0-0_0
  6
CONTINUOUS
 62
    7
 10
213.66583814248932
 20
145.81978762734252
 40
6.5
 50
90
 51
180
  0
ARC
  8
_0-0_0
  6
CONTINUOUS
 62
    7
 10
213.66583814248932
 20
145.81978762734252
 40
4.75
 50
90
 51
180
  0
ARC
  8
_0-0_0
  6
CONTINUOUS
 62
    7
 10
230.66583814248932
 20
144.31978762734252
 40
6.4441125497000984
 50
338.13425646149682
 51
68.604180230359148
  0
ARC
  8
_0-0_0
  6
CONTINUOUS
 62
    7
 10
296.66583814248941
 20
43.319787627342521
 40
6.4441125496948697
 50
291.39581976964092
 51
45.083878869796706
  0
ARC
  8
_0-0_0
  6
CONTINUOUS
 62
    7
 10
-0.674451549824937
 20
134.81978762734252
 40
4.1499999999999782
 50
90
 51
180
  0
ARC
  8
_0-0_0
  6
CONTINUOUS
 62
    7
 10
-0.674451549824937
 20
52.819787627342521
 40
4.1499999999999782
 50
180
 51
270
  0
ARC
  8
_0-0_0
  6
CONTINUOUS
 62
    7
 10
88.325548450175006
 20
52.819787627342521
 40
4.1499999999999782
 50
270
 51
0
  0
ARC
  8
_0-0_0
  6
CONTINUOUS
 62
    7
 10
88.325548450175006
 20
134.81978762734252
 40
4.1500000000001203
 50
0
 51
90
  0
ARC
  8
_0-0_0
  6
CONTINUOUS
 62
    7
 10
216.91583814248932
 20
60.569787627342521
 40
1
 50
180
 51
270
  0
ARC
  8
_0-0_0
  6
CONTINUOUS
 62
    7
 10
310.41583814248941
 20
60.569787627342521
 40
1
 50
270
 51
0
  0
ARC
  8
_0-0_0
  6
CONTINUOUS
 62
    7
 10
310.41583814248941
 20
127.06978762734252
 40
1
 50
0
 51
90
  0
ARC
  8
_0-0_0
  6
CONTINUOUS
 62
    7
 10
216.91583814248932
 20
127.06978762734252
 40
1
 50
90
 51
180
  0
ARC
  8
_0-0_0
  6
CONTINUOUS
 62
    7
 10
250.46583814248945
 20
121.81978762734252
 40
1
 50
90
 51
180
  0
ARC
  8
_0-0_0
  6
CONTINUOUS
 62
    7
 10
262.46583814248947
 20
121.81978762734252
 40
1
 50
0
 51
90
  0
ARC
  8
_0-0_0
  6
CONTINUOUS
 62
    7
 10
250.46583814248945
 20
99.819787627342521
 40
1
 50
180
 51
270
  0
ARC
  8
_0-0_0
  6
CONTINUOUS
 62
    7
 10
262.46583814248947
 20
99.819787627342521
 40
1
 50
270
 51
0
  0
ARC
  8
_0-0_0
  6
CONTINUOUS
 62
    7
 10
256.46583814248947
 20
112.88978762734251
 40
8.4299999999999482
 50
55.29195072747796
 51
124.70804927252331
  0
ARC
  8
_0-0_0
  6
CONTINUOUS
 62
    7
 10
137.79923778474213
 20
140.81978762734252
 40
20.999999999914039
 50
148.08517729789199
 51
180
  0
ARC
  8
_0-0_0
  6
CONTINUOUS
 62
    7
 10
122.94462616674213
 20
150.07130175614253
 40
3.5000000000311
 50
91.999999999019863
 51
148.0851772980979
  0
ARC
  8
_0-0_0
  6
CONTINUOUS
 62
    7
 10
137.79923778474213
 20
46.819787627342521
 40
21
 50
180
 51
211.91482270210801
  0
ARC
  8
_0-0_0
  6
CONTINUOUS
 62
    7
 10
122.94462616674213
 20
37.56827349854251
 40
3.4999999999995501
 50
211.91482270190201
 51
268.00000000098021
  0
ARC
  8
_0-0_0
  6
CONTINUOUS
 62
    7
 10
132.59923778474212
 20
98.319787627342521
 40
0.5
 50
90
 51
101.5476089284854
  0
ARC
  8
_0-0_0
  6
CONTINUOUS
 62
    7
 10
132.59923778474212
 20
123.31978762734252
 40
0.5000000000002
 50
258.45239107290678
 51
270
  0
ARC
  8
_0-0_0
  6
CONTINUOUS
 62
    7
 10
133.59923778474212
 20
122.31978762734252
 40
0.5
 50
0
 51
90
  0
ARC
  8
_0-0_0
  6
CONTINUOUS
 62
    7
 10
133.59923778474212
 20
99.319787627342521
 40
0.5
 50
270
 51
0
  0
ARC
  8
_0-0_0
  6
CONTINUOUS
 62
    7
 10
137.59923778474212
 20
105.81978762734252
 40
3.5
 50
180
 51
36.869897645845356
  0
ARC
  8
_0-0_0
  6
CONTINUOUS
 62
    7
 10
137.59923778474212
 20
105.81978762734252
 40
2.5
 50
180
 51
36.869897645843992
  0
ARC
  8
_0-0_0
  6
CONTINUOUS
 62
    7
 10
138.59923778474212
 20
114.09691144814263
 40
0.4999999999970102
 50
302.0053832080813
 51
0
  0
ARC
  8
_0-0_0
  6
CONTINUOUS
 62
    7
 10
138.59923778474212
 20
118.54266380654252
 40
0.5
 50
0
 51
57.994616791918567
  0
ARC
  8
_0-0_0
  6
CONTINUOUS
 62
    7
 10
58.525548450175108
 20
196.75730842507454
 40
0.5
 50
180
 51
191.54760892848589
  0
ARC
  8
_0-0_0
  6
CONTINUOUS
 62
    7
 10
43.525548450175123
 20
196.75730842507454
 40
0.5000000000002
 50
348.45239107290678
 51
0.0000000000000015
  0
ARC
  8
_0-0_0
  6
CONTINUOUS
 62
    7
 10
57.525548450175108
 20
197.75730842507454
 40
0.5
 50
0
 51
90
  0
ARC
  8
_0-0_0
  6
CONTINUOUS
 62
    7
 10
44.525548450175123
 20
197.75730842507454
 40
0.5
 50
90
 51
180
  0
ARC
  8
_0-0_0
  6
CONTINUOUS
 62
    7
 10
-10.411253329224905
 20
186.68139024187462
 40
3.50000000000027
 50
181.99999807170857
 51
221.13484636140336
  0
ARC
  8
_0-0_0
  6
CONTINUOUS
 62
    7
 10
98.062350229375113
 20
186.6813902410745
 40
3.4999999999991691
 50
318.86514979640123
 51
358.00000191629942
  0
ARC
  8
_0-0_0
  6
CONTINUOUS
 62
    7
 10
-5.5156915928249077
 20
190.95730842507453
 40
9.9999999999999112
 50
221.13485348810747
 51
270
  0
ARC
  8
_0-0_0
  6
CONTINUOUS
 62
    7
 10
93.166788493175119
 20
190.95730842507453
 40
10
 50
270
 51
318.8651464449008
  0
ARC
  8
_0-0_0
  6
CONTINUOUS
 62
    7
 10
53.248424629375108
 20
202.75730842507431
 40
0.499999999997
 50
32.005383208078662
 51
90
  0
ARC
  8
_0-0_0
  6
CONTINUOUS
 62
    7
 10
48.802672270975123
 20
202.75730842507431
 40
0.5
 50
90
 51
147.99461679192041
  0
ARC
  8
_0-1_1
  6
CONTINUOUS
 62
    7
 10
13.825548450175006
 20
64.819787627342521
 40
1.5
 50
0
 51
180
  0
ARC
  8
_0-1_1
  6
CONTINUOUS
 62
    7
 10
13.825548450175006
 20
64.819787627342521
 40
1.5
 50
180
 51
0
  0
ARC
  8
_0-1_1
  6
CONTINUOUS
 62
    7
 10
78.325548450175006
 20
83.819787627342521
 40
10
 50
180
 51
0
  0
ARC
  8
_0-1_1
  6
CONTINUOUS
 62
    7
 10
55.325548450175006
 20
83.819787627342521
 40
9.9999999999999911
 50
180
 51
0
  0
ARC
  8
_0-1_1
  6
CONTINUOUS
 62
    7
 10
32.32554845017502
 20
83.819787627342521
 40
10
 50
180
 51
0
  0
ARC
  8
_0-1_1
  6
CONTINUOUS
 62
    7
 10
9.3255484501750061
 20
83.819787627342293
 40
10.000000000000011
 50
179.99999999999869
 51
0.0000000000013073
  0
ARC
  8
_0-1_1
  6
CONTINUOUS
 62
    7
 10
55.325548450175006
 20
122.81978762734281
 40
7.5000000000003997
 50
270
 51
90
  0
ARC
  8
_0-1_1
  6
CONTINUOUS
 62
    7
 10
39.32554845017502
 20
122.81978762734252
 40
7.5
 50
90
 51
270
  0
ARC
  8
_0-1_1
  6
CONTINUOUS
 62
    7
 10
78.325548450175006
 20
63.819787627342521
 40
6.5
 50
270
 51
90
  0
LINE
  8
_0-0_0
  6
CONTINUOUS
 62
    7
 10
44.025548450175123
 20
197.75730842507454
 11
44.025548450175123
 21
196.75730842507454
  0
LINE
  8
_0-0_0
  6
CONTINUOUS
 62
    7
 10
58.025548450175108
 20
197.75730842507454
 11
58.025548450175108
 21
196.75730842507454
  0
LINE
  8
_0-0_0
  6
CONTINUOUS
 62
    7
 10
44.525548450175123
 20
198.25730842507454
 11
57.525548450175108
 21
198.25730842507454
  0
LINE
  8
_0-0_0
  6
CONTINUOUS
 62
    6
 10
57.525548450175108
 20
198.25730842507454
 11
58.025548450175108
 21
198.25730842507454
  0
LINE
  8
_0-0_0
  6
CONTINUOUS
 62
    7
 10
315.56583814248927
 20
91.819787627342521
 11
315.56583814248927
 21
91.319787627342521
  0
LINE
  8
_0-0_0
  6
CONTINUOUS
 62
    7
 10
211.76583814248923
 20
95.819787627342521
 11
211.76583814248923
 21
96.319787627342521
  0
LINE
  8
_0-0_0
  6
CONTINUOUS
 62
    7
 10
223.66583814248932
 20
148.31978762734252
 11
224.16583814248932
 21
148.31978762734252
  0
LINE
  8
_0-0_0
  6
CONTINUOUS
 62
    7
 10
265.66583814248929
 20
148.31978762734252
 11
266.16583814248929
 21
148.31978762734252
  0
LINE
  8
_0-0_0
  6
CONTINUOUS
 62
    7
 10
307.66583814248929
 20
148.31978762734252
 11
308.16583814248941
 21
148.31978762734252
  0
LINE
  8
_0-0_0
  6
CONTINUOUS
 62
    7
 10
303.66583814248929
 20
39.319787627342521
 11
303.16583814248941
 21
39.319787627342521
  0
LINE
  8
_0-0_0
  6
CONTINUOUS
 62
    7
 10
261.66583814248929
 20
39.319787627342521
 11
261.16583814248929
 21
39.319787627342521
  0
LINE
  8
_0-0_0
  6
CONTINUOUS
 62
    7
 10
219.66583814248932
 20
39.319787627342521
 11
219.16583814248932
 21
39.319787627342521
  0
LINE
  8
_0-0_0
  6
CONTINUOUS
 62
    7
 10
217.96583814248933
 20
128.06978762734252
 11
216.91583814248932
 21
128.06978762734252
  0
LINE
  8
_0-0_0
  6
CONTINUOUS
 62
    7
 10
217.96583814248933
 20
59.569787627342521
 11
309.36583814248934
 21
59.569787627342521
  0
LINE
  8
_0-1_1
  6
CONTINUOUS
 62
    7
 10
217.96583814248933
 20
59.569787627342521
 11
217.96583814248933
 21
128.06978762734252
  0
LINE
  8
_0-0_0
  6
CONTINUOUS
 62
    7
 10
309.36583814248934
 20
128.06978762734252
 11
217.96583814248933
 21
128.06978762734252
  0
LINE
  8
_0-0_0
  6
CONTINUOUS
 62
    7
 10
309.36583814248934
 20
59.569787627342521
 11
310.41583814248941
 21
59.569787627342521
  0
LINE
  8
_0-1_1
  6
CONTINUOUS
 62
    7
 10
309.36583814248934
 20
128.06978762734252
 11
309.36583814248934
 21
59.569787627342521
  0
LINE
  8
_0-4_DEFAULT_1
  6
DOT_CENTER
 62
    3
 10
263.66583814248929
 20
93.819787627342521
 11
263.66583814248929
 21
156.3745110888118
  0
LINE
  8
_0-4_DEFAULT_1
  6
DOT_CENTER
 62
    3
 10
263.66583814248929
 20
158.8745110888118
 11
263.66583814248929
 21
156.3745110888118
  0
LINE
  8
_0-0_0
  6
CONTINUOUS
 62
    7
 10
205.66583814248932
 20
145.81978762734252
 11
205.66583814248932
 21
41.819787627342521
  0
LINE
  8
_0-0_0
  6
CONTINUOUS
 62
    7
 10
207.16583814248932
 20
145.81978762734252
 11
207.16583814248932
 21
41.819787627342521
  0
LINE
  8
_0-0_0
  6
CONTINUOUS
 62
    7
 10
313.66583814248941
 20
33.819787627342521
 11
213.66583814248932
 21
33.819787627342521
  0
LINE
  8
_0-0_0
  6
CONTINUOUS
 62
    7
 10
213.66583814248932
 20
35.319787627342521
 11
313.66583814248941
 21
35.319787627342521
  0
LINE
  8
_0-0_0
  6
CONTINUOUS
 62
    7
 10
219.16583814248932
 20
36.819787627342521
 11
224.16583814248932
 21
36.819787627342521
  0
LINE
  8
_0-0_0
  6
CONTINUOUS
 62
    7
 10
261.16583814248929
 20
36.819787627342521
 11
266.16583814248929
 21
36.819787627342521
  0
LINE
  8
_0-0_0
  6
CONTINUOUS
 62
    7
 10
303.16583814248941
 20
36.819787627342521
 11
308.16583814248941
 21
36.819787627342521
  0
LINE
  8
_0-0_0
  6
CONTINUOUS
 62
    7
 10
213.66583814248932
 20
37.069787627342521
 11
218.86583814248942
 21
37.069787627342521
  0
LINE
  8
_0-0_0
  6
CONTINUOUS
 62
    7
 10
308.46583814248947
 20
37.069787627342521
 11
313.66583814248941
 21
37.069787627342521
  0
LINE
  8
_0-0_0
  6
CONTINUOUS
 62
    7
 10
218.86583814248942
 20
37.319787627342521
 11
219.16583814248932
 21
37.319787627342521
  0
LINE
  8
_0-0_0
  6
CONTINUOUS
 62
    7
 10
224.16583814248932
 20
37.319787627342521
 11
228.3149688238893
 21
37.319787627342521
  0
LINE
  8
_0-0_0
  6
CONTINUOUS
 62
    7
 10
233.01670746108934
 20
37.319787627342521
 11
248.3149688238893
 21
37.319787627342521
  0
LINE
  8
_0-0_0
  6
CONTINUOUS
 62
    7
 10
253.01670746108934
 20
37.319787627342521
 11
261.16583814248929
 21
37.319787627342521
  0
LINE
  8
_0-0_0
  6
CONTINUOUS
 62
    7
 10
266.16583814248929
 20
37.319787627342521
 11
274.31496882388933
 21
37.319787627342521
  0
LINE
  8
_0-0_0
  6
CONTINUOUS
 62
    7
 10
279.01670746108937
 20
37.319787627342521
 11
294.31496882388956
 21
37.319787627342521
  0
LINE
  8
_0-0_0
  6
CONTINUOUS
 62
    7
 10
299.01670746108937
 20
37.319787627342521
 11
303.16583814248941
 21
37.319787627342521
  0
LINE
  8
_0-0_0
  6
CONTINUOUS
 62
    7
 10
308.16583814248941
 20
37.319787627342521
 11
308.46583814248947
 21
37.319787627342521
  0
LINE
  8
_0-0_0
  6
CONTINUOUS
 62
    7
 10
208.91583814248932
 20
145.81978762734252
 11
208.91583814248932
 21
41.819787627342521
  0
LINE
  8
_0-0_0
  6
CONTINUOUS
 62
    7
 10
209.26583814248923
 20
96.319787627342521
 11
209.26583814248923
 21
91.319787627342521
  0
LINE
  8
_0-0_0
  6
CONTINUOUS
 62
    7
 10
211.76583814248923
 20
91.319787627342521
 11
211.76583814248923
 21
91.819787627342521
  0
LINE
  8
_0-0_0
  6
CONTINUOUS
 62
    7
 10
308.16583814248941
 20
39.319787627342521
 11
307.66583814248929
 21
39.319787627342521
  0
LINE
  8
_0-0_0
  6
CONTINUOUS
 62
    7
 10
266.16583814248929
 20
39.319787627342521
 11
265.66583814248929
 21
39.319787627342521
  0
LINE
  8
_0-0_0
  6
CONTINUOUS
 62
    7
 10
224.16583814248932
 20
39.319787627342521
 11
223.66583814248932
 21
39.319787627342521
  0
LINE
  8
_0-4_DEFAULT_1
  6
DOT_CENTER
 62
    3
 10
296.66583814248941
 20
43.319787627342521
 11
285.22172559288936
 21
43.319787627342521
  0
LINE
  8
_0-4_DEFAULT_1
  6
DOT_CENTER
 62
    3
 10
276.66583814248929
 20
43.319787627342521
 11
265.22172559288936
 21
43.319787627342521
  0
LINE
  8
_0-4_DEFAULT_1
  6
DOT_CENTER
 62
    3
 10
250.66583814248932
 20
43.319787627342521
 11
239.22172559288933
 21
43.319787627342521
  0
LINE
  8
_0-4_DEFAULT_1
  6
DOT_CENTER
 62
    3
 10
230.66583814248932
 20
43.319787627342521
 11
219.22172559288933
 21
43.319787627342521
  0
LINE
  8
_0-4_DEFAULT_1
  6
DOT_CENTER
 62
    3
 10
230.66583814248932
 20
43.319787627342521
 11
239.22172559288933
 21
43.319787627342521
  0
LINE
  8
_0-4_DEFAULT_1
  6
DOT_CENTER
 62
    3
 10
250.66583814248932
 20
43.319787627342521
 11
262.10995069218927
 21
43.319787627342521
  0
LINE
  8
_0-4_DEFAULT_1
  6
DOT_CENTER
 62
    3
 10
276.66583814248929
 20
43.319787627342521
 11
285.22172559288936
 21
43.319787627342521
  0
LINE
  8
_0-4_DEFAULT_1
  6
DOT_CENTER
 62
    3
 10
296.66583814248941
 20
43.319787627342521
 11
308.10995069218927
 21
43.319787627342521
  0
LINE
  8
_0-0_0
  6
CONTINUOUS
 62
    7
 10
214.46583814248933
 20
91.319787627342521
 11
214.46583814248933
 21
96.319787627342521
  0
LINE
  8
_0-0_0
  6
CONTINUOUS
 62
    7
 10
215.66583814248932
 20
59.319787627342521
 11
215.66583814248932
 21
128.31978762734252
  0
LINE
  8
_0-0_0
  6
CONTINUOUS
 62
    7
 10
217.96583814248933
 20
129.51978762734251
 11
217.96583814248933
 21
128.31978762734252
  0
LINE
  8
_0-0_0
  6
CONTINUOUS
 62
    7
 10
217.96583814248933
 20
59.319787627342521
 11
217.96583814248933
 21
58.119787627342532
  0
LINE
  8
_0-0_0
  6
CONTINUOUS
 62
    7
 10
218.86583814248942
 20
37.069787627342521
 11
218.86583814248942
 21
58.119787627342532
  0
LINE
  8
_0-0_0
  6
CONTINUOUS
 62
    7
 10
218.86583814248942
 20
129.51978762734251
 11
218.86583814248942
 21
150.56978762734252
  0
LINE
  8
_0-0_0
  6
CONTINUOUS
 62
    7
 10
219.16583814248932
 20
36.819787627342521
 11
219.16583814248932
 21
39.319787627342521
  0
LINE
  8
_0-0_0
  6
CONTINUOUS
 62
    7
 10
219.16583814248932
 20
148.31978762734252
 11
219.16583814248932
 21
150.81978762734252
  0
LINE
  8
_0-0_0
  6
CONTINUOUS
 62
    7
 10
226.56047569248935
 20
144.92682893884262
 11
226.11583814248942
 21
141.91978762734254
  0
LINE
  8
_0-0_0
  6
CONTINUOUS
 62
    7
 10
254.81583814248924
 20
45.069787627342521
 11
272.5158381424892
 21
45.069787627342521
  0
LINE
  8
_0-0_0
  6
CONTINUOUS
 62
    7
 10
234.81583814248924
 20
45.719787627342498
 11
246.51583814248923
 21
45.719787627342498
  0
LINE
  8
_0-0_0
  6
CONTINUOUS
 62
    7
 10
280.81583814248927
 20
45.719787627342498
 11
292.5158381424892
 21
45.719787627342498
  0
LINE
  8
_0-0_0
  6
CONTINUOUS
 62
    7
 10
265.66583814248929
 20
49.569787627342521
 11
261.66583814248929
 21
49.569787627342521
  0
LINE
  8
_0-0_0
  6
CONTINUOUS
 62
    7
 10
238.66583814248932
 20
49.919787627342544
 11
242.66583814248932
 21
49.919787627342544
  0
LINE
  8
_0-0_0
  6
CONTINUOUS
 62
    7
 10
284.66583814248941
 20
49.919787627342544
 11
288.66583814248941
 21
49.919787627342544
  0
LINE
  8
_0-0_0
  6
CONTINUOUS
 62
    7
 10
226.11583814248942
 20
45.719787627342498
 11
226.56047569248935
 21
42.712746315842509
  0
LINE
  8
_0-0_0
  6
CONTINUOUS
 62
    7
 10
224.16583814248932
 20
36.819787627342521
 11
224.16583814248932
 21
39.319787627342521
  0
LINE
  8
_0-0_0
  6
CONTINUOUS
 62
    7
 10
224.16583814248932
 20
148.31978762734252
 11
224.16583814248932
 21
150.81978762734252
  0
LINE
  8
_0-4_DEFAULT_1
  6
DOT_CENTER
 62
    3
 10
286.66583814248941
 20
52.069787627342521
 11
281.6657381424892
 21
52.069787627342521
  0
LINE
  8
_0-0_0
  6
CONTINUOUS
 62
    7
 10
253.41583814248932
 20
52.069787627342521
 11
246.61583814248942
 21
52.069787627342521
  0
LINE
  8
_0-4_DEFAULT_1
  6
DOT_CENTER
 62
    3
 10
240.66583814248932
 20
52.069787627342521
 11
235.66573814248923
 21
52.069787627342521
  0
LINE
  8
_0-0_0
  6
CONTINUOUS
 62
    7
 10
234.71583814248933
 20
52.069787627342521
 11
227.91583814248932
 21
52.069787627342521
  0
LINE
  8
_0-4_DEFAULT_1
  6
DOT_CENTER
 62
    3
 10
240.66583814248932
 20
52.069787627342521
 11
245.66593814248924
 21
52.069787627342521
  0
LINE
  8
_0-0_0
  6
CONTINUOUS
 62
    7
 10
273.91583814248941
 20
52.069787627342521
 11
280.71583814248947
 21
52.069787627342521
  0
LINE
  8
_0-4_DEFAULT_1
  6
DOT_CENTER
 62
    3
 10
286.66583814248941
 20
52.069787627342521
 11
291.66593814248938
 21
52.069787627342521
  0
LINE
  8
_0-0_0
  6
CONTINUOUS
 62
    7
 10
292.61583814248934
 20
52.069787627342521
 11
299.41583814248941
 21
52.069787627342521
  0
LINE
  8
_0-0_0
  6
CONTINUOUS
 62
    7
 10
296.41583814248941
 20
53.769787627342509
 11
292.23129743968923
 21
53.769787627342509
  0
LINE
  8
_0-0_0
  6
CONTINUOUS
 62
    7
 10
281.10037884528947
 20
53.769787627342509
 11
276.91583814248929
 21
53.769787627342509
  0
LINE
  8
_0-0_0
  6
CONTINUOUS
 62
    7
 10
230.91583814248932
 20
53.769787627342509
 11
235.10037884528933
 21
53.769787627342509
  0
LINE
  8
_0-0_0
  6
CONTINUOUS
 62
    7
 10
246.23129743968954
 20
53.769787627342509
 11
250.41583814248932
 21
53.769787627342509
  0
LINE
  8
_0-0_0
  6
CONTINUOUS
 62
    7
 10
288.66583814248941
 20
54.219787627342498
 11
284.66583814248941
 21
54.219787627342498
  0
LINE
  8
_0-0_0
  6
CONTINUOUS
 62
    7
 10
242.66583814248932
 20
54.219787627342498
 11
238.66583814248932
 21
54.219787627342498
  0
LINE
  8
_0-0_0
  6
CONTINUOUS
 62
    7
 10
261.66583814248929
 20
54.569787627342521
 11
265.66583814248929
 21
54.569787627342521
  0
LINE
  8
_0-0_0
  6
CONTINUOUS
 62
    7
 10
226.11583814248942
 20
141.91978762734254
 11
226.11583814248942
 21
129.51978762734251
  0
LINE
  8
_0-0_0
  6
CONTINUOUS
 62
    7
 10
226.11583814248942
 20
58.119787627342532
 11
226.11583814248942
 21
45.719787627342498
  0
LINE
  8
_0-0_0
  6
CONTINUOUS
 62
    7
 10
227.91583814248932
 20
52.069787627342521
 11
227.91583814248932
 21
58.119787627342532
  0
LINE
  8
_0-0_0
  6
CONTINUOUS
 62
    7
 10
227.91583814248932
 20
129.51978762734251
 11
227.91583814248932
 21
135.56978762734252
  0
LINE
  8
_0-4_DEFAULT_1
  6
DOT_CENTER
 62
    3
 10
230.66583814248932
 20
144.31978762734252
 11
230.66583814248932
 21
132.87567507764254
  0
LINE
  8
_0-4_DEFAULT_1
  6
DOT_CENTER
 62
    3
 10
230.66583814248932
 20
43.319787627342521
 11
230.66583814248932
 21
31.875675077642512
  0
LINE
  8
_0-4_DEFAULT_1
  6
DOT_CENTER
 62
    3
 10
230.66583814248932
 20
43.319787627342521
 11
230.66583814248932
 21
54.763900177042501
  0
LINE
  8
_0-4_DEFAULT_1
  6
DOT_CENTER
 62
    3
 10
230.66583814248932
 20
144.31978762734252
 11
230.66583814248932
 21
155.76390017704261
  0
LINE
  8
_0-0_0
  6
CONTINUOUS
 62
    7
 10
230.91583814248932
 20
58.119787627342532
 11
230.91583814248932
 21
53.769787627342509
  0
LINE
  8
_0-0_0
  6
CONTINUOUS
 62
    7
 10
230.91583814248932
 20
129.51978762734251
 11
230.91583814248932
 21
133.86978762734253
  0
LINE
  8
_0-0_0
  6
CONTINUOUS
 62
    7
 10
309.36583814248934
 20
58.119787627342532
 11
301.21583814248925
 21
58.119787627342532
  0
LINE
  8
_0-0_0
  6
CONTINUOUS
 62
    7
 10
299.41583814248941
 20
58.119787627342532
 11
296.41583814248941
 21
58.119787627342532
  0
LINE
  8
_0-0_0
  6
CONTINUOUS
 62
    7
 10
276.91583814248929
 20
58.119787627342532
 11
273.91583814248941
 21
58.119787627342532
  0
LINE
  8
_0-0_0
  6
CONTINUOUS
 62
    7
 10
253.41583814248932
 20
58.119787627342532
 11
250.41583814248932
 21
58.119787627342532
  0
LINE
  8
_0-0_0
  6
CONTINUOUS
 62
    7
 10
230.91583814248932
 20
58.119787627342532
 11
227.91583814248932
 21
58.119787627342532
  0
LINE
  8
_0-0_0
  6
CONTINUOUS
 62
    7
 10
226.11583814248942
 20
58.119787627342532
 11
217.96583814248933
 21
58.119787627342532
  0
LINE
  8
_0-0_0
  6
CONTINUOUS
 62
    7
 10
215.66583814248932
 20
59.319787627342521
 11
311.66583814248941
 21
59.319787627342521
  0
LINE
  8
_0-0_0
  6
CONTINUOUS
 62
    7
 10
232.91583814248932
 20
52.069787627342521
 11
232.91583814248932
 21
53.769787627342509
  0
LINE
  8
_0-0_0
  6
CONTINUOUS
 62
    7
 10
232.91583814248932
 20
133.86978762734253
 11
232.91583814248932
 21
135.56978762734252
  0
LINE
  8
_0-0_0
  6
CONTINUOUS
 62
    7
 10
234.81583814248924
 20
43.319787627342521
 11
234.81583814248924
 21
45.719787627342498
  0
LINE
  8
_0-0_0
  6
CONTINUOUS
 62
    7
 10
234.81583814248924
 20
141.91978762734254
 11
234.81583814248924
 21
144.31978762734252
  0
LINE
  8
_0-4_DEFAULT_1
  6
DOT_CENTER
 62
    3
 10
240.66583814248932
 20
135.56978762734252
 11
240.66583814248932
 21
130.56968762734255
  0
LINE
  8
_0-4_DEFAULT_1
  6
DOT_CENTER
 62
    3
 10
240.66583814248932
 20
52.069787627342521
 11
240.66583814248932
 21
47.069687627342546
  0
LINE
  8
_0-4_DEFAULT_1
  6
DOT_CENTER
 62
    3
 10
240.66583814248932
 20
52.069787627342521
 11
240.66583814248932
 21
57.069887627342609
  0
LINE
  8
_0-4_DEFAULT_1
  6
DOT_CENTER
 62
    3
 10
240.66583814248932
 20
135.56978762734252
 11
240.66583814248932
 21
140.5698876273425
  0
LINE
  8
_0-0_0
  6
CONTINUOUS
 62
    7
 10
246.51583814248923
 20
144.31978762734252
 11
246.51583814248923
 21
141.91978762734254
  0
LINE
  8
_0-0_0
  6
CONTINUOUS
 62
    7
 10
246.51583814248923
 20
45.719787627342498
 11
246.51583814248923
 21
43.319787627342521
  0
LINE
  8
_0-0_0
  6
CONTINUOUS
 62
    7
 10
248.41583814248932
 20
135.56978762734252
 11
248.41583814248932
 21
133.86978762734253
  0
LINE
  8
_0-0_0
  6
CONTINUOUS
 62
    7
 10
248.41583814248932
 20
53.769787627342509
 11
248.41583814248932
 21
52.069787627342521
  0
LINE
  8
_0-0_0
  6
CONTINUOUS
 62
    7
 10
250.41583814248932
 20
133.86978762734253
 11
250.41583814248932
 21
129.51978762734251
  0
LINE
  8
_0-0_0
  6
CONTINUOUS
 62
    7
 10
250.41583814248932
 20
53.769787627342509
 11
250.41583814248932
 21
58.119787627342532
  0
LINE
  8
_0-4_DEFAULT_1
  6
DOT_CENTER
 62
    3
 10
250.66583814248932
 20
144.31978762734252
 11
250.66583814248932
 21
132.87567507764254
  0
LINE
  8
_0-4_DEFAULT_1
  6
DOT_CENTER
 62
    3
 10
250.66583814248932
 20
43.319787627342521
 11
250.66583814248932
 21
31.875675077642512
  0
LINE
  8
_0-4_DEFAULT_1
  6
DOT_CENTER
 62
    3
 10
250.66583814248932
 20
43.319787627342521
 11
250.66583814248932
 21
54.763900177042501
  0
LINE
  8
_0-4_DEFAULT_1
  6
DOT_CENTER
 62
    3
 10
250.66583814248932
 20
144.31978762734252
 11
250.66583814248932
 21
155.76390017704261
  0
LINE
  8
_0-0_0
  6
CONTINUOUS
 62
    7
 10
253.41583814248932
 20
135.56978762734252
 11
253.41583814248932
 21
129.51978762734251
  0
LINE
  8
_0-0_0
  6
CONTINUOUS
 62
    7
 10
253.41583814248932
 20
58.119787627342532
 11
253.41583814248932
 21
52.069787627342521
  0
LINE
  8
_0-0_0
  6
CONTINUOUS
 62
    7
 10
254.81583814248924
 20
43.319787627342521
 11
254.81583814248924
 21
45.069787627342521
  0
LINE
  8
_0-0_0
  6
CONTINUOUS
 62
    7
 10
254.81583814248924
 20
142.56978762734252
 11
254.81583814248924
 21
144.31978762734252
  0
LINE
  8
_0-0_0
  6
CONTINUOUS
 62
    7
 10
261.16583814248929
 20
36.819787627342521
 11
261.16583814248929
 21
39.319787627342521
  0
LINE
  8
_0-0_0
  6
CONTINUOUS
 62
    7
 10
261.16583814248929
 20
148.31978762734252
 11
261.16583814248929
 21
150.81978762734252
  0
LINE
  8
_0-4_DEFAULT_1
  6
DOT_CENTER
 62
    3
 10
263.66583814248929
 20
93.819787627342521
 11
263.66583814248929
 21
28.618269782942519
  0
LINE
  8
_0-0_0
  6
CONTINUOUS
 62
    7
 10
318.06583814248927
 20
91.319787627342521
 11
312.86583814248922
 21
91.319787627342521
  0
LINE
  8
_0-0_0
  6
CONTINUOUS
 62
    7
 10
214.46583814248933
 20
91.319787627342521
 11
209.26583814248923
 21
91.319787627342521
  0
LINE
  8
_0-4_DEFAULT_1
  6
DOT_CENTER
 62
    3
 10
263.66583814248929
 20
93.819787627342521
 11
200.97065523678933
 21
93.819787627342521
  0
LINE
  8
_0-4_DEFAULT_1
  6
DOT_CENTER
 62
    3
 10
263.66583814248929
 20
93.819787627342521
 11
327.20536945898914
 21
93.819787627342521
  0
LINE
  8
_0-0_0
  6
CONTINUOUS
 62
    7
 10
266.16583814248929
 20
36.819787627342521
 11
266.16583814248929
 21
39.319787627342521
  0
LINE
  8
_0-0_0
  6
CONTINUOUS
 62
    7
 10
266.16583814248929
 20
148.31978762734252
 11
266.16583814248929
 21
150.81978762734252
  0
LINE
  8
_0-0_0
  6
CONTINUOUS
 62
    7
 10
209.26583814248923
 20
96.319787627342521
 11
214.46583814248933
 21
96.319787627342521
  0
LINE
  8
_0-0_0
  6
CONTINUOUS
 62
    7
 10
312.86583814248922
 20
96.319787627342521
 11
318.06583814248927
 21
96.319787627342521
  0
LINE
  8
_0-0_0
  6
CONTINUOUS
 62
    7
 10
272.5158381424892
 20
144.31978762734252
 11
272.5158381424892
 21
142.56978762734252
  0
LINE
  8
_0-0_0
  6
CONTINUOUS
 62
    7
 10
272.5158381424892
 20
45.069787627342521
 11
272.5158381424892
 21
43.319787627342521
  0
LINE
  8
_0-0_0
  6
CONTINUOUS
 62
    7
 10
273.91583814248941
 20
52.069787627342521
 11
273.91583814248941
 21
58.119787627342532
  0
LINE
  8
_0-0_0
  6
CONTINUOUS
 62
    7
 10
273.91583814248941
 20
129.51978762734251
 11
273.91583814248941
 21
135.56978762734252
  0
LINE
  8
_0-4_DEFAULT_1
  6
DOT_CENTER
 62
    3
 10
276.66583814248929
 20
144.31978762734252
 11
276.66583814248929
 21
132.87567507764254
  0
LINE
  8
_0-4_DEFAULT_1
  6
DOT_CENTER
 62
    3
 10
276.66583814248929
 20
43.319787627342521
 11
276.66583814248929
 21
31.875675077642512
  0
LINE
  8
_0-4_DEFAULT_1
  6
DOT_CENTER
 62
    3
 10
276.66583814248929
 20
43.319787627342521
 11
276.66583814248929
 21
54.763900177042501
  0
LINE
  8
_0-4_DEFAULT_1
  6
DOT_CENTER
 62
    3
 10
276.66583814248929
 20
144.31978762734252
 11
276.66583814248929
 21
155.76390017704261
  0
LINE
  8
_0-0_0
  6
CONTINUOUS
 62
    7
 10
276.91583814248929
 20
133.86978762734253
 11
276.91583814248929
 21
129.51978762734251
  0
LINE
  8
_0-0_0
  6
CONTINUOUS
 62
    7
 10
276.91583814248929
 20
53.769787627342509
 11
276.91583814248929
 21
58.119787627342532
  0
LINE
  8
_0-0_0
  6
CONTINUOUS
 62
    7
 10
278.91583814248929
 20
52.069787627342521
 11
278.91583814248929
 21
53.769787627342509
  0
LINE
  8
_0-0_0
  6
CONTINUOUS
 62
    7
 10
278.91583814248929
 20
133.86978762734253
 11
278.91583814248929
 21
135.56978762734252
  0
LINE
  8
_0-0_0
  6
CONTINUOUS
 62
    7
 10
280.81583814248927
 20
43.319787627342521
 11
280.81583814248927
 21
45.719787627342498
  0
LINE
  8
_0-0_0
  6
CONTINUOUS
 62
    7
 10
280.81583814248927
 20
142.61978762734253
 11
280.81583814248927
 21
144.31978762734252
  0
LINE
  8
_0-4_DEFAULT_1
  6
DOT_CENTER
 62
    3
 10
286.66583814248941
 20
135.56978762734252
 11
286.66583814248941
 21
130.56968762734255
  0
LINE
  8
_0-4_DEFAULT_1
  6
DOT_CENTER
 62
    3
 10
286.66583814248941
 20
52.069787627342521
 11
286.66583814248941
 21
47.069687627342546
  0
LINE
  8
_0-4_DEFAULT_1
  6
DOT_CENTER
 62
    3
 10
286.66583814248941
 20
52.069787627342521
 11
286.66583814248941
 21
57.069887627342609
  0
LINE
  8
_0-4_DEFAULT_1
  6
DOT_CENTER
 62
    3
 10
286.66583814248941
 20
135.56978762734252
 11
286.66583814248941
 21
140.5698876273425
  0
LINE
  8
_0-0_0
  6
CONTINUOUS
 62
    7
 10
292.5158381424892
 20
144.31978762734252
 11
292.5158381424892
 21
142.61978762734253
  0
LINE
  8
_0-0_0
  6
CONTINUOUS
 62
    7
 10
292.5158381424892
 20
45.719787627342498
 11
292.5158381424892
 21
43.319787627342521
  0
LINE
  8
_0-0_0
  6
CONTINUOUS
 62
    7
 10
294.41583814248941
 20
135.56978762734252
 11
294.41583814248941
 21
133.86978762734253
  0
LINE
  8
_0-0_0
  6
CONTINUOUS
 62
    7
 10
294.41583814248941
 20
53.769787627342509
 11
294.41583814248941
 21
52.069787627342521
  0
LINE
  8
_0-0_0
  6
CONTINUOUS
 62
    7
 10
296.41583814248941
 20
58.119787627342532
 11
296.41583814248941
 21
53.769787627342509
  0
LINE
  8
_0-0_0
  6
CONTINUOUS
 62
    7
 10
296.41583814248941
 20
129.51978762734251
 11
296.41583814248941
 21
133.86978762734253
  0
LINE
  8
_0-4_DEFAULT_1
  6
DOT_CENTER
 62
    3
 10
296.66583814248941
 20
144.31978762734252
 11
296.66583814248941
 21
132.87567507764254
  0
LINE
  8
_0-4_DEFAULT_1
  6
DOT_CENTER
 62
    3
 10
296.66583814248941
 20
43.319787627342521
 11
296.66583814248941
 21
31.875675077642512
  0
LINE
  8
_0-4_DEFAULT_1
  6
DOT_CENTER
 62
    3
 10
296.66583814248941
 20
43.319787627342521
 11
296.66583814248941
 21
54.763900177042501
  0
LINE
  8
_0-4_DEFAULT_1
  6
DOT_CENTER
 62
    3
 10
296.66583814248941
 20
144.31978762734252
 11
296.66583814248941
 21
155.76390017704261
  0
LINE
  8
_0-0_0
  6
CONTINUOUS
 62
    7
 10
299.41583814248941
 20
135.56978762734252
 11
299.41583814248941
 21
129.51978762734251
  0
LINE
  8
_0-0_0
  6
CONTINUOUS
 62
    7
 10
299.41583814248941
 20
58.119787627342532
 11
299.41583814248941
 21
52.069787627342521
  0
LINE
  8
_0-0_0
  6
CONTINUOUS
 62
    7
 10
301.21583814248925
 20
45.719787627342498
 11
301.21583814248925
 21
58.119787627342532
  0
LINE
  8
_0-0_0
  6
CONTINUOUS
 62
    7
 10
301.21583814248925
 20
129.51978762734251
 11
301.21583814248925
 21
142.61978762734253
  0
LINE
  8
_0-0_0
  6
CONTINUOUS
 62
    7
 10
303.16583814248941
 20
36.819787627342521
 11
303.16583814248941
 21
39.319787627342521
  0
LINE
  8
_0-0_0
  6
CONTINUOUS
 62
    7
 10
303.16583814248941
 20
148.31978762734252
 11
303.16583814248941
 21
150.81978762734252
  0
LINE
  8
_0-0_0
  6
CONTINUOUS
 62
    7
 10
215.66583814248932
 20
128.31978762734252
 11
311.66583814248941
 21
128.31978762734252
  0
LINE
  8
_0-0_0
  6
CONTINUOUS
 62
    7
 10
217.96583814248933
 20
129.51978762734251
 11
226.11583814248942
 21
129.51978762734251
  0
LINE
  8
_0-0_0
  6
CONTINUOUS
 62
    7
 10
227.91583814248932
 20
129.51978762734251
 11
230.91583814248932
 21
129.51978762734251
  0
LINE
  8
_0-0_0
  6
CONTINUOUS
 62
    7
 10
250.41583814248932
 20
129.51978762734251
 11
253.41583814248932
 21
129.51978762734251
  0
LINE
  8
_0-0_0
  6
CONTINUOUS
 62
    7
 10
273.91583814248941
 20
129.51978762734251
 11
276.91583814248929
 21
129.51978762734251
  0
LINE
  8
_0-0_0
  6
CONTINUOUS
 62
    7
 10
296.41583814248941
 20
129.51978762734251
 11
299.41583814248941
 21
129.51978762734251
  0
LINE
  8
_0-0_0
  6
CONTINUOUS
 62
    7
 10
301.21583814248925
 20
129.51978762734251
 11
309.36583814248934
 21
129.51978762734251
  0
LINE
  8
_0-0_0
  6
CONTINUOUS
 62
    7
 10
238.66583814248932
 20
133.41978762734254
 11
242.66583814248932
 21
133.41978762734254
  0
LINE
  8
_0-0_0
  6
CONTINUOUS
 62
    7
 10
284.66583814248941
 20
133.41978762734254
 11
288.66583814248941
 21
133.41978762734254
  0
LINE
  8
_0-0_0
  6
CONTINUOUS
 62
    7
 10
308.16583814248941
 20
36.819787627342521
 11
308.16583814248941
 21
39.319787627342521
  0
LINE
  8
_0-0_0
  6
CONTINUOUS
 62
    7
 10
308.16583814248941
 20
148.31978762734252
 11
308.16583814248941
 21
150.81978762734252
  0
LINE
  8
_0-0_0
  6
CONTINUOUS
 62
    7
 10
308.46583814248947
 20
150.56978762734252
 11
308.46583814248947
 21
129.51978762734251
  0
LINE
  8
_0-0_0
  6
CONTINUOUS
 62
    7
 10
308.46583814248947
 20
58.119787627342532
 11
308.46583814248947
 21
37.069787627342521
  0
LINE
  8
_0-0_0
  6
CONTINUOUS
 62
    7
 10
300.77120059258925
 20
42.712746315842509
 11
301.21583814248925
 21
45.719787627342498
  0
LINE
  8
_0-0_0
  6
CONTINUOUS
 62
    7
 10
296.41583814248941
 20
133.86978762734253
 11
292.99394396378909
 21
133.86978762734253
  0
LINE
  8
_0-0_0
  6
CONTINUOUS
 62
    7
 10
280.3377323212892
 20
133.86978762734253
 11
276.91583814248929
 21
133.86978762734253
  0
LINE
  8
_0-0_0
  6
CONTINUOUS
 62
    7
 10
230.91583814248932
 20
133.86978762734253
 11
235.10037884528933
 21
133.86978762734253
  0
LINE
  8
_0-0_0
  6
CONTINUOUS
 62
    7
 10
246.23129743968954
 20
133.86978762734253
 11
250.41583814248932
 21
133.86978762734253
  0
LINE
  8
_0-4_DEFAULT_1
  6
DOT_CENTER
 62
    3
 10
286.66583814248941
 20
135.56978762734252
 11
281.6657381424892
 21
135.56978762734252
  0
LINE
  8
_0-4_DEFAULT_1
  6
DOT_CENTER
 62
    3
 10
271.16583814248941
 20
135.56978762734252
 11
256.16583814248929
 21
135.56978762734252
  0
LINE
  8
_0-4_DEFAULT_1
  6
DOT_CENTER
 62
    3
 10
256.16583814248929
 20
135.56978762734252
 11
253.66583814248932
 21
135.56978762734252
  0
LINE
  8
_0-0_0
  6
CONTINUOUS
 62
    7
 10
253.41583814248932
 20
135.56978762734252
 11
246.61583814248942
 21
135.56978762734252
  0
LINE
  8
_0-4_DEFAULT_1
  6
DOT_CENTER
 62
    3
 10
240.66583814248932
 20
135.56978762734252
 11
235.66573814248923
 21
135.56978762734252
  0
LINE
  8
_0-0_0
  6
CONTINUOUS
 62
    7
 10
234.71583814248933
 20
135.56978762734252
 11
227.91583814248932
 21
135.56978762734252
  0
LINE
  8
_0-4_DEFAULT_1
  6
DOT_CENTER
 62
    3
 10
240.66583814248932
 20
135.56978762734252
 11
245.66593814248924
 21
135.56978762734252
  0
LINE
  8
_0-4_DEFAULT_1
  6
DOT_CENTER
 62
    3
 10
271.16583814248941
 20
135.56978762734252
 11
273.66583814248941
 21
135.56978762734252
  0
LINE
  8
_0-0_0
  6
CONTINUOUS
 62
    7
 10
273.91583814248941
 20
135.56978762734252
 11
280.0158381424892
 21
135.56978762734252
  0
LINE
  8
_0-4_DEFAULT_1
  6
DOT_CENTER
 62
    3
 10
286.66583814248941
 20
135.56978762734252
 11
291.66593814248938
 21
135.56978762734252
  0
LINE
  8
_0-0_0
  6
CONTINUOUS
 62
    7
 10
293.31583814248927
 20
135.56978762734252
 11
299.41583814248941
 21
135.56978762734252
  0
LINE
  8
_0-0_0
  6
CONTINUOUS
 62
    7
 10
288.66583814248941
 20
137.71978762734261
 11
284.66583814248941
 21
137.71978762734261
  0
LINE
  8
_0-0_0
  6
CONTINUOUS
 62
    7
 10
242.66583814248932
 20
137.71978762734261
 11
238.66583814248932
 21
137.71978762734261
  0
LINE
  8
_0-0_0
  6
CONTINUOUS
 62
    7
 10
309.36583814248934
 20
58.119787627342532
 11
309.36583814248934
 21
59.319787627342521
  0
LINE
  8
_0-0_0
  6
CONTINUOUS
 62
    7
 10
309.36583814248934
 20
128.31978762734252
 11
309.36583814248934
 21
129.51978762734251
  0
LINE
  8
_0-0_0
  6
CONTINUOUS
 62
    7
 10
311.66583814248941
 20
128.31978762734252
 11
311.66583814248941
 21
59.319787627342521
  0
LINE
  8
_0-0_0
  6
CONTINUOUS
 62
    7
 10
312.86583814248922
 20
96.319787627342521
 11
312.86583814248922
 21
91.319787627342521
  0
LINE
  8
_0-0_0
  6
CONTINUOUS
 62
    7
 10
246.51583814248923
 20
141.91978762734254
 11
234.81583814248924
 21
141.91978762734254
  0
LINE
  8
_0-0_0
  6
CONTINUOUS
 62
    7
 10
254.81583814248924
 20
142.56978762734252
 11
272.5158381424892
 21
142.56978762734252
  0
LINE
  8
_0-0_0
  6
CONTINUOUS
 62
    7
 10
292.5158381424892
 20
142.61978762734253
 11
280.81583814248927
 21
142.61978762734253
  0
LINE
  8
_0-4_DEFAULT_1
  6
DOT_CENTER
 62
    3
 10
296.66583814248941
 20
144.31978762734252
 11
285.22172559288936
 21
144.31978762734252
  0
LINE
  8
_0-4_DEFAULT_1
  6
DOT_CENTER
 62
    3
 10
276.66583814248929
 20
144.31978762734252
 11
265.22172559288936
 21
144.31978762734252
  0
LINE
  8
_0-4_DEFAULT_1
  6
DOT_CENTER
 62
    3
 10
250.66583814248932
 20
144.31978762734252
 11
239.22172559288933
 21
144.31978762734252
  0
LINE
  8
_0-4_DEFAULT_1
  6
DOT_CENTER
 62
    3
 10
230.66583814248932
 20
144.31978762734252
 11
219.22172559288933
 21
144.31978762734252
  0
LINE
  8
_0-4_DEFAULT_1
  6
DOT_CENTER
 62
    3
 10
230.66583814248932
 20
144.31978762734252
 11
239.22172559288933
 21
144.31978762734252
  0
LINE
  8
_0-4_DEFAULT_1
  6
DOT_CENTER
 62
    3
 10
250.66583814248932
 20
144.31978762734252
 11
262.10995069218927
 21
144.31978762734252
  0
LINE
  8
_0-4_DEFAULT_1
  6
DOT_CENTER
 62
    3
 10
276.66583814248929
 20
144.31978762734252
 11
285.22172559288936
 21
144.31978762734252
  0
LINE
  8
_0-4_DEFAULT_1
  6
DOT_CENTER
 62
    3
 10
296.66583814248941
 20
144.31978762734252
 11
308.10995069218927
 21
144.31978762734252
  0
LINE
  8
_0-0_0
  6
CONTINUOUS
 62
    7
 10
301.21583814248925
 20
142.61978762734253
 11
300.74206533228937
 21
145.09880745864251
  0
LINE
  8
_0-0_0
  6
CONTINUOUS
 62
    7
 10
315.56583814248927
 20
96.319787627342521
 11
315.56583814248927
 21
95.819787627342521
  0
LINE
  8
_0-0_0
  6
CONTINUOUS
 62
    7
 10
318.06583814248927
 20
91.319787627342521
 11
318.06583814248927
 21
96.319787627342521
  0
LINE
  8
_0-0_0
  6
CONTINUOUS
 62
    7
 10
318.41583814248929
 20
41.819787627342521
 11
318.41583814248929
 21
145.81978762734252
  0
LINE
  8
_0-0_0
  6
CONTINUOUS
 62
    7
 10
219.16583814248932
 20
148.31978762734252
 11
219.66583814248932
 21
148.31978762734252
  0
LINE
  8
_0-0_0
  6
CONTINUOUS
 62
    7
 10
261.16583814248929
 20
148.31978762734252
 11
261.66583814248929
 21
148.31978762734252
  0
LINE
  8
_0-0_0
  6
CONTINUOUS
 62
    7
 10
303.16583814248941
 20
148.31978762734252
 11
303.66583814248929
 21
148.31978762734252
  0
LINE
  8
_0-0_0
  6
CONTINUOUS
 62
    7
 10
320.16583814248929
 20
41.819787627342521
 11
320.16583814248929
 21
145.81978762734252
  0
LINE
  8
_0-0_0
  6
CONTINUOUS
 62
    7
 10
321.66583814248941
 20
145.81978762734252
 11
321.66583814248941
 21
41.819787627342521
  0
LINE
  8
_0-0_0
  6
CONTINUOUS
 62
    7
 10
308.46583814248947
 20
150.31978762734252
 11
308.16583814248941
 21
150.31978762734252
  0
LINE
  8
_0-0_0
  6
CONTINUOUS
 62
    7
 10
303.16583814248941
 20
150.31978762734252
 11
299.01670746108937
 21
150.31978762734252
  0
LINE
  8
_0-0_0
  6
CONTINUOUS
 62
    7
 10
294.31496882388956
 20
150.31978762734252
 11
279.01670746108937
 21
150.31978762734252
  0
LINE
  8
_0-0_0
  6
CONTINUOUS
 62
    7
 10
274.31496882388933
 20
150.31978762734252
 11
266.16583814248929
 21
150.31978762734252
  0
LINE
  8
_0-0_0
  6
CONTINUOUS
 62
    7
 10
261.16583814248929
 20
150.31978762734252
 11
253.01670746108934
 21
150.31978762734252
  0
LINE
  8
_0-0_0
  6
CONTINUOUS
 62
    7
 10
248.3149688238893
 20
150.31978762734252
 11
233.01670746108934
 21
150.31978762734252
  0
LINE
  8
_0-0_0
  6
CONTINUOUS
 62
    7
 10
228.3149688238893
 20
150.31978762734252
 11
224.16583814248932
 21
150.31978762734252
  0
LINE
  8
_0-0_0
  6
CONTINUOUS
 62
    7
 10
219.16583814248932
 20
150.31978762734252
 11
218.86583814248942
 21
150.31978762734252
  0
LINE
  8
_0-0_0
  6
CONTINUOUS
 62
    7
 10
313.66583814248941
 20
150.56978762734252
 11
308.46583814248947
 21
150.56978762734252
  0
LINE
  8
_0-0_0
  6
CONTINUOUS
 62
    7
 10
218.86583814248942
 20
150.56978762734252
 11
213.66583814248932
 21
150.56978762734252
  0
LINE
  8
_0-0_0
  6
CONTINUOUS
 62
    7
 10
308.16583814248941
 20
150.81978762734252
 11
303.16583814248941
 21
150.81978762734252
  0
LINE
  8
_0-0_0
  6
CONTINUOUS
 62
    7
 10
266.16583814248929
 20
150.81978762734252
 11
261.16583814248929
 21
150.81978762734252
  0
LINE
  8
_0-0_0
  6
CONTINUOUS
 62
    7
 10
224.16583814248932
 20
150.81978762734252
 11
219.16583814248932
 21
150.81978762734252
  0
LINE
  8
_0-0_0
  6
CONTINUOUS
 62
    7
 10
313.66583814248941
 20
152.31978762734252
 11
213.66583814248932
 21
152.31978762734252
  0
LINE
  8
_0-0_0
  6
CONTINUOUS
 62
    7
 10
313.66583814248941
 20
153.81978762734252
 11
213.66583814248932
 21
153.81978762734252
  0
LINE
  8
_0-0_0
  6
CONTINUOUS
 62
    7
 10
134.09923778474212
 20
112.96978762734261
 11
134.09923778474212
 21
99.319787627342521
  0
LINE
  8
_0-1_1
  6
DOT_CENTER
 62
    3
 10
256.46583814248947
 20
120.2197876273425
 11
256.46583814248947
 21
112.41978762734254
  0
LINE
  8
_0-1_1
  6
DOT_CENTER
 62
    3
 10
260.36583814248945
 20
116.31978762734252
 11
252.56583814248953
 21
116.31978762734252
  0
LINE
  8
_0-1_1
  6
DOT_CENTER
 62
    3
 10
127.10486270204512
 20
115.81978762734252
 11
137.16521524435012
 21
115.81978762734252
  0
LINE
  8
_0-1_1
  6
DOT_CENTER
 62
    3
 10
51.025548450175123
 20
209.2555393372823
 11
51.025548450175123
 21
191.11550819659453
  0
LINE
  8
_0-1_1
  6
DOT_CENTER
 62
    3
 10
74.325548450175006
 20
204.84820559113632
 11
74.325548450175006
 21
189.95030962978564
  0
LINE
  8
_0-1_1
  6
DOT_CENTER
 62
    3
 10
109.80719523858212
 20
93.819787627342521
 11
140.04431867534413
 21
93.819787627342521
  0
LINE
  8
_0-1_1
  6
DOT_CENTER
 62
    3
 10
43.82554845017502
 20
212.37173855216321
 11
43.82554845017502
 21
174.95711811143752
  0
LINE
  8
_0-0_0
  6
CONTINUOUS
 62
    7
 10
-14.174451549824937
 20
145.8246610111425
 11
-14.174451549824937
 21
41.814914243542518
  0
LINE
  8
_0-0_0
  6
CONTINUOUS
 62
    7
 10
-6.1793249336249119
 20
33.819787627342521
 11
93.830421833975123
 21
33.819787627342521
  0
LINE
  8
_0-0_0
  6
CONTINUOUS
 62
    7
 10
-4.8244515498249143
 20
134.81978762734252
 11
-4.8244515498249143
 21
52.819787627342521
  0
LINE
  8
_0-0_0
  6
CONTINUOUS
 62
    7
 10
-0.674451549824937
 20
48.669787627342544
 11
88.325548450175006
 21
48.669787627342544
  0
LINE
  8
_0-0_0
  6
CONTINUOUS
 62
    7
 10
88.325548450175006
 20
138.9697876273425
 11
-0.674451549824937
 21
138.9697876273425
  0
LINE
  8
_0-0_0
  6
CONTINUOUS
 62
    7
 10
92.475548450175125
 20
52.819787627342521
 11
92.475548450175125
 21
134.81978762734252
  0
LINE
  8
_0-0_0
  6
CONTINUOUS
 62
    7
 10
101.82554845017501
 20
145.8246610111425
 11
101.82554845017501
 21
41.814914243542518
  0
LINE
  8
_0-0_0
  6
CONTINUOUS
 62
    7
 10
-6.1793249336249119
 20
153.81978762734252
 11
93.830421833975123
 21
153.81978762734252
  0
LINE
  8
_0-0_0
  6
CONTINUOUS
 62
    7
 10
222.76583814248934
 20
150.12623183854254
 11
223.66583814248932
 21
150.12623183854254
  0
LINE
  8
_0-0_0
  6
CONTINUOUS
 62
    7
 10
219.66583814248932
 20
150.12623183854254
 11
220.56583814248953
 21
150.12623183854254
  0
LINE
  8
_0-0_0
  6
CONTINUOUS
 62
    7
 10
262.5658381424895
 20
150.12623183854254
 11
261.66583814248929
 21
150.12623183854254
  0
LINE
  8
_0-0_0
  6
CONTINUOUS
 62
    7
 10
265.66583814248929
 20
150.12623183854254
 11
264.76583814248932
 21
150.12623183854254
  0
LINE
  8
_0-0_0
  6
CONTINUOUS
 62
    7
 10
304.5658381424895
 20
150.12623183854254
 11
303.66583814248929
 21
150.12623183854254
  0
LINE
  8
_0-0_0
  6
CONTINUOUS
 62
    7
 10
307.66583814248929
 20
150.12623183854254
 11
306.7658381424892
 21
150.12623183854254
  0
LINE
  8
_0-0_0
  6
CONTINUOUS
 62
    7
 10
304.5658381424895
 20
149.85885012734252
 11
306.7658381424892
 21
149.85885012734252
  0
LINE
  8
_0-0_0
  6
CONTINUOUS
 62
    7
 10
262.5658381424895
 20
149.85885012734252
 11
264.76583814248932
 21
149.85885012734252
  0
LINE
  8
_0-0_0
  6
CONTINUOUS
 62
    7
 10
220.56583814248953
 20
149.85885012734252
 11
222.76583814248934
 21
149.85885012734252
  0
LINE
  8
_0-0_0
  6
CONTINUOUS
 62
    7
 10
261.66583814248929
 20
149.41978762734254
 11
265.66583814248929
 21
149.41978762734254
  0
LINE
  8
_0-0_0
  6
CONTINUOUS
 62
    7
 10
219.66583814248932
 20
149.41978762734254
 11
223.66583814248932
 21
149.41978762734254
  0
LINE
  8
_0-0_0
  6
CONTINUOUS
 62
    7
 10
307.66583814248929
 20
149.41978762734254
 11
303.66583814248929
 21
149.41978762734254
  0
LINE
  8
_0-0_0
  6
CONTINUOUS
 62
    7
 10
223.66583814248932
 20
149.11978762734253
 11
219.66583814248932
 21
149.11978762734253
  0
LINE
  8
_0-0_0
  6
CONTINUOUS
 62
    7
 10
265.66583814248929
 20
149.11978762734253
 11
261.66583814248929
 21
149.11978762734253
  0
LINE
  8
_0-0_0
  6
CONTINUOUS
 62
    7
 10
307.66583814248929
 20
149.11978762734253
 11
303.66583814248929
 21
149.11978762734253
  0
LINE
  8
_0-0_0
  6
CONTINUOUS
 62
    7
 10
223.66583814248932
 20
147.81978762734252
 11
219.66583814248932
 21
147.81978762734252
  0
LINE
  8
_0-0_0
  6
CONTINUOUS
 62
    7
 10
265.66583814248929
 20
147.81978762734252
 11
261.66583814248929
 21
147.81978762734252
  0
LINE
  8
_0-0_0
  6
CONTINUOUS
 62
    7
 10
307.66583814248929
 20
147.81978762734252
 11
303.66583814248929
 21
147.81978762734252
  0
LINE
  8
_0-0_0
  6
CONTINUOUS
 62
    7
 10
317.66583814248941
 20
94.919787627342544
 11
317.66583814248941
 21
95.819787627342521
  0
LINE
  8
_0-0_0
  6
CONTINUOUS
 62
    7
 10
317.66583814248941
 20
91.819787627342521
 11
317.66583814248941
 21
92.719787627342498
  0
LINE
  8
_0-0_0
  6
CONTINUOUS
 62
    7
 10
317.27228235368966
 20
91.819787627342521
 11
317.27228235368966
 21
92.719787627342498
  0
LINE
  8
_0-0_0
  6
CONTINUOUS
 62
    7
 10
317.27228235368966
 20
95.819787627342521
 11
317.27228235368966
 21
94.919787627342544
  0
LINE
  8
_0-0_0
  6
CONTINUOUS
 62
    7
 10
316.5658381424895
 20
91.319787627342521
 11
316.5658381424895
 21
96.319787627342521
  0
LINE
  8
_0-0_0
  6
CONTINUOUS
 62
    7
 10
316.2658381424892
 20
95.819787627342521
 11
316.2658381424892
 21
91.819787627342521
  0
LINE
  8
_0-0_0
  6
CONTINUOUS
 62
    7
 10
315.0658381424895
 20
95.819787627342521
 11
315.0658381424895
 21
91.819787627342521
  0
LINE
  8
_0-0_0
  6
CONTINUOUS
 62
    7
 10
311.41583814248941
 20
60.569787627342521
 11
311.41583814248941
 21
127.06978762734252
  0
LINE
  8
_0-0_0
  6
CONTINUOUS
 62
    7
 10
307.66583814248929
 20
147.81978762734252
 11
307.66583814248929
 21
150.81978762734252
  0
LINE
  8
_0-0_0
  6
CONTINUOUS
 62
    7
 10
307.66583814248929
 20
36.819787627342521
 11
307.66583814248929
 21
39.819787627342521
  0
LINE
  8
_0-0_0
  6
CONTINUOUS
 62
    7
 10
306.7658381424892
 20
149.41978762734254
 11
306.7658381424892
 21
150.81978762734252
  0
LINE
  8
_0-0_0
  6
CONTINUOUS
 62
    7
 10
306.7658381424892
 20
36.819787627342521
 11
306.7658381424892
 21
38.219787627342527
  0
LINE
  8
_0-0_0
  6
CONTINUOUS
 62
    7
 10
304.5658381424895
 20
149.41978762734254
 11
304.5658381424895
 21
150.81978762734252
  0
LINE
  8
_0-0_0
  6
CONTINUOUS
 62
    7
 10
304.5658381424895
 20
36.819787627342521
 11
304.5658381424895
 21
38.219787627342527
  0
LINE
  8
_0-0_0
  6
CONTINUOUS
 62
    7
 10
303.66583814248929
 20
147.81978762734252
 11
303.66583814248929
 21
150.81978762734252
  0
LINE
  8
_0-0_0
  6
CONTINUOUS
 62
    7
 10
303.66583814248929
 20
36.819787627342521
 11
303.66583814248929
 21
39.819787627342521
  0
LINE
  8
_0-0_0
  6
CONTINUOUS
 62
    7
 10
310.41583814248941
 20
128.06978762734252
 11
309.36583814248934
 21
128.06978762734252
  0
LINE
  8
_0-0_0
  6
CONTINUOUS
 62
    7
 10
262.46583814248947
 20
122.81978762734252
 11
250.46583814248945
 21
122.81978762734252
  0
LINE
  8
_0-0_0
  6
CONTINUOUS
 62
    7
 10
241.16583814248932
 20
120.31978762734252
 11
225.16583814248932
 21
120.31978762734252
  0
LINE
  8
_0-0_0
  6
CONTINUOUS
 62
    7
 10
240.16583814248932
 20
118.66978762734254
 11
226.16583814248932
 21
118.66978762734254
  0
LINE
  8
_0-0_0
  6
CONTINUOUS
 62
    7
 10
256.96583814248947
 20
118.31978762734252
 11
255.96583814248945
 21
118.31978762734252
  0
LINE
  8
_0-0_0
  6
CONTINUOUS
 62
    7
 10
239.66583814248932
 20
118.16978762734254
 11
226.66583814248932
 21
118.16978762734254
  0
LINE
  8
_0-0_0
  6
CONTINUOUS
 62
    7
 10
255.96583814248945
 20
116.81978762734252
 11
254.46583814248945
 21
116.81978762734252
  0
LINE
  8
_0-0_0
  6
CONTINUOUS
 62
    7
 10
258.46583814248947
 20
116.81978762734252
 11
256.96583814248947
 21
116.81978762734252
  0
LINE
  8
_0-0_0
  6
CONTINUOUS
 62
    7
 10
256.96583814248947
 20
115.81978762734252
 11
258.46583814248947
 21
115.81978762734252
  0
LINE
  8
_0-0_0
  6
CONTINUOUS
 62
    7
 10
254.46583814248945
 20
115.81978762734252
 11
255.96583814248945
 21
115.81978762734252
  0
LINE
  8
_0-0_0
  6
CONTINUOUS
 62
    7
 10
255.96583814248945
 20
114.31978762734252
 11
256.96583814248947
 21
114.31978762734252
  0
LINE
  8
_0-0_0
  6
CONTINUOUS
 62
    7
 10
226.66583814248932
 20
113.4697876273425
 11
239.66583814248932
 21
113.4697876273425
  0
LINE
  8
_0-0_0
  6
CONTINUOUS
 62
    7
 10
226.16583814248932
 20
112.96978762734261
 11
240.16583814248932
 21
112.96978762734261
  0
LINE
  8
_0-0_0
  6
CONTINUOUS
 62
    7
 10
251.66583814248932
 20
112.31978762734252
 11
261.26583814248932
 21
112.31978762734252
  0
LINE
  8
_0-0_0
  6
CONTINUOUS
 62
    7
 10
225.16583814248932
 20
111.31978762734252
 11
241.16583814248932
 21
111.31978762734252
  0
LINE
  8
_0-0_0
  6
CONTINUOUS
 62
    7
 10
251.66583814248932
 20
107.91978762734254
 11
261.26583814248932
 21
107.91978762734254
  0
LINE
  8
_0-0_0
  6
CONTINUOUS
 62
    7
 10
251.66583814248932
 20
102.31978762734252
 11
261.26583814248932
 21
102.31978762734252
  0
LINE
  8
_0-0_0
  6
CONTINUOUS
 62
    7
 10
250.46583814248945
 20
98.819787627342521
 11
262.46583814248947
 21
98.819787627342521
  0
LINE
  8
_0-0_0
  6
CONTINUOUS
 62
    7
 10
315.0658381424895
 20
95.819787627342521
 11
318.0658381424895
 21
95.819787627342521
  0
LINE
  8
_0-0_0
  6
CONTINUOUS
 62
    7
 10
209.26583814248934
 20
95.819787627342521
 11
212.26583814248934
 21
95.819787627342521
  0
LINE
  8
_0-0_0
  6
CONTINUOUS
 62
    7
 10
316.5658381424895
 20
94.919787627342544
 11
318.0658381424895
 21
94.919787627342544
  0
LINE
  8
_0-0_0
  6
CONTINUOUS
 62
    7
 10
209.26583814248934
 20
94.919787627342544
 11
210.76583814248934
 21
94.919787627342544
  0
LINE
  8
_0-0_0
  6
CONTINUOUS
 62
    7
 10
265.66583814248929
 20
147.81978762734252
 11
265.66583814248929
 21
150.81978762734252
  0
LINE
  8
_0-0_0
  6
CONTINUOUS
 62
    7
 10
265.66583814248929
 20
36.819787627342521
 11
265.66583814248929
 21
39.819787627342521
  0
LINE
  8
_0-0_0
  6
CONTINUOUS
 62
    7
 10
264.76583814248932
 20
149.41978762734254
 11
264.76583814248932
 21
150.81978762734252
  0
LINE
  8
_0-0_0
  6
CONTINUOUS
 62
    7
 10
264.76583814248932
 20
36.819787627342521
 11
264.76583814248932
 21
38.219787627342527
  0
LINE
  8
_0-0_0
  6
CONTINUOUS
 62
    7
 10
316.5658381424895
 20
92.719787627342498
 11
318.0658381424895
 21
92.719787627342498
  0
LINE
  8
_0-0_0
  6
CONTINUOUS
 62
    7
 10
209.26583814248934
 20
92.719787627342498
 11
210.76583814248934
 21
92.719787627342498
  0
LINE
  8
_0-0_0
  6
CONTINUOUS
 62
    7
 10
315.0658381424895
 20
91.819787627342521
 11
318.0658381424895
 21
91.819787627342521
  0
LINE
  8
_0-0_0
  6
CONTINUOUS
 62
    7
 10
209.26583814248934
 20
91.819787627342521
 11
212.26583814248934
 21
91.819787627342521
  0
LINE
  8
_0-0_0
  6
CONTINUOUS
 62
    7
 10
263.46583814248947
 20
99.819787627342521
 11
263.46583814248947
 21
121.81978762734252
  0
LINE
  8
_0-0_0
  6
CONTINUOUS
 62
    7
 10
262.5658381424895
 20
149.41978762734254
 11
262.5658381424895
 21
150.81978762734252
  0
LINE
  8
_0-0_0
  6
CONTINUOUS
 62
    7
 10
262.5658381424895
 20
36.819787627342521
 11
262.5658381424895
 21
38.219787627342527
  0
LINE
  8
_0-0_0
  6
CONTINUOUS
 62
    7
 10
261.66583814248929
 20
147.81978762734252
 11
261.66583814248929
 21
150.81978762734252
  0
LINE
  8
_0-0_0
  6
CONTINUOUS
 62
    7
 10
261.66583814248929
 20
36.819787627342521
 11
261.66583814248929
 21
39.819787627342521
  0
LINE
  8
_0-0_0
  6
CONTINUOUS
 62
    7
 10
261.26583814248932
 20
119.81978762734252
 11
261.26583814248932
 21
102.31979804914249
  0
LINE
  8
_0-0_0
  6
CONTINUOUS
 62
    7
 10
258.46583814248947
 20
115.81978762734252
 11
258.46583814248947
 21
116.81978762734252
  0
LINE
  8
_0-0_0
  6
CONTINUOUS
 62
    7
 10
256.96583814248947
 20
116.81978762734252
 11
256.96583814248947
 21
118.31978762734252
  0
LINE
  8
_0-0_0
  6
CONTINUOUS
 62
    7
 10
256.96583814248947
 20
114.31978762734252
 11
256.96583814248947
 21
115.81978762734252
  0
LINE
  8
_0-0_0
  6
CONTINUOUS
 62
    7
 10
255.96583814248945
 20
115.81978762734252
 11
255.96583814248945
 21
114.31978762734252
  0
LINE
  8
_0-0_0
  6
CONTINUOUS
 62
    7
 10
255.96583814248945
 20
118.31978762734252
 11
255.96583814248945
 21
116.81978762734252
  0
LINE
  8
_0-0_0
  6
CONTINUOUS
 62
    7
 10
254.46583814248945
 20
116.81978762734252
 11
254.46583814248945
 21
115.81978762734252
  0
LINE
  8
_0-0_0
  6
CONTINUOUS
 62
    7
 10
251.66583814248932
 20
119.81978762734252
 11
251.66583814248932
 21
102.31979804914249
  0
LINE
  8
_0-0_0
  6
CONTINUOUS
 62
    7
 10
249.46583814248945
 20
121.81978762734252
 11
249.46583814248945
 21
99.819787627342521
  0
LINE
  8
_0-0_0
  6
CONTINUOUS
 62
    7
 10
241.16583814248932
 20
111.31978762734252
 11
241.16583814248932
 21
120.31978762734252
  0
LINE
  8
_0-0_0
  6
CONTINUOUS
 62
    7
 10
240.16583814248932
 20
112.96978762734261
 11
240.16583814248932
 21
118.66978762734254
  0
LINE
  8
_0-0_0
  6
CONTINUOUS
 62
    7
 10
239.66583814248932
 20
113.4697876273425
 11
239.66583814248932
 21
118.16978762734254
  0
LINE
  8
_0-0_0
  6
CONTINUOUS
 62
    7
 10
216.91583814248932
 20
59.569787627342521
 11
217.96583814248933
 21
59.569787627342521
  0
LINE
  8
_0-0_0
  6
CONTINUOUS
 62
    7
 10
226.66583814248932
 20
118.16978762734254
 11
226.66583814248932
 21
113.4697876273425
  0
LINE
  8
_0-0_0
  6
CONTINUOUS
 62
    7
 10
226.16583814248932
 20
118.66978762734254
 11
226.16583814248932
 21
112.96978762734261
  0
LINE
  8
_0-0_0
  6
CONTINUOUS
 62
    7
 10
225.16583814248932
 20
120.31978762734252
 11
225.16583814248932
 21
111.31978762734252
  0
LINE
  8
_0-0_0
  6
CONTINUOUS
 62
    7
 10
223.66583814248932
 20
147.81978762734252
 11
223.66583814248932
 21
150.81978762734252
  0
LINE
  8
_0-0_0
  6
CONTINUOUS
 62
    7
 10
223.66583814248932
 20
36.819787627342521
 11
223.66583814248932
 21
39.819787627342521
  0
LINE
  8
_0-0_0
  6
CONTINUOUS
 62
    7
 10
222.76583814248934
 20
38.219787627342527
 11
222.76583814248934
 21
36.819787627342521
  0
LINE
  8
_0-0_0
  6
CONTINUOUS
 62
    7
 10
222.76583814248934
 20
150.81978762734252
 11
222.76583814248934
 21
149.41978762734254
  0
LINE
  8
_0-0_0
  6
CONTINUOUS
 62
    7
 10
220.56583814248953
 20
149.41978762734254
 11
220.56583814248953
 21
150.81978762734252
  0
LINE
  8
_0-0_0
  6
CONTINUOUS
 62
    7
 10
220.56583814248953
 20
36.819787627342521
 11
220.56583814248953
 21
38.219787627342527
  0
LINE
  8
_0-0_0
  6
CONTINUOUS
 62
    7
 10
219.66583814248932
 20
147.81978762734252
 11
219.66583814248932
 21
150.81978762734252
  0
LINE
  8
_0-0_0
  6
CONTINUOUS
 62
    7
 10
219.66583814248932
 20
36.819787627342521
 11
219.66583814248932
 21
39.819787627342521
  0
LINE
  8
_0-0_0
  6
CONTINUOUS
 62
    7
 10
215.91583814248932
 20
127.06978762734252
 11
215.91583814248932
 21
60.569787627342521
  0
LINE
  8
_0-0_0
  6
CONTINUOUS
 62
    7
 10
223.66583814248932
 20
39.819787627342521
 11
219.66583814248932
 21
39.819787627342521
  0
LINE
  8
_0-0_0
  6
CONTINUOUS
 62
    7
 10
265.66583814248929
 20
39.819787627342521
 11
261.66583814248929
 21
39.819787627342521
  0
LINE
  8
_0-0_0
  6
CONTINUOUS
 62
    7
 10
307.66583814248929
 20
39.819787627342521
 11
303.66583814248929
 21
39.819787627342521
  0
LINE
  8
_0-0_0
  6
CONTINUOUS
 62
    7
 10
212.26583814248934
 20
95.819787627342521
 11
212.26583814248934
 21
91.819787627342521
  0
LINE
  8
_0-0_0
  6
CONTINUOUS
 62
    7
 10
211.06583814248953
 20
95.819787627342521
 11
211.06583814248953
 21
91.819787627342521
  0
LINE
  8
_0-0_0
  6
CONTINUOUS
 62
    7
 10
210.76583814248934
 20
91.319787627342521
 11
210.76583814248934
 21
96.319787627342521
  0
LINE
  8
_0-0_0
  6
CONTINUOUS
 62
    7
 10
210.05939393148961
 20
91.819787627342521
 11
210.05939393148961
 21
92.719787627342498
  0
LINE
  8
_0-0_0
  6
CONTINUOUS
 62
    7
 10
210.05939393148961
 20
95.819787627342521
 11
210.05939393148961
 21
94.919787627342544
  0
LINE
  8
_0-0_0
  6
CONTINUOUS
 62
    7
 10
209.66583814248932
 20
94.919787627342544
 11
209.66583814248932
 21
95.819787627342521
  0
LINE
  8
_0-0_0
  6
CONTINUOUS
 62
    7
 10
209.66583814248932
 20
91.819787627342521
 11
209.66583814248932
 21
92.719787627342498
  0
LINE
  8
_0-0_0
  6
CONTINUOUS
 62
    7
 10
223.66583814248932
 20
38.519787627342509
 11
219.66583814248932
 21
38.519787627342509
  0
LINE
  8
_0-0_0
  6
CONTINUOUS
 62
    7
 10
265.66583814248929
 20
38.519787627342509
 11
261.66583814248929
 21
38.519787627342509
  0
LINE
  8
_0-0_0
  6
CONTINUOUS
 62
    7
 10
307.66583814248929
 20
38.519787627342509
 11
303.66583814248929
 21
38.519787627342509
  0
LINE
  8
_0-0_0
  6
CONTINUOUS
 62
    7
 10
219.66583814248932
 20
38.219787627342527
 11
223.66583814248932
 21
38.219787627342527
  0
LINE
  8
_0-0_0
  6
CONTINUOUS
 62
    7
 10
265.66583814248929
 20
38.219787627342527
 11
261.66583814248929
 21
38.219787627342527
  0
LINE
  8
_0-0_0
  6
CONTINUOUS
 62
    7
 10
307.66583814248929
 20
38.219787627342527
 11
303.66583814248929
 21
38.219787627342527
  0
LINE
  8
_0-0_0
  6
CONTINUOUS
 62
    7
 10
222.76583814248934
 20
37.780725127342521
 11
220.56583814248953
 21
37.780725127342521
  0
LINE
  8
_0-0_0
  6
CONTINUOUS
 62
    7
 10
264.76583814248932
 20
37.780725127342521
 11
262.5658381424895
 21
37.780725127342521
  0
LINE
  8
_0-0_0
  6
CONTINUOUS
 62
    7
 10
306.7658381424892
 20
37.780725127342521
 11
304.5658381424895
 21
37.780725127342521
  0
LINE
  8
_0-0_0
  6
CONTINUOUS
 62
    7
 10
222.76583814248934
 20
37.513343416142533
 11
223.66583814248932
 21
37.513343416142533
  0
LINE
  8
_0-0_0
  6
CONTINUOUS
 62
    7
 10
219.66583814248932
 20
37.513343416142533
 11
220.56583814248953
 21
37.513343416142533
  0
LINE
  8
_0-0_0
  6
CONTINUOUS
 62
    7
 10
262.5658381424895
 20
37.513343416142533
 11
261.66583814248929
 21
37.513343416142533
  0
LINE
  8
_0-0_0
  6
CONTINUOUS
 62
    7
 10
265.66583814248929
 20
37.513343416142533
 11
264.76583814248932
 21
37.513343416142533
  0
LINE
  8
_0-0_0
  6
CONTINUOUS
 62
    7
 10
304.5658381424895
 20
37.513343416142533
 11
303.66583814248929
 21
37.513343416142533
  0
LINE
  8
_0-0_0
  6
CONTINUOUS
 62
    7
 10
307.66583814248929
 20
37.513343416142533
 11
306.7658381424892
 21
37.513343416142533
  0
LINE
  8
_0-0_0
  6
CONTINUOUS
 62
    7
 10
132.49923778474212
 20
153.81978762734252
 11
130.49923778474212
 21
153.81978762734252
  0
LINE
  8
_0-0_0
  6
CONTINUOUS
 62
    7
 10
129.99923778474212
 20
153.81978762734252
 11
122.82247792834212
 21
153.56916965074259
  0
LINE
  8
_0-0_0
  6
CONTINUOUS
 62
    7
 10
130.49923778474212
 20
152.81978762734252
 11
129.99923778474212
 21
152.7197876273425
  0
LINE
  8
_0-0_0
  6
CONTINUOUS
 62
    7
 10
138.29923778474213
 20
119.31978762734252
 11
138.86423725474211
 21
118.96666295854254
  0
LINE
  8
_0-0_0
  6
CONTINUOUS
 62
    7
 10
133.59923778474212
 20
122.81978762734252
 11
132.59923778474212
 21
122.81978762734252
  0
LINE
  8
_0-0_0
  6
CONTINUOUS
 62
    7
 10
134.09923778474212
 20
121.31978762734252
 11
137.09923778474212
 21
121.31978762734252
  0
LINE
  8
_0-0_0
  6
CONTINUOUS
 62
    7
 10
134.09923778474212
 20
119.81978762734252
 11
137.09923778474212
 21
119.81978762734252
  0
LINE
  8
_0-0_0
  6
CONTINUOUS
 62
    7
 10
137.09923778474212
 20
119.31978762734252
 11
138.29923778474213
 21
119.31978762734252
  0
LINE
  8
_0-0_0
  6
CONTINUOUS
 62
    7
 10
132.49923778474212
 20
118.66978762734254
 11
135.29923778474213
 21
118.66978762734254
  0
LINE
  8
_0-0_0
  6
CONTINUOUS
 62
    7
 10
137.09923778474212
 20
112.31978762734252
 11
140.39923778474201
 21
107.91978762734254
  0
LINE
  8
_0-0_0
  6
CONTINUOUS
 62
    7
 10
136.09923778474212
 20
111.98645429394253
 11
139.59923778474212
 21
107.31978762734252
  0
LINE
  8
_0-0_0
  6
CONTINUOUS
 62
    7
 10
137.09923778474212
 20
113.31978762734252
 11
138.29923778474213
 21
113.31978762734252
  0
LINE
  8
_0-0_0
  6
CONTINUOUS
 62
    7
 10
132.49923778474212
 20
112.96978762734261
 11
135.29923778474213
 21
112.96978762734261
  0
LINE
  8
_0-0_0
  6
CONTINUOUS
 62
    7
 10
135.09923778474212
 20
111.98645429394253
 11
136.09923778474212
 21
111.98645429394253
  0
LINE
  8
_0-0_0
  6
CONTINUOUS
 62
    7
 10
139.09923778474212
 20
114.09691144814263
 11
139.09923778474212
 21
118.54266380654252
  0
LINE
  8
_0-0_0
  6
CONTINUOUS
 62
    7
 10
138.29923778474213
 20
113.31978762734252
 11
138.29923778474213
 21
119.31978762734252
  0
LINE
  8
_0-0_0
  6
CONTINUOUS
 62
    7
 10
137.09923778474212
 20
112.31978762734252
 11
137.09923778474212
 21
121.31978762734252
  0
LINE
  8
_0-0_0
  6
CONTINUOUS
 62
    7
 10
133.59923778474212
 20
98.819787627342521
 11
132.59923778474212
 21
98.819787627342521
  0
LINE
  8
_0-0_0
  6
CONTINUOUS
 62
    7
 10
135.09923778474212
 20
105.81978762734252
 11
135.09923778474212
 21
111.98645429394253
  0
LINE
  8
_0-0_0
  6
CONTINUOUS
 62
    7
 10
134.09923778474212
 20
122.31978762734252
 11
134.09923778474212
 21
118.66978762734254
  0
LINE
  8
_0-0_0
  6
CONTINUOUS
 62
    7
 10
135.29923778474213
 20
118.66978762734254
 11
135.29923778474213
 21
112.96978762734261
  0
LINE
  8
_0-0_0
  6
CONTINUOUS
 62
    7
 10
132.49923778474212
 20
33.819787627342521
 11
132.49923778474212
 21
153.81978762734252
  0
LINE
  8
_0-0_0
  6
CONTINUOUS
 62
    7
 10
130.49923778474212
 20
33.819787627342521
 11
130.49923778474212
 21
153.81978762734252
  0
LINE
  8
_0-0_0
  6
CONTINUOUS
 62
    7
 10
129.99923778474212
 20
153.81978762734252
 11
129.99923778474212
 21
33.819787627342521
  0
LINE
  8
_0-0_0
  6
CONTINUOUS
 62
    7
 10
138.29923778474213
 20
113.31978762734252
 11
138.86423725474211
 21
113.6729122961425
  0
LINE
  8
_0-0_0
  6
CONTINUOUS
 62
    7
 10
116.79923778474213
 20
140.81978762734252
 11
116.79923778474213
 21
46.819787627342521
  0
LINE
  8
_0-0_0
  6
CONTINUOUS
 62
    7
 10
130.49923778474212
 20
34.819787627342521
 11
129.99923778474212
 21
34.919787627342515
  0
LINE
  8
_0-0_0
  6
CONTINUOUS
 62
    7
 10
122.82247792834212
 20
34.070405603942532
 11
129.99923778474212
 21
33.819787627342521
  0
LINE
  8
_0-0_0
  6
CONTINUOUS
 62
    7
 10
132.49923778474212
 20
33.819787627342521
 11
130.49923778474212
 21
33.819787627342521
  0
LINE
  8
_0-0_0
  6
CONTINUOUS
 62
    7
 10
100.82554845017501
 20
194.65730842507463
 11
100.72554845017513
 21
194.15730842507463
  0
LINE
  8
_0-0_0
  6
CONTINUOUS
 62
    7
 10
101.82554845017501
 20
194.15730842507463
 11
101.56021812817511
 21
186.55924212107453
  0
LINE
  8
_0-0_0
  6
CONTINUOUS
 62
    7
 10
101.82554845017501
 20
196.6573084250744
 11
101.82554845017501
 21
194.65730842507463
  0
LINE
  8
_0-0_0
  6
CONTINUOUS
 62
    7
 10
81.325548450175006
 20
196.6573084250744
 11
81.325548450175006
 21
199.45730842507453
  0
LINE
  8
_0-0_0
  6
CONTINUOUS
 62
    7
 10
67.325548450175006
 20
196.6573084250744
 11
67.325548450175006
 21
199.45730842507453
  0
LINE
  8
_0-0_0
  6
CONTINUOUS
 62
    7
 10
54.025548450175108
 20
202.4573084250743
 11
53.67242378137513
 21
203.0223078950745
  0
LINE
  8
_0-0_0
  6
CONTINUOUS
 62
    7
 10
55.825548450175006
 20
205.25730842507454
 11
46.225548450175125
 21
205.25730842507454
  0
LINE
  8
_0-0_0
  6
CONTINUOUS
 62
    6
 10
58.025548450175108
 20
198.25730842507454
 11
58.025548450175108
 21
197.75730842507454
  0
LINE
  8
_0-0_0
  6
CONTINUOUS
 62
    7
 10
48.802672270975123
 20
203.25730842507454
 11
53.248424629375108
 21
203.25730842507454
  0
LINE
  8
_0-0_0
  6
CONTINUOUS
 62
    7
 10
48.378673118975115
 20
203.0223078950745
 11
53.67242378137513
 21
203.0223078950745
  0
LINE
  8
_0-0_0
  6
CONTINUOUS
 62
    7
 10
48.025548450175123
 20
202.4573084250743
 11
54.025548450175108
 21
202.4573084250743
  0
LINE
  8
_0-0_0
  6
CONTINUOUS
 62
    7
 10
55.825548450175006
 20
201.25730842507454
 11
46.225548450175125
 21
201.25730842507454
  0
LINE
  8
_0-0_0
  6
CONTINUOUS
 62
    7
 10
55.825548450175006
 20
198.25730842507454
 11
55.825548450175006
 21
205.25729284027454
  0
LINE
  8
_0-0_0
  6
CONTINUOUS
 62
    7
 10
54.025548450175108
 20
201.25730842507454
 11
54.025548450175108
 21
202.4573084250743
  0
LINE
  8
_0-0_0
  6
CONTINUOUS
 62
    6
 10
44.025548450175123
 20
198.25730842507454
 11
44.525548450175123
 21
198.25730842507454
  0
LINE
  8
_0-0_0
  6
CONTINUOUS
 62
    7
 10
67.325548450175006
 20
199.45730842507453
 11
81.325548450175006
 21
199.45730842507453
  0
LINE
  8
_0-0_0
  6
CONTINUOUS
 62
    7
 10
-14.174451549824937
 20
196.6573084250744
 11
101.82554845017501
 21
196.6573084250744
  0
LINE
  8
_0-0_0
  6
CONTINUOUS
 62
    7
 10
48.025548450175123
 20
201.25730842507454
 11
48.025548450175123
 21
202.4573084250743
  0
LINE
  8
_0-0_0
  6
CONTINUOUS
 62
    7
 10
46.225548450175125
 20
198.25730842507454
 11
46.225548450175125
 21
205.25729284027454
  0
LINE
  8
_0-0_0
  6
CONTINUOUS
 62
    7
 10
-14.174451549824937
 20
194.65730842507463
 11
101.82554845017501
 21
194.65730842507463
  0
LINE
  8
_0-0_0
  6
CONTINUOUS
 62
    7
 10
-14.174451549824937
 20
194.15730842507463
 11
101.82554845017501
 21
194.15730842507463
  0
LINE
  8
_0-0_0
  6
CONTINUOUS
 62
    7
 10
48.025548450175123
 20
202.4573084250743
 11
48.378673118975115
 21
203.0223078950745
  0
LINE
  8
_0-0_0
  6
CONTINUOUS
 62
    6
 10
44.025548450175123
 20
198.25730842507454
 11
44.025548450175123
 21
197.75730842507454
  0
LINE
  8
_0-0_0
  6
CONTINUOUS
 62
    7
 10
-5.5156915928249077
 20
180.95730842507453
 11
93.166788493175119
 21
180.95730842507453
  0
LINE
  8
_0-0_0
  6
CONTINUOUS
 62
    7
 10
-13.074451549824914
 20
194.15730842507463
 11
-13.174451549824937
 21
194.65730842507463
  0
LINE
  8
_0-0_0
  6
CONTINUOUS
 62
    7
 10
-14.174451549824937
 20
194.65730842507463
 11
-14.174451549824937
 21
196.6573084250744
  0
LINE
  8
_0-0_0
  6
CONTINUOUS
 62
    7
 10
-13.909121227824926
 20
186.55924211967454
 11
-14.174451549824937
 21
194.15730842507463
  0
LINE
  8
_0-1_1
  6
CONTINUOUS
 62
    7
 10
69.075548450175006
 20
99.945511787042619
 11
87.575548450175006
 21
99.945511787042619
  0
LINE
  8
_0-1_1
  6
CONTINUOUS
 62
    7
 10
3.3255484501750061
 20
69.569787627342521
 11
3.3255484501750061
 21
58.069787627342407
  0
LINE
  8
_0-1_1
  6
CONTINUOUS
 62
    7
 10
5.3745259247319837
 20
87.007948588206943
 11
13.487807266521997
 21
87.007948588206943
  0
LINE
  8
_0-1_1
  6
CONTINUOUS
 62
    7
 10
13.487807266521997
 20
87.007948588206943
 11
13.487807266521997
 21
85.008466930514828
  0
LINE
  8
_0-1_1
  6
CONTINUOUS
 62
    7
 10
5.3745259247319837
 20
85.008466930514828
 11
5.3745259247319837
 21
87.007948588206943
  0
LINE
  8
_0-1_1
  6
CONTINUOUS
 62
    7
 10
13.487807266521997
 20
85.008466930514828
 11
12.002032261725958
 21
85.008466930514828
  0
LINE
  8
_0-1_1
  6
CONTINUOUS
 62
    7
 10
12.464554982071917
 20
79.759138145826796
 11
7.3805253920319274
 21
79.759138145826796
  0
LINE
  8
_0-1_1
  6
CONTINUOUS
 62
    7
 10
6.9180026716859402
 20
85.008466930514828
 11
5.3745259247319837
 21
85.008466930514828
  0
LINE
  8
_0-1_1
  6
CONTINUOUS
 62
    7
 10
32.162517326877918
 20
84.092860549666909
 11
34.659185104446024
 21
84.092860549666909
  0
LINE
  8
_0-1_1
  6
CONTINUOUS
 62
    7
 10
31.885894844131926
 20
79.321222871017937
 11
31.885894844131926
 21
82.1692579265478
  0
LINE
  8
_0-1_1
  6
CONTINUOUS
 62
    7
 10
35.931404778466117
 20
80.534142009356117
 11
34.935807587192016
 21
82.169257926548596
  0
LINE
  8
_0-1_1
  6
CONTINUOUS
 62
    7
 10
36.494901848685117
 20
80.409325331108903
 11
36.700783908053026
 21
80.546549902139304
  0
LINE
  8
_0-1_1
  6
CONTINUOUS
 62
    7
 10
36.817811115827126
 20
81.091912414390322
 11
35.082777050535114
 21
83.858510438070198
  0
LINE
  8
_0-1_1
  6
CONTINUOUS
 62
    7
 10
31.738925380789027
 20
83.858510438070198
 11
30.003891315498024
 21
81.091912414390322
  0
LINE
  8
_0-1_1
  6
CONTINUOUS
 62
    7
 10
30.120918523272024
 20
80.546549902139304
 11
30.326800582639123
 21
80.409325331108903
  0
LINE
  8
_0-1_1
  6
CONTINUOUS
 62
    7
 10
31.885894844131926
 20
82.1692579265478
 11
30.890297652859019
 21
80.534142009356117
  0
LINE
  8
_0-1_1
  6
CONTINUOUS
 62
    7
 10
34.935807587192016
 20
82.169257926548596
 11
34.935807587192016
 21
79.321222871017937
  0
LINE
  8
_0-1_1
  6
CONTINUOUS
 62
    7
 10
68.325548450174921
 20
99.195511787042506
 11
68.325548450174921
 21
83.819787627342521
  0
LINE
  8
_0-1_1
  6
CONTINUOUS
 62
    7
 10
88.325548450175006
 20
99.195511787042506
 11
88.325548450175006
 21
83.819787627342521
  0
LINE
  8
_0-1_1
  6
CONTINUOUS
 62
    7
 10
46.07554845017502
 20
99.945511787042619
 11
64.575548450175006
 21
99.945511787042619
  0
LINE
  8
_0-1_1
  6
CONTINUOUS
 62
    7
 10
45.32554845017502
 20
99.195511787042506
 11
45.32554845017502
 21
83.819787627342521
  0
LINE
  8
_0-1_1
  6
CONTINUOUS
 62
    7
 10
65.325548450175006
 20
99.195511787042506
 11
65.325548450175006
 21
83.819787627342521
  0
LINE
  8
_0-1_1
  6
CONTINUOUS
 62
    7
 10
22.32554845017502
 20
99.195511787042506
 11
22.32554845017502
 21
83.819787627342521
  0
LINE
  8
_0-1_1
  6
CONTINUOUS
 62
    7
 10
42.32554845017502
 20
99.195511787042506
 11
42.32554845017502
 21
83.819787627342521
  0
LINE
  8
_0-1_1
  6
CONTINUOUS
 62
    7
 10
23.075548450175035
 20
99.945511787042619
 11
41.57554845017502
 21
99.945511787042619
  0
LINE
  8
_0-1_1
  6
CONTINUOUS
 62
    7
 10
22.32554845017502
 20
99.195511787042506
 11
22.32554845017502
 21
83.819787627342521
  0
LINE
  8
_0-1_1
  6
CONTINUOUS
 62
    7
 10
-0.6744515498249938
 20
99.195511787042506
 11
-0.6744515498249938
 21
83.819787627342521
  0
LINE
  8
_0-1_1
  6
CONTINUOUS
 62
    7
 10
-0.6744515498249938
 20
99.195511787042506
 11
-0.6744515498249938
 21
83.819787627342521
  0
LINE
  8
_0-1_1
  6
CONTINUOUS
 62
    7
 10
0.0755484501750061
 20
99.945511787042619
 11
18.575548450175006
 21
99.945511787042619
  0
LINE
  8
_0-1_1
  6
CONTINUOUS
 62
    7
 10
19.325548450175035
 20
99.195511787042506
 11
19.325548450175035
 21
83.819787627342521
  0
LINE
  8
_0-3_8_ALL_NOTES_BALLOONS_SS_GT
  6
CONTINUOUS
 62
    2
 10
4.6427554503881083
 20
134.27573987824252
 11
4.8115644503881185
 21
132.94868887824259
  0
LINE
  8
_0-3_8_ALL_NOTES_BALLOONS_SS_GT
  6
CONTINUOUS
 62
    2
 10
4.8687534503879988
 20
132.4980708782428
 11
4.944545450388091
 21
131.90344787824262
  0
LINE
  8
_0-3_8_ALL_NOTES_BALLOONS_SS_GT
  6
CONTINUOUS
 62
    2
 10
5.5915344503879396
 20
131.90344787824262
 11
5.1860464503880621
 21
134.9688928782428
  0
LINE
  8
_0-3_8_ALL_NOTES_BALLOONS_SS_GT
  6
CONTINUOUS
 62
    2
 10
7.0794714503880414
 20
132.7791908782425
 11
7.4401724503880757
 21
131.90344787824262
  0
LINE
  8
_0-3_8_ALL_NOTES_BALLOONS_SS_GT
  6
CONTINUOUS
 62
    2
 10
6.1778894503880792
 20
134.9688928782428
 11
6.772513450387919
 21
133.52470887824273
  0
LINE
  8
_0-3_8_ALL_NOTES_BALLOONS_SS_GT
  6
CONTINUOUS
 62
    2
 10
7.1811014503879278
 20
134.20683787824271
 11
6.8631194503881261
 21
134.9688928782428
  0
LINE
  8
_0-3_8_ALL_NOTES_BALLOONS_SS_GT
  6
CONTINUOUS
 62
    2
 10
8.1436614503880946
 20
131.90344787824262
 11
7.4911604503880653
 21
133.46407587824262
  0
LINE
  8
_0-3_8_ALL_NOTES_BALLOONS_SS_GT
  6
CONTINUOUS
 62
    2
 10
39.07510645038802
 20
133.03550487824265
 11
39.45303345038802
 21
134.24921287824264
  0
LINE
  8
_0-3_8_ALL_NOTES_BALLOONS_SS_GT
  6
CONTINUOUS
 62
    2
 10
2.7879154503881409
 20
131.90344787824262
 11
2.9863534503880373
 21
134.9688928782428
  0
LINE
  8
_0-3_8_ALL_NOTES_BALLOONS_SS_GT
  6
CONTINUOUS
 62
    2
 10
2.2625384503879786
 20
133.81892087824252
 11
2.1385154503881267
 21
131.90344787824262
  0
LINE
  8
_0-3_8_ALL_NOTES_BALLOONS_SS_GT
  6
CONTINUOUS
 62
    2
 10
8.8829784503881228
 20
131.0463078782426
 11
8.8829784503881228
 21
135.82534387824251
  0
LINE
  8
_0-3_8_ALL_NOTES_BALLOONS_SS_GT
  6
CONTINUOUS
 62
    2
 10
-0.6747495496118745
 20
135.82534387824251
 11
-0.6747495496118745
 21
131.0463078782426
  0
LINE
  8
_0-3_8_ALL_NOTES_BALLOONS_SS_GT
  6
CONTINUOUS
 62
    2
 10
1.4326154503879707
 20
132.8088188782425
 11
1.2369334503879372
 21
134.9688928782428
  0
LINE
  8
_0-3_8_ALL_NOTES_BALLOONS_SS_GT
  6
CONTINUOUS
 62
    2
 10
0.8800214503879715
 20
133.81547587824264
 11
1.0602004503879243
 21
131.90344787824262
  0
LINE
  8
_0-3_8_ALL_NOTES_BALLOONS_SS_GT
  6
CONTINUOUS
 62
    2
 10
0.5427474503879921
 20
131.90344787824262
 11
0.8800214503879715
 21
133.81547587824264
  0
LINE
  8
_0-3_8_ALL_NOTES_BALLOONS_SS_GT
  6
CONTINUOUS
 62
    2
 10
0.4070104503879292
 20
134.9688928782428
 11
-0.1335255496120453
 21
131.90344787824262
  0
LINE
  8
_0-3_8_ALL_NOTES_BALLOONS_SS_GT
  6
CONTINUOUS
 62
    2
 10
1.5976354503881112
 20
131.90344787824262
 11
2.2625384503879786
 21
133.81892087824252
  0
LINE
  8
_0-3_8_ALL_NOTES_BALLOONS_SS_GT
  6
CONTINUOUS
 62
    2
 10
2.175033450388014
 20
134.9688928782428
 11
1.4326154503879707
 21
132.8088188782425
  0
LINE
  8
_0-3_8_ALL_NOTES_BALLOONS_SS_GT
  6
CONTINUOUS
 62
    2
 10
4.2035054503879792
 20
134.9688928782428
 11
3.1572304503880559
 21
131.90344787824262
  0
LINE
  8
_0-3_8_ALL_NOTES_BALLOONS_SS_GT
  6
CONTINUOUS
 62
    2
 10
4.1907584503879889
 20
132.94868887824259
 11
4.6427554503881083
 21
134.27573987824252
  0
LINE
  8
_0-3_8_ALL_NOTES_BALLOONS_SS_GT
  6
CONTINUOUS
 62
    2
 10
3.8338464503879948
 20
131.90344787824262
 11
4.0364184503879414
 21
132.4980708782428
  0
LINE
  8
_0-3_8_ALL_NOTES_BALLOONS_SS_GT
  6
CONTINUOUS
 62
    2
 10
8.8829784503881228
 20
135.82534387824251
 11
-0.6747495496118745
 21
135.82534387824251
  0
LINE
  8
_0-3_8_ALL_NOTES_BALLOONS_SS_GT
  6
CONTINUOUS
 62
    2
 10
1.2369334503879372
 20
134.9688928782428
 11
0.4070104503879292
 21
134.9688928782428
  0
LINE
  8
_0-3_8_ALL_NOTES_BALLOONS_SS_GT
  6
CONTINUOUS
 62
    2
 10
2.9863534503880373
 20
134.9688928782428
 11
2.175033450388014
 21
134.9688928782428
  0
LINE
  8
_0-3_8_ALL_NOTES_BALLOONS_SS_GT
  6
CONTINUOUS
 62
    2
 10
5.1860464503880621
 20
134.9688928782428
 11
4.2035054503879792
 21
134.9688928782428
  0
LINE
  8
_0-3_8_ALL_NOTES_BALLOONS_SS_GT
  6
CONTINUOUS
 62
    2
 10
6.8631194503881261
 20
134.9688928782428
 11
6.1778894503880792
 21
134.9688928782428
  0
LINE
  8
_0-3_8_ALL_NOTES_BALLOONS_SS_GT
  6
CONTINUOUS
 62
    2
 10
8.395842450387903
 20
134.9688928782428
 11
7.6386104503880006
 21
134.9688928782428
  0
LINE
  8
_0-3_8_ALL_NOTES_BALLOONS_SS_GT
  6
CONTINUOUS
 62
    2
 10
38.113580450387914
 20
133.03550487824265
 11
39.07510645038802
 21
133.03550487824265
  0
LINE
  8
_0-3_8_ALL_NOTES_BALLOONS_SS_GT
  6
CONTINUOUS
 62
    2
 10
4.8115644503881185
 20
132.94868887824259
 11
4.1907584503879889
 21
132.94868887824259
  0
LINE
  8
_0-3_8_ALL_NOTES_BALLOONS_SS_GT
  6
CONTINUOUS
 62
    2
 10
4.0364184503879414
 20
132.4980708782428
 11
4.8687534503879988
 21
132.4980708782428
  0
LINE
  8
_0-3_8_ALL_NOTES_BALLOONS_SS_GT
  6
CONTINUOUS
 62
    2
 10
7.4401724503880757
 20
131.90344787824262
 11
8.1436614503880946
 21
131.90344787824262
  0
LINE
  8
_0-3_8_ALL_NOTES_BALLOONS_SS_GT
  6
CONTINUOUS
 62
    2
 10
5.7992734503881138
 20
131.90344787824262
 11
6.5523714503879944
 21
131.90344787824262
  0
LINE
  8
_0-3_8_ALL_NOTES_BALLOONS_SS_GT
  6
CONTINUOUS
 62
    2
 10
4.944545450388091
 20
131.90344787824262
 11
5.5915344503879396
 21
131.90344787824262
  0
LINE
  8
_0-3_8_ALL_NOTES_BALLOONS_SS_GT
  6
CONTINUOUS
 62
    2
 10
3.1572304503880559
 20
131.90344787824262
 11
3.8338464503879948
 21
131.90344787824262
  0
LINE
  8
_0-3_8_ALL_NOTES_BALLOONS_SS_GT
  6
CONTINUOUS
 62
    2
 10
2.1385154503881267
 20
131.90344787824262
 11
2.7879154503881409
 21
131.90344787824262
  0
LINE
  8
_0-3_8_ALL_NOTES_BALLOONS_SS_GT
  6
CONTINUOUS
 62
    2
 10
1.0602004503879243
 20
131.90344787824262
 11
1.5976354503881112
 21
131.90344787824262
  0
LINE
  8
_0-3_8_ALL_NOTES_BALLOONS_SS_GT
  6
CONTINUOUS
 62
    2
 10
-0.1335255496120453
 20
131.90344787824262
 11
0.5427474503879921
 21
131.90344787824262
  0
LINE
  8
_0-3_8_ALL_NOTES_BALLOONS_SS_GT
  6
CONTINUOUS
 62
    2
 10
-0.6747495496118745
 20
131.0463078782426
 11
8.8829784503881228
 21
131.0463078782426
  0
LINE
  8
_0-3_8_ALL_NOTES_BALLOONS_SS_GT
  6
CONTINUOUS
 62
    2
 10
6.5523714503879944
 20
131.90344787824262
 11
7.0794714503880414
 21
132.7791908782425
  0
LINE
  8
_0-3_8_ALL_NOTES_BALLOONS_SS_GT
  6
CONTINUOUS
 62
    2
 10
7.4911604503880653
 20
133.46407587824262
 11
8.395842450387903
 21
134.9688928782428
  0
LINE
  8
_0-3_8_ALL_NOTES_BALLOONS_SS_GT
  6
CONTINUOUS
 62
    2
 10
6.772513450387919
 20
133.52470887824273
 11
5.7992734503881138
 21
131.90344787824262
  0
LINE
  8
_0-3_8_ALL_NOTES_BALLOONS_SS_GT
  6
CONTINUOUS
 62
    2
 10
7.6386104503880006
 20
134.9688928782428
 11
7.1811014503879278
 21
134.20683787824271
  0
LINE
  8
_0-3_8_ALL_NOTES_BALLOONS_SS_GT
  6
CONTINUOUS
 62
    2
 10
39.45303345038802
 20
134.24921287824264
 11
38.113580450387914
 21
133.03550487824265
  0
LINE
  8
_0-1_1
  6
CONTINUOUS
 62
    7
 10
39.32554845017502
 20
130.31978762734252
 11
55.325548450175006
 21
130.31978762734252
  0
LINE
  8
_0-1_1
  6
CONTINUOUS
 62
    7
 10
39.32554845017502
 20
115.31978762734252
 11
55.325548450175006
 21
115.31978762734252
  0
LINE
  8
_0-1_1
  6
CONTINUOUS
 62
    7
 10
4.0755484501750061
 20
70.319787627342521
 11
78.325548450175006
 21
70.319787627342521
  0
LINE
  8
_0-1_1
  6
CONTINUOUS
 62
    7
 10
78.325548450175006
 20
57.319787627342521
 11
4.0755484501750061
 21
57.319787627342521
  0
POINT
  8
_0-2_1__DRAFT_DIMS
 62
    7
 10
217.96583814248933
 20
59.119787627342532
  0
POINT
  8
_0-2_1__DRAFT_DIMS
 62
    7
 10
217.96583814248933
 20
128.31978762734252
  0
POINT
  8
_0-2_1__DRAFT_DIMS
 62
    7
 10
309.36583814248934
 20
128.31978762734252
  0
POINT
  8
_0-2_1__DRAFT_DIMS
 62
    7
 10
217.96583814248933
 20
59.319787627342521
  0
POINT
  8
_0-2_1__DRAFT_DIMS
 62
    7
 10
217.96583814248933
 20
59.319787627342521
  0
POINT
  8
_0-2_1__DRAFT_DIMS
 62
    7
 10
309.36583814248934
 20
59.319787627342521
  0
INSERT
  2
-000-A3_ZUWAKU
  8
_0-0_0
 10
-45.350000000000023
 20
-33.309999999999974
 41
1
 42
1
 50
0
  0
SOLID
  8
_0-1_1
  6
CONTINUOUS
 62
    2
 10
228.1030382174412
 20
149.04738926337791
 11
228.88876662255925
 21
149.35163449858612
 12
229.65138841830495
 22
146.21541199865203
 13
229.65138841830495
 23
146.21541199865203
  0
SOLID
  8
_0-1_1
  6
CONTINUOUS
 62
    2
 10
298.39133027318189
 20
149.28503592136593
 11
299.19813324417396
 21
149.04213006356269
 12
297.87220517447167
 22
146.09944449992975
 13
297.87220517447167
 23
146.09944449992975
  0
SOLID
  8
_0-1_1
  6
CONTINUOUS
 62
    2
 10
243.94401583498794
 20
130.45604921802931
 11
243.13339104122812
 21
130.22621942557834
 12
242.66583814248932
 22
133.41978762734254
 13
242.66583814248932
 23
133.41978762734254
  0
SOLID
  8
_0-1_1
  6
CONTINUOUS
 62
    2
 10
285.3022562066202
 20
130.20053451346445
 11
284.47696246063992
 21
130.37031237598501
 12
285.5344047823753
 22
133.41978762734254
 13
285.5344047823753
 23
133.41978762734254
  0
SOLID
  8
_0-1_1
  6
CONTINUOUS
 62
    2
 10
243.41640372012213
 20
57.358917265651826
 11
244.2032953536885
 21
57.05769335096511
 12
242.66583814248932
 22
54.219787627342498
 13
242.66583814248932
 23
54.219787627342498
  0
SOLID
  8
_0-1_1
  6
CONTINUOUS
 62
    2
 10
283.58488986050008
 20
57.261010142073019
 11
284.40884858724007
 21
57.437152999962109
 12
284.66583814248941
 22
54.219787627342498
 13
284.66583814248941
 23
54.219787627342498
  0
SOLID
  8
_0-1_1
  6
CONTINUOUS
 62
    2
 10
228.96681098515651
 20
38.359931011016812
 11
228.15670183187692
 21
38.591571787929126
 12
229.44149960047034
 22
41.552446365863233
 13
229.44149960047034
 23
41.552446365863233
  0
SOLID
  8
_0-1_1
  6
CONTINUOUS
 62
    2
 10
299.1183210059221
 20
38.534329339960323
 11
298.32224954189246
 21
38.258277689152123
 12
297.6718750429319
 22
41.419685063019131
 13
297.6718750429319
 23
41.419685063019131
  0
TEXT
  8
_0-1_1
 62
    7
 10
68.533122925068625
 20
38.961474946151526
 40
2.5
 41
0.63
 50
0
  1
BS-133HA
  0
LINE
  8
_0-5__U_30EC_U_30A4_U_30E4_FC_1
  6
CONTINUOUS
 62
    2
 10
82.156481635846717
 20
37.720351865890933
 11
82.156481635846717
 21
42.717118357697331
  0
LINE
  8
_0-5__U_30EC_U_30A4_U_30E4_FC_1
  6
CONTINUOUS
 62
    2
 10
82.156481635846717
 20
42.717118357697331
 11
59.458071245582119
 21
42.717118357697331
  0
LINE
  8
_0-5__U_30EC_U_30A4_U_30E4_FC_1
  6
CONTINUOUS
 62
    2
 10
59.458071245582119
 20
42.717118357697331
 11
59.458071245582119
 21
37.720351865890933
  0
LINE
  8
_0-5__U_30EC_U_30A4_U_30E4_FC_1
  6
CONTINUOUS
 62
    2
 10
59.458071245582119
 20
37.720351865890933
 11
82.156481635846717
 21
37.720351865890933
  0
LINE
  8
_0-0_0
  6
CONTINUOUS
 62
    7
 10
55.222456940184514
 20
87.050073303147542
 11
55.82439507593233
 21
83.532534142407201
  0
LINE
  8
_0-0_0
  6
CONTINUOUS
 62
    7
 10
55.82439507593233
 20
83.532534142407201
 11
54.713124892948514
 21
80.246412663754825
  0
LINE
  8
_0-0_0
  6
CONTINUOUS
 62
    7
 10
57.352391217640729
 20
87.23520731899373
 11
57.954329353388516
 21
83.717668158253446
  0
LINE
  8
_0-0_0
  6
CONTINUOUS
 62
    7
 10
57.954329353388516
 20
83.717668158253446
 11
56.843059170404729
 21
80.431546679601126
  0
LINE
  8
_0-0_0
  6
CONTINUOUS
 62
    7
 10
52.861007921308726
 20
87.00379028602714
 11
53.462946057056428
 21
83.486251125286799
  0
LINE
  8
_0-0_0
  6
CONTINUOUS
 62
    7
 10
53.462946057056428
 20
83.486251125286799
 11
52.351675874072626
 21
80.200129646634593
  0
LINE
  8
_0-0_0
  6
CONTINUOUS
 62
    7
 10
75.279487688959819
 20
81.869137397949942
 11
78.812273733676108
 21
82.705497436739336
  0
LINE
  8
_0-0_0
  6
CONTINUOUS
 62
    7
 10
78.812273733676108
 20
82.705497436739336
 11
82.391543729529417
 21
82.054995184347547
  0
LINE
  8
_0-0_0
  6
CONTINUOUS
 62
    7
 10
75.047067933275116
 20
83.495392704368612
 11
78.579853977991434
 21
84.331752743158006
  0
LINE
  8
_0-0_0
  6
CONTINUOUS
 62
    7
 10
78.579853977991434
 20
84.331752743158006
 11
82.159123973844714
 21
83.681250490766217
  0
LINE
  8
_0-0_0
  6
CONTINUOUS
 62
    7
 10
75.233003737822827
 20
85.400434690383634
 11
78.76578978253923
 21
86.236794729173027
  0
LINE
  8
_0-0_0
  6
CONTINUOUS
 62
    7
 10
78.76578978253923
 20
86.236794729173027
 11
82.34505977839251
 21
85.586292476781239
  0
TEXT
  8
_0-1_1
 62
    7
 10
304.88735259950909
 20
5.9487392140031403
 40
3.2000000000000002
 41
0.9
 50
0
  1
BS-133HA-1
  0
ENDSEC
  0
EOF
