  0
SECTION
  2
HEADER
  9
$ACADVER
  1
AC1009
  9
$INSBASE
 10
0
 20
0
 30
0
  9
$EXTMIN
 10
0
 20
0
  9
$EXTMAX
 10
420.5
 20
297
  9
$LIMMIN
 10
0
 20
0
  9
$LIMMAX
 10
420.5
 20
297
  9
$LTSCALE
 40
0.5
  0
ENDSEC
  0
SECTION
  2
TABLES
  0
TABLE
  2
LTYPE
 70
     9
  0
LTYPE
  2
CONTINUOUS
 70
    64
  3
実線
 72
    65
 73
     0
 40
0.0
  0
LTYPE
  2
DASHED1
 70
    64
  3
--  --  --  --  --  --  --  --  
 72
    65
 73
     2
 40
2.5
 49
1.25
 49
-1.25
  0
LTYPE
  2
DASHED2
 70
    64
  3
----    ----    ----    ----    
 72
    65
 73
     2
 40
5.0
 49
2.5
 49
-2.5
  0
LTYPE
  2
DASHED3
 70
    64
  3
------  ------  ------  ------  
 72
    65
 73
     2
 40
5.0
 49
3.75
 49
-1.25
  0
LTYPE
  2
CENTER1
 70
    64
  3
----- - ----- - ----- - ----- - 
 72
    65
 73
     4
 40
10.0
 49
6.25
 49
-1.25
 49
1.25
 49
-1.25
  0
LTYPE
  2
CENTER2
 70
    64
  3
----------  --  ----------  --  
 72
    65
 73
     4
 40
20.0
 49
12.5
 49
-2.5
 49
2.5
 49
-2.5
  0
LTYPE
  2
PHANTOM1
 70
    64
  3
--- - - --- - - --- - - --- - - 
 72
    65
 73
     6
 40
10.0
 49
3.25
 49
-1.25
 49
1.25
 49
-1.25
 49
1.25
 49
-1.25
  0
LTYPE
  2
PHANTOM2
 70
    64
  3
--------  -  -  --------  -  -  
 72
    65
 73
     6
 40
20.0
 49
10.0
 49
-2.5
 49
1.25
 49
-2.5
 49
1.25
 49
-2.5
  0
LTYPE
  2
DOT
 70
    64
  3
-   -   -   -   -   -   -   -   
 72
    65
 73
     2
 40
2.5
 49
0.625
 49
-1.875
  0
LTYPE
  2
DUMMY
 70
    64
  3
ダミー
 72
    65
 73
     0
 40
0.0
  0
LTYPE
  2
RAND1
 70
    64
  3
ランダム線1
 72
    65
 73
     4
 40
10.0
 49
1.0
 49
-2.0
 49
3.0
 49
-4.0
  0
LTYPE
  2
RAND2
 70
    64
  3
ランダム線2
 72
    65
 73
     4
 40
14.0
 49
2.0
 49
-3.0
 49
4.0
 49
-5.0
  0
LTYPE
  2
RAND3
 70
    64
  3
ランダム線3
 72
    65
 73
     4
 40
18.0
 49
3.0
 49
-4.0
 49
5.0
 49
-6.0
  0
LTYPE
  2
RAND4
 70
    64
  3
ランダム線4
 72
    65
 73
     4
 40
22.0
 49
4.0
 49
-5.0
 49
6.0
 49
-7.0
  0
LTYPE
  2
RAND5
 70
    64
  3
ランダム線5
 72
    65
 73
     4
 40
26.0
 49
5.0
 49
-6.0
 49
7.0
 49
-8.0
  0
LTYPE
  2
LONG1
 70
    64
  3
----------  --  ----------  --  
 72
    65
 73
     4
 40
40.0
 49
32.5
 49
-2.5
 49
2.5
 49
-2.5
  0
LTYPE
  2
LONG2
 70
    64
  3
--------  -  -  --------  -  -  
 72
    65
 73
     6
 40
40.0
 49
30.0
 49
-2.5
 49
1.25
 49
-2.5
 49
1.25
 49
-2.5
  0
LTYPE
  2
LONG3
 70
    64
  3
+++++++++++++++..+++++++++++++++
 72
    65
 73
     2
 40
40.0
 49
37.5
 49
-2.5
  0
LTYPE
  2
LONG4
 70
    64
  3
+++++++++++++++..+++++++++++++++
 72
    65
 73
     2
 40
80.0
 49
75.0
 49
-5.0
  0
LTYPE
  2
LONG5
 70
    64
  3
----------  --  ----------  --  
 72
    65
 73
     4
 40
60.0
 49
37.5
 49
-7.5
 49
7.5
 49
-7.5
  0
LTYPE
  2
dashed
 70
   64
  3
-------   -------------   ------
 72
   65
 73
    2
 40
7.5
 49
6
 49
-1.5
  0
LTYPE
  2
dashed_spaced
 70
   64
  3
----        --------        ----
 72
   65
 73
    2
 40
12
 49
6
 49
-6
  0
LTYPE
  2
long_dashed_dotted
 70
   64
  3
------------- --- --------------
 72
   65
 73
    4
 40
15.25
 49
12
 49
-1.5
 49
0.25
 49
-1.5
  0
LTYPE
  2
long_dashed_double-dotted
 70
   64
  3
----------- --- --- ------------
 72
   65
 73
    6
 40
17
 49
12
 49
-1.5
 49
0.25
 49
-1.5
 49
0.25
 49
-1.5
  0
LTYPE
  2
long_dashed_triplicate-dotted
 70
   64
  3
--------- --- --- --- ----------
 72
   65
 73
    8
 40
18.75
 49
12
 49
-1.5
 49
0.25
 49
-1.5
 49
0.25
 49
-1.5
 49
0.25
 49
-1.5
  0
LTYPE
  2
dotted
 70
   64
  3
   -       -       -       -    
 72
   65
 73
    2
 40
1.75
 49
0.25
 49
-1.5
  0
LTYPE
  2
chain
 70
   64
  3
-------------- -- --------------
 72
   65
 73
    4
 40
18.5
 49
12
 49
-1.5
 49
3.5
 49
-1.5
  0
LTYPE
  2
chain_double_dash
 70
   64
  3
------------ -- -- -------------
 72
   65
 73
    6
 40
23.5
 49
12
 49
-1.5
 49
3.5
 49
-1.5
 49
3.5
 49
-1.5
  0
LTYPE
  2
dashed_dotted
 70
   64
  3
-----------     -     ----------
 72
   65
 73
    4
 40
9.25
 49
6
 49
-1.5
 49
0.25
 49
-1.5
  0
LTYPE
  2
double-dashed_dotted
 70
   64
  3
------   -----------   -   -----
 72
   65
 73
    6
 40
16.75
 49
6
 49
-1.5
 49
6
 49
-1.5
 49
0.25
 49
-1.5
  0
LTYPE
  2
dashed_double-dotted
 70
   64
  3
---------    -    -    ---------
 72
   65
 73
    6
 40
11
 49
6
 49
-1.5
 49
0.25
 49
-1.5
 49
0.25
 49
-1.5
  0
LTYPE
  2
double-dashed_double-dotted
 70
   64
  3
-----   ---------   -   -   ----
 72
   65
 73
    8
 40
18.5
 49
6
 49
-1.5
 49
6
 49
-1.5
 49
0.25
 49
-1.5
 49
0.25
 49
-1.5
  0
LTYPE
  2
dashed_triplicate-dotted
 70
   64
  3
-------    -    -    -    ------
 72
   65
 73
    8
 40
12.75
 49
6
 49
-1.5
 49
0.25
 49
-1.5
 49
0.25
 49
-1.5
 49
0.25
 49
-1.5
  0
LTYPE
  2
double-dashed_triplicate-dotted
 70
   64
  3
-----  ---------  -  -  -  -----
 72
   65
 73
   10
 40
20.25
 49
6
 49
-1.5
 49
6
 49
-1.5
 49
0.25
 49
-1.5
 49
0.25
 49
-1.5
 49
0.25
 49
-1.5
  0
LTYPE
  2
undefined
 70
   64
  3
--------------------------------
 72
   65
 73
    0
 40
0
  0
LTYPE
  2
_
 70
   64
  3
                                
 72
   65
 73
    0
 40
0
  0
LTYPE
  2
__18
 70
   64
  3
                                
 72
   65
 73
    0
 40
0
  0
LTYPE
  2
__19
 70
   64
  3
                                
 72
   65
 73
    0
 40
0
  0
LTYPE
  2
__20
 70
   64
  3
                                
 72
   65
 73
    0
 40
0
  0
LTYPE
  2
__21
 70
   64
  3
                                
 72
   65
 73
    0
 40
0
  0
LTYPE
  2
__22
 70
   64
  3
                                
 72
   65
 73
    0
 40
0
  0
LTYPE
  2
__23
 70
   64
  3
                                
 72
   65
 73
    0
 40
0
  0
LTYPE
  2
__24
 70
   64
  3
                                
 72
   65
 73
    0
 40
0
  0
LTYPE
  2
__25
 70
   64
  3
                                
 72
   65
 73
    0
 40
0
  0
LTYPE
  2
__26
 70
   64
  3
                                
 72
   65
 73
    0
 40
0
  0
LTYPE
  2
__27
 70
   64
  3
                                
 72
   65
 73
    0
 40
0
  0
LTYPE
  2
__28
 70
   64
  3
                                
 72
   65
 73
    0
 40
0
  0
LTYPE
  2
__29
 70
   64
  3
                                
 72
   65
 73
    0
 40
0
  0
LTYPE
  2
__30
 70
   64
  3
                                
 72
   65
 73
    0
 40
0
  0
LTYPE
  2
__31
 70
   64
  3
                                
 72
   65
 73
    0
 40
0
  0
LTYPE
  2
__32
 70
   64
  3
                                
 72
   65
 73
    0
 40
0
  0
ENDTAB
  0
TABLE
  2
STYLE
  5
3
100
AcDbSymbolTable
 70
     1
  0
STYLE
  5
10
100
AcDbSymbolTableRecord
100
AcDbTextStyleTableRecord
  2
STANDARD
 70
     0
 40
0.0
 41
1.0
 50
0.0
 71
     0
 42
0.2
  3
txt
  4
bigfont.shx
  0
STYLE
  5
26
100
AcDbSymbolTableRecord
100
AcDbTextStyleTableRecord
  2
TATEGAKI
 70
    68
 40
0.0
 41
1.0
 50
0.0
 71
     0
 42
1.0
  3
txt
  4
bigfont.shx
  0
ENDTAB
  0
TABLE
  2
LAYER
 70
    5
  0
LAYER
  2
_0-0_0
 70
   64
 62
    7
  6
CONTINUOUS
  0
LAYER
  2
_0-1_1
 70
   64
 62
    7
  6
CONTINUOUS
  0
LAYER
  2
_0-2_Defpoints
 70
   64
 62
    7
  6
CONTINUOUS
  0
LAYER
  2
_0-3_0_COMPONENTS
 70
   64
 62
    7
  6
CONTINUOUS
  0
LAYER
  2
ADD_LINE
 70
   64
 62
    7
  6
CONTINUOUS
  0
ENDTAB
  0
ENDSEC
  0
SECTION
  2
BLOCKS
  0
BLOCK
  2
-000-_D0
 70
   64
 10
0
 20
0
 30
0
  0
LINE
  8
_0-1_1
  6
CONTINUOUS
 62
    2
 10
3006.9366529096259
 20
560.16530381241307
 11
3035.5833927107701
 21
560.16530381241307
  0
LINE
  8
_0-1_1
  6
CONTINUOUS
 62
    2
 10
3013.3817338002281
 20
555.16530381241295
 11
3035.5833927107701
 21
555.16530381241295
  0
LINE
  8
_0-1_1
  6
CONTINUOUS
 62
    2
 10
3034.5833927107692
 20
563.36530381241311
 11
3034.5833927107692
 21
566.56530381241304
  0
LINE
  8
_0-1_1
  6
CONTINUOUS
 62
    2
 10
3034.5833927107692
 20
551.96530381241302
 11
3034.5833927107692
 21
548.76530381241309
  0
LINE
  8
_0-1_1
  6
CONTINUOUS
 62
    2
 10
3034.5833927107692
 20
560.16530381241307
 11
3034.5833927107692
 21
555.16530381241295
  0
SOLID
  8
_0-1_1
  6
CONTINUOUS
 62
    2
 10
3034.0500593774359
 20
563.36530381241311
 11
3035.1167260441029
 21
563.36530381241311
 12
3034.5833927107692
 22
560.16530381241307
 13
3034.5833927107692
 23
560.16530381241307
  0
SOLID
  8
_0-1_1
  6
CONTINUOUS
 62
    2
 10
3034.0500593774359
 20
551.96530381241302
 11
3035.1167260441029
 21
551.96530381241302
 12
3034.5833927107692
 22
555.16530381241295
 13
3034.5833927107692
 23
555.16530381241295
  0
TEXT
  8
_0-1_1
 62
    7
 10
3033.5833927107687
 20
556.86530381241209
 40
3.2000000000000001
 41
1
 50
90
  1
5
  0
POINT
  8
_0-2_Defpoints
 62
    7
 10
3005.9366529096259
 20
560.16530381241307
  0
POINT
  8
_0-2_Defpoints
 62
    7
 10
3012.381733800229
 20
555.16530381241295
  0
POINT
  8
_0-2_Defpoints
 62
    7
 10
3034.5833927107692
 20
555.16530381241295
  0
ENDBLK
  0
BLOCK
  2
-001-_D1
 70
   64
 10
0
 20
0
 30
0
  0
LINE
  8
_0-1_1
  6
CONTINUOUS
 62
    2
 10
3010.5026303692338
 20
577.16530381241284
 11
3026.7420325169841
 21
577.16530381241284
  0
LINE
  8
_0-1_1
  6
CONTINUOUS
 62
    2
 10
3013.3817338002281
 20
555.16530381241295
 11
3026.7420325169841
 21
555.16530381241295
  0
LINE
  8
_0-1_1
  6
CONTINUOUS
 62
    2
 10
3025.7420325169841
 20
573.96530381241291
 11
3025.7420325169841
 21
558.36530381241311
  0
SOLID
  8
_0-1_1
  6
CONTINUOUS
 62
    2
 10
3025.2086991836508
 20
573.96530381241291
 11
3026.275365850317
 21
573.96530381241291
 12
3025.7420325169841
 22
577.16530381241284
 13
3025.7420325169841
 23
577.16530381241284
  0
SOLID
  8
_0-1_1
  6
CONTINUOUS
 62
    2
 10
3025.2086991836508
 20
558.36530381241311
 11
3026.275365850317
 21
558.36530381241311
 12
3025.7420325169841
 22
555.16530381241295
 13
3025.7420325169841
 23
555.16530381241295
  0
TEXT
  8
_0-1_1
 62
    7
 10
3024.7420325169837
 20
564.56530381241202
 40
3.2000000000000001
 41
1
 50
90
  1
22
  0
POINT
  8
_0-2_Defpoints
 62
    7
 10
3009.5026303692338
 20
577.16530381241284
  0
POINT
  8
_0-2_Defpoints
 62
    7
 10
3012.381733800229
 20
555.16530381241295
  0
POINT
  8
_0-2_Defpoints
 62
    7
 10
3025.7420325169841
 20
555.16530381241295
  0
ENDBLK
  0
BLOCK
  2
-002-_D2
 70
   64
 10
0
 20
0
 30
0
  0
LINE
  8
_0-1_1
  6
CONTINUOUS
 62
    2
 10
3114.148284726426
 20
618.10941636211271
 11
3114.148284726426
 21
638.38644600420047
  0
LINE
  8
_0-1_1
  6
CONTINUOUS
 62
    2
 10
3094.148284726426
 20
618.10941636211271
 11
3094.148284726426
 21
638.38644600420047
  0
LINE
  8
_0-1_1
  6
CONTINUOUS
 62
    2
 10
3110.9482847264262
 20
637.38644600420036
 11
3097.3482847264258
 21
637.38644600420036
  0
SOLID
  8
_0-1_1
  6
CONTINUOUS
 62
    2
 10
3110.9482847264262
 20
637.91977933753378
 11
3110.9482847264262
 21
636.85311267086706
 12
3114.148284726426
 22
637.38644600420036
 13
3114.148284726426
 23
637.38644600420036
  0
SOLID
  8
_0-1_1
  6
CONTINUOUS
 62
    2
 10
3097.3482847264258
 20
637.91977933753378
 11
3097.3482847264258
 21
636.85311267086706
 12
3094.148284726426
 22
637.38644600420036
 13
3094.148284726426
 23
637.38644600420036
  0
TEXT
  8
_0-1_1
 62
    7
 10
3102.5482847264261
 20
638.38644600420047
 40
3.2000000000000001
 41
1
 50
0
  1
20
  0
POINT
  8
_0-2_Defpoints
 62
    7
 10
3114.148284726426
 20
617.10941636211271
  0
POINT
  8
_0-2_Defpoints
 62
    7
 10
3094.148284726426
 20
617.10941636211271
  0
POINT
  8
_0-2_Defpoints
 62
    7
 10
3094.148284726426
 20
637.38644600420036
  0
ENDBLK
  0
BLOCK
  2
-003-_D3
 70
   64
 10
0
 20
0
 30
0
  0
LINE
  8
_0-1_1
  6
CONTINUOUS
 62
    2
 10
3140.1482847264251
 20
618.10941636211271
 11
3140.1482847264251
 21
638.38644600420047
  0
LINE
  8
_0-1_1
  6
CONTINUOUS
 62
    2
 10
3114.148284726426
 20
618.10941636211271
 11
3114.148284726426
 21
638.38644600420047
  0
LINE
  8
_0-1_1
  6
CONTINUOUS
 62
    2
 10
3136.9482847264262
 20
637.38644600420036
 11
3117.3482847264249
 21
637.38644600420036
  0
SOLID
  8
_0-1_1
  6
CONTINUOUS
 62
    2
 10
3136.9482847264262
 20
637.91977933753378
 11
3136.9482847264262
 21
636.85311267086706
 12
3140.1482847264251
 22
637.38644600420036
 13
3140.1482847264251
 23
637.38644600420036
  0
SOLID
  8
_0-1_1
  6
CONTINUOUS
 62
    2
 10
3117.3482847264249
 20
637.91977933753378
 11
3117.3482847264249
 21
636.85311267086706
 12
3114.148284726426
 22
637.38644600420036
 13
3114.148284726426
 23
637.38644600420036
  0
TEXT
  8
_0-1_1
 62
    7
 10
3125.5482847264261
 20
638.38644600420047
 40
3.2000000000000001
 41
1
 50
0
  1
26
  0
POINT
  8
_0-2_Defpoints
 62
    7
 10
3140.1482847264251
 20
617.10941636211271
  0
POINT
  8
_0-2_Defpoints
 62
    7
 10
3114.148284726426
 20
617.10941636211271
  0
POINT
  8
_0-2_Defpoints
 62
    7
 10
3114.148284726426
 20
637.38644600420036
  0
ENDBLK
  0
BLOCK
  2
-004-_D4
 70
   64
 10
0
 20
0
 30
0
  0
LINE
  8
_0-1_1
  6
CONTINUOUS
 62
    2
 10
3160.148284726426
 20
618.10941636211271
 11
3160.148284726426
 21
638.38644600420047
  0
LINE
  8
_0-1_1
  6
CONTINUOUS
 62
    2
 10
3140.1482847264251
 20
618.10941636211271
 11
3140.1482847264251
 21
638.38644600420047
  0
LINE
  8
_0-1_1
  6
CONTINUOUS
 62
    2
 10
3156.9482847264262
 20
637.38644600420036
 11
3143.3482847264258
 21
637.38644600420036
  0
SOLID
  8
_0-1_1
  6
CONTINUOUS
 62
    2
 10
3156.9482847264262
 20
637.91977933753378
 11
3156.9482847264262
 21
636.85311267086706
 12
3160.148284726426
 22
637.38644600420036
 13
3160.148284726426
 23
637.38644600420036
  0
SOLID
  8
_0-1_1
  6
CONTINUOUS
 62
    2
 10
3143.3482847264258
 20
637.91977933753378
 11
3143.3482847264258
 21
636.85311267086706
 12
3140.1482847264251
 22
637.38644600420036
 13
3140.1482847264251
 23
637.38644600420036
  0
TEXT
  8
_0-1_1
 62
    7
 10
3148.5482847264261
 20
638.38644600420047
 40
3.2000000000000001
 41
1
 50
0
  1
20
  0
POINT
  8
_0-2_Defpoints
 62
    7
 10
3160.148284726426
 20
617.10941636211271
  0
POINT
  8
_0-2_Defpoints
 62
    7
 10
3140.1482847264251
 20
617.10941636211271
  0
POINT
  8
_0-2_Defpoints
 62
    7
 10
3140.1482847264251
 20
637.38644600420036
  0
ENDBLK
  0
BLOCK
  2
-005-_D5
 70
   64
 10
0
 20
0
 30
0
  0
LINE
  8
_0-1_1
  6
CONTINUOUS
 62
    2
 10
3098.148184726428
 20
513.41530381241295
 11
3060.974840207994
 21
513.41530381241295
  0
LINE
  8
_0-1_1
  6
CONTINUOUS
 62
    2
 10
3098.148184726428
 20
596.91530381241295
 11
3060.974840207994
 21
596.91530381241295
  0
LINE
  8
_0-1_1
  6
CONTINUOUS
 62
    2
 10
3061.974840207994
 20
516.615303812413
 11
3061.974840207994
 21
593.71530381241291
  0
SOLID
  8
_0-1_1
  6
CONTINUOUS
 62
    2
 10
3061.4415068746598
 20
516.615303812413
 11
3062.5081735413268
 21
516.615303812413
 12
3061.974840207994
 22
513.41530381241295
 13
3061.974840207994
 23
513.41530381241295
  0
SOLID
  8
_0-1_1
  6
CONTINUOUS
 62
    2
 10
3061.4415068746598
 20
593.71530381241291
 11
3062.5081735413268
 21
593.71530381241291
 12
3061.974840207994
 22
596.91530381241295
 13
3061.974840207994
 23
596.91530381241295
  0
TEXT
  8
_0-1_1
 62
    7
 10
3060.9748402079931
 20
551.965303812412
 40
3.2000000000000001
 41
1
 50
90
  1
83.5
  0
POINT
  8
_0-2_Defpoints
 62
    7
 10
3099.148184726428
 20
513.41530381241295
  0
POINT
  8
_0-2_Defpoints
 62
    7
 10
3099.148184726428
 20
596.91530381241295
  0
POINT
  8
_0-2_Defpoints
 62
    7
 10
3061.974840207994
 20
596.91530381241295
  0
ENDBLK
  0
BLOCK
  2
-006-_D6
 70
   64
 10
0
 20
0
 30
0
  0
LINE
  8
_0-1_1
  6
CONTINUOUS
 62
    2
 10
3081.7041721768277
 20
504.66530381241301
 11
3049.777475956062
 21
504.66530381241301
  0
LINE
  8
_0-1_1
  6
CONTINUOUS
 62
    2
 10
3081.7041721768277
 20
605.66530381241284
 11
3049.777475956062
 21
605.66530381241284
  0
LINE
  8
_0-1_1
  6
CONTINUOUS
 62
    2
 10
3050.777475956062
 20
507.865303812413
 11
3050.777475956062
 21
602.46530381241291
  0
SOLID
  8
_0-1_1
  6
CONTINUOUS
 62
    2
 10
3050.2441426227292
 20
507.865303812413
 11
3051.3108092893949
 21
507.865303812413
 12
3050.777475956062
 22
504.66530381241301
 13
3050.777475956062
 23
504.66530381241301
  0
SOLID
  8
_0-1_1
  6
CONTINUOUS
 62
    2
 10
3050.2441426227292
 20
602.46530381241291
 11
3051.3108092893949
 21
602.46530381241291
 12
3050.777475956062
 22
605.66530381241284
 13
3050.777475956062
 23
605.66530381241284
  0
TEXT
  8
_0-1_1
 62
    7
 10
3049.777475956062
 20
552.76530381241195
 40
3.2000000000000001
 41
1
 50
90
  1
101
  0
POINT
  8
_0-2_Defpoints
 62
    7
 10
3082.7041721768277
 20
504.66530381241301
  0
POINT
  8
_0-2_Defpoints
 62
    7
 10
3082.7041721768277
 20
605.66530381241284
  0
POINT
  8
_0-2_Defpoints
 62
    7
 10
3050.777475956062
 20
605.66530381241284
  0
ENDBLK
  0
BLOCK
  2
-007-_D7
 70
   64
 10
0
 20
0
 30
0
  0
LINE
  8
_0-1_1
  6
CONTINUOUS
 62
    2
 10
3175.648284726426
 20
506.66530381241278
 11
3175.648284726426
 21
480.57998182364252
  0
LINE
  8
_0-1_1
  6
CONTINUOUS
 62
    2
 10
3078.648284726426
 20
506.66530381241278
 11
3078.648284726426
 21
480.57998182364252
  0
LINE
  8
_0-1_1
  6
CONTINUOUS
 62
    2
 10
3172.4482847264262
 20
481.57998182364258
 11
3081.8482847264249
 21
481.57998182364258
  0
SOLID
  8
_0-1_1
  6
CONTINUOUS
 62
    2
 10
3172.4482847264262
 20
482.11331515697588
 11
3172.4482847264262
 21
481.04664849030922
 12
3175.648284726426
 22
481.57998182364258
 13
3175.648284726426
 23
481.57998182364258
  0
SOLID
  8
_0-1_1
  6
CONTINUOUS
 62
    2
 10
3081.8482847264249
 20
482.11331515697588
 11
3081.8482847264249
 21
481.04664849030922
 12
3078.648284726426
 22
481.57998182364258
 13
3078.648284726426
 23
481.57998182364258
  0
TEXT
  8
_0-1_1
 62
    7
 10
3125.5482847264261
 20
482.57998182364258
 40
3.2000000000000001
 41
1
 50
0
  1
97
  0
POINT
  8
_0-2_Defpoints
 62
    7
 10
3175.648284726426
 20
507.66530381241278
  0
POINT
  8
_0-2_Defpoints
 62
    7
 10
3078.648284726426
 20
507.66530381241278
  0
POINT
  8
_0-2_Defpoints
 62
    7
 10
3078.648284726426
 20
481.57998182364258
  0
ENDBLK
  0
BLOCK
  2
-008-_D8
 70
   64
 10
0
 20
0
 30
0
  0
LINE
  8
_0-1_1
  6
CONTINUOUS
 62
    2
 10
3176.6482847264269
 20
507.66530381241301
 11
3206.8324465839477
 21
507.66530381241307
  0
LINE
  8
_0-1_1
  6
CONTINUOUS
 62
    2
 10
3176.6482847264269
 20
602.66530381241295
 11
3206.8324465839477
 21
602.66530381241295
  0
LINE
  8
_0-1_1
  6
CONTINUOUS
 62
    2
 10
3205.8324465839477
 20
510.865303812413
 11
3205.8324465839477
 21
599.46530381241291
  0
SOLID
  8
_0-1_1
  6
CONTINUOUS
 62
    2
 10
3205.299113250614
 20
510.865303812413
 11
3206.365779917281
 21
510.865303812413
 12
3205.8324465839477
 22
507.66530381241307
 13
3205.8324465839477
 23
507.66530381241307
  0
SOLID
  8
_0-1_1
  6
CONTINUOUS
 62
    2
 10
3205.299113250614
 20
599.46530381241291
 11
3206.365779917281
 21
599.46530381241291
 12
3205.8324465839477
 22
602.66530381241295
 13
3205.8324465839477
 23
602.66530381241295
  0
TEXT
  8
_0-1_1
 62
    7
 10
3204.8324465839468
 20
553.56530381241191
 40
3.2000000000000001
 41
1
 50
90
  1
95
  0
POINT
  8
_0-2_Defpoints
 62
    7
 10
3175.6482847264278
 20
507.66530381241301
  0
POINT
  8
_0-2_Defpoints
 62
    7
 10
3175.6482847264278
 20
602.66530381241295
  0
POINT
  8
_0-2_Defpoints
 62
    7
 10
3205.8324465839477
 20
602.66530381241295
  0
ENDBLK
  0
BLOCK
  2
-009-_D9
 70
   64
 10
0
 20
0
 30
0
  0
LINE
  8
_0-1_1
  6
CONTINUOUS
 62
    2
 10
3176.6482847264269
 20
517.16530381241295
 11
3199.0019582112681
 21
517.16530381241295
  0
LINE
  8
_0-1_1
  6
CONTINUOUS
 62
    2
 10
3176.6482847264269
 20
593.16530381241284
 11
3199.0019582112681
 21
593.16530381241284
  0
LINE
  8
_0-1_1
  6
CONTINUOUS
 62
    2
 10
3198.0019582112681
 20
520.36530381241311
 11
3198.0019582112681
 21
589.96530381241291
  0
SOLID
  8
_0-1_1
  6
CONTINUOUS
 62
    2
 10
3197.4686248779348
 20
520.36530381241311
 11
3198.535291544601
 21
520.36530381241311
 12
3198.0019582112681
 22
517.16530381241295
 13
3198.0019582112681
 23
517.16530381241295
  0
SOLID
  8
_0-1_1
  6
CONTINUOUS
 62
    2
 10
3197.4686248779348
 20
589.96530381241291
 11
3198.535291544601
 21
589.96530381241291
 12
3198.0019582112681
 22
593.16530381241284
 13
3198.0019582112681
 23
593.16530381241284
  0
TEXT
  8
_0-1_1
 62
    7
 10
3197.0019582112677
 20
553.56530381241202
 40
3.2000000000000001
 41
1
 50
90
  1
76
  0
POINT
  8
_0-2_Defpoints
 62
    7
 10
3175.6482847264278
 20
517.16530381241295
  0
POINT
  8
_0-2_Defpoints
 62
    7
 10
3175.6482847264278
 20
593.16530381241284
  0
POINT
  8
_0-2_Defpoints
 62
    7
 10
3198.0019582112681
 20
593.16530381241284
  0
ENDBLK
  0
BLOCK
  2
-010-_D10
 70
   64
 10
0
 20
0
 30
0
  0
LINE
  8
_0-1_1
  6
CONTINUOUS
 62
    2
 10
3150.148284726426
 20
602.9154038124127
 11
3150.148284726426
 21
629.3374387971304
  0
LINE
  8
_0-1_1
  6
CONTINUOUS
 62
    2
 10
3104.148284726426
 20
602.9154038124127
 11
3104.148284726426
 21
629.3374387971304
  0
LINE
  8
_0-1_1
  6
CONTINUOUS
 62
    2
 10
3146.9482847264262
 20
628.33743879713051
 11
3107.3482847264249
 21
628.33743879713051
  0
SOLID
  8
_0-1_1
  6
CONTINUOUS
 62
    2
 10
3146.9482847264262
 20
628.87077213046381
 11
3146.9482847264262
 21
627.80410546379721
 12
3150.148284726426
 22
628.33743879713051
 13
3150.148284726426
 23
628.33743879713051
  0
SOLID
  8
_0-1_1
  6
CONTINUOUS
 62
    2
 10
3107.3482847264249
 20
628.87077213046381
 11
3107.3482847264249
 21
627.80410546379721
 12
3104.148284726426
 22
628.33743879713051
 13
3104.148284726426
 23
628.33743879713051
  0
TEXT
  8
_0-1_1
 62
    7
 10
3125.5482847264261
 20
629.33743879713051
 40
3.2000000000000001
 41
1
 50
0
  1
46
  0
POINT
  8
_0-2_Defpoints
 62
    7
 10
3150.148284726426
 20
601.91540381241281
  0
POINT
  8
_0-2_Defpoints
 62
    7
 10
3104.148284726426
 20
601.91540381241281
  0
POINT
  8
_0-2_Defpoints
 62
    7
 10
3104.148284726426
 20
628.33743879713051
  0
ENDBLK
  0
BLOCK
  2
-011-_D11
 70
   64
 10
0
 20
0
 30
0
  0
LINE
  8
_0-1_1
  6
CONTINUOUS
 62
    2
 10
2857.9629635750579
 20
502.16530381241278
 11
2857.9629635750579
 21
481.38493167763209
  0
LINE
  8
_0-1_1
  6
CONTINUOUS
 62
    2
 10
2973.9629635750579
 20
502.16530381241278
 11
2973.9629635750579
 21
481.38493167763209
  0
LINE
  8
_0-1_1
  6
CONTINUOUS
 62
    2
 10
2861.1629635750578
 20
482.3849316776322
 11
2970.7629635750581
 21
482.3849316776322
  0
SOLID
  8
_0-1_1
  6
CONTINUOUS
 62
    2
 10
2861.1629635750578
 20
482.91826501096562
 11
2861.1629635750578
 21
481.85159834429879
 12
2857.9629635750579
 22
482.3849316776322
 13
2857.9629635750579
 23
482.3849316776322
  0
SOLID
  8
_0-1_1
  6
CONTINUOUS
 62
    2
 10
2970.7629635750581
 20
482.91826501096562
 11
2970.7629635750581
 21
481.85159834429879
 12
2973.9629635750579
 22
482.3849316776322
 13
2973.9629635750579
 23
482.3849316776322
  0
TEXT
  8
_0-1_1
 62
    7
 10
2913.5629635750578
 20
483.38493167763215
 40
3.2000000000000001
 41
1
 50
0
  1
116
  0
POINT
  8
_0-2_Defpoints
 62
    7
 10
2857.9629635750579
 20
503.16530381241278
  0
POINT
  8
_0-2_Defpoints
 62
    7
 10
2973.9629635750579
 20
503.16530381241278
  0
POINT
  8
_0-2_Defpoints
 62
    7
 10
2973.9629635750579
 20
482.3849316776322
  0
ENDBLK
  0
BLOCK
  2
-012-_D12
 70
   64
 10
0
 20
0
 30
0
  0
LINE
  8
_0-1_1
  6
CONTINUOUS
 62
    2
 10
3006.9366529096259
 20
584.16530381241284
 11
3035.5833927107678
 21
584.16530381241284
  0
LINE
  8
_0-1_1
  6
CONTINUOUS
 62
    2
 10
3006.9366529096259
 20
560.16530381241307
 11
3035.5833927107678
 21
560.16530381241307
  0
LINE
  8
_0-1_1
  6
CONTINUOUS
 62
    2
 10
3034.5833927107678
 20
580.96530381241291
 11
3034.5833927107678
 21
563.36530381241311
  0
SOLID
  8
_0-1_1
  6
CONTINUOUS
 62
    2
 10
3034.0500593774349
 20
580.96530381241291
 11
3035.116726044102
 21
580.96530381241291
 12
3034.5833927107678
 22
584.16530381241284
 13
3034.5833927107678
 23
584.16530381241284
  0
SOLID
  8
_0-1_1
  6
CONTINUOUS
 62
    2
 10
3034.0500593774349
 20
563.36530381241311
 11
3035.116726044102
 21
563.36530381241311
 12
3034.5833927107678
 22
560.16530381241307
 13
3034.5833927107678
 23
560.16530381241307
  0
TEXT
  8
_0-1_1
 62
    7
 10
3033.5833927107678
 20
570.56530381241202
 40
3.2000000000000001
 41
1
 50
90
  1
24
  0
POINT
  8
_0-2_Defpoints
 62
    7
 10
3005.9366529096259
 20
584.16530381241284
  0
POINT
  8
_0-2_Defpoints
 62
    7
 10
3005.9366529096259
 20
560.16530381241307
  0
POINT
  8
_0-2_Defpoints
 62
    7
 10
3034.5833927107678
 20
560.16530381241307
  0
ENDBLK
  0
BLOCK
  2
-013-_D13
 70
   64
 10
0
 20
0
 30
0
  0
LINE
  8
_0-1_1
  6
CONTINUOUS
 62
    2
 10
3008.6366529096258
 20
574.31530381241373
 11
3019.150810145913
 21
574.31530381241373
  0
LINE
  8
_0-1_1
  6
CONTINUOUS
 62
    2
 10
3008.6366529096258
 20
580.01530381241354
 11
3019.150810145913
 21
580.01530381241354
  0
LINE
  8
_0-1_1
  6
CONTINUOUS
 62
    2
 10
3018.150810145913
 20
571.11530381241368
 11
3018.150810145913
 21
567.91530381241375
  0
LINE
  8
_0-1_1
  6
CONTINUOUS
 62
    2
 10
3018.150810145913
 20
583.21530381241348
 11
3018.150810145913
 21
594.8153038124135
  0
LINE
  8
_0-1_1
  6
CONTINUOUS
 62
    2
 10
3018.150810145913
 20
574.31530381241373
 11
3018.150810145913
 21
580.01530381241354
  0
SOLID
  8
_0-1_1
  6
CONTINUOUS
 62
    2
 10
3017.6174768125802
 20
571.11530381241368
 11
3018.6841434792459
 21
571.11530381241368
 12
3018.150810145913
 22
574.31530381241373
 13
3018.150810145913
 23
574.31530381241373
  0
SOLID
  8
_0-1_1
  6
CONTINUOUS
 62
    2
 10
3017.6174768125802
 20
583.21530381241348
 11
3018.6841434792459
 21
583.21530381241348
 12
3018.150810145913
 22
580.01530381241354
 13
3018.150810145913
 23
580.01530381241354
  0
TEXT
  8
_0-1_1
 62
    7
 10
3017.1508101459116
 20
588.21530381241257
 40
3.2000000000000001
 41
1
 50
90
  1
5.7
  0
POINT
  8
_0-2_Defpoints
 62
    7
 10
3007.6366529096271
 20
574.31530381241373
  0
POINT
  8
_0-2_Defpoints
 62
    7
 10
3007.6366529096271
 20
580.01530381241354
  0
POINT
  8
_0-2_Defpoints
 62
    7
 10
3018.150810145913
 20
580.01530381241354
  0
ENDBLK
  0
BLOCK
  2
-014-_D14
 70
   64
 10
0
 20
0
 30
0
  0
LINE
  8
_0-1_1
  6
CONTINUOUS
 62
    2
 10
3004.8366529096251
 20
616.16530381241273
 11
3004.8366529096251
 21
625.43410711958438
  0
LINE
  8
_0-1_1
  6
CONTINUOUS
 62
    2
 10
3007.6366529096258
 20
581.01530381241275
 11
3007.6366529096258
 21
625.43410711958438
  0
LINE
  8
_0-1_1
  6
CONTINUOUS
 62
    2
 10
3001.6366529096248
 20
624.43410711958449
 11
2998.436652909625
 21
624.43410711958449
  0
LINE
  8
_0-1_1
  6
CONTINUOUS
 62
    2
 10
3010.8366529096251
 20
624.43410711958449
 11
3022.4366529096259
 21
624.43410711958449
  0
LINE
  8
_0-1_1
  6
CONTINUOUS
 62
    2
 10
3004.8366529096251
 20
624.43410711958449
 11
3007.6366529096258
 21
624.43410711958449
  0
SOLID
  8
_0-1_1
  6
CONTINUOUS
 62
    2
 10
3001.6366529096248
 20
624.96744045291768
 11
3001.6366529096248
 21
623.90077378625119
 12
3004.8366529096251
 22
624.43410711958449
 13
3004.8366529096251
 23
624.43410711958449
  0
SOLID
  8
_0-1_1
  6
CONTINUOUS
 62
    2
 10
3010.8366529096251
 20
624.96744045291768
 11
3010.8366529096251
 21
623.90077378625119
 12
3007.6366529096258
 22
624.43410711958449
 13
3007.6366529096258
 23
624.43410711958449
  0
TEXT
  8
_0-1_1
 62
    7
 10
3015.8366529096247
 20
625.43410711958438
 40
3.2000000000000001
 41
1
 50
0
  1
2.8
  0
POINT
  8
_0-2_Defpoints
 62
    7
 10
3004.8366529096251
 20
615.16530381241273
  0
POINT
  8
_0-2_Defpoints
 62
    7
 10
3007.6366529096258
 20
580.01530381241275
  0
POINT
  8
_0-2_Defpoints
 62
    7
 10
3007.6366529096258
 20
624.43410711958449
  0
ENDBLK
  0
BLOCK
  2
-015-_D15
 70
   64
 10
0
 20
0
 30
0
  0
LINE
  8
_0-1_1
  6
CONTINUOUS
 62
    2
 10
2988.936652909625
 20
603.16530381241273
 11
2988.936652909625
 21
625.43410711958438
  0
LINE
  8
_0-1_1
  6
CONTINUOUS
 62
    2
 10
3004.8366529096251
 20
616.16530381241273
 11
3004.8366529096251
 21
625.43410711958438
  0
LINE
  8
_0-1_1
  6
CONTINUOUS
 62
    2
 10
2992.1366529096248
 20
624.43410711958449
 11
3001.6366529096248
 21
624.43410711958449
  0
SOLID
  8
_0-1_1
  6
CONTINUOUS
 62
    2
 10
2992.1366529096248
 20
624.96744045291768
 11
2992.1366529096248
 21
623.90077378625119
 12
2988.936652909625
 22
624.43410711958449
 13
2988.936652909625
 23
624.43410711958449
  0
SOLID
  8
_0-1_1
  6
CONTINUOUS
 62
    2
 10
3001.6366529096248
 20
624.96744045291768
 11
3001.6366529096248
 21
623.90077378625119
 12
3004.8366529096251
 22
624.43410711958449
 13
3004.8366529096251
 23
624.43410711958449
  0
TEXT
  8
_0-1_1
 62
    7
 10
2993.686652909625
 20
625.43410711958438
 40
3.2000000000000001
 41
1
 50
0
  1
15.9
  0
POINT
  8
_0-2_Defpoints
 62
    7
 10
2988.936652909625
 20
602.16530381241273
  0
POINT
  8
_0-2_Defpoints
 62
    7
 10
3004.8366529096251
 20
615.16530381241273
  0
POINT
  8
_0-2_Defpoints
 62
    7
 10
3004.8366529096251
 20
624.43410711958449
  0
ENDBLK
  0
BLOCK
  2
-016-_D16
 70
   64
 10
0
 20
0
 30
0
  0
LINE
  8
_0-1_1
  6
CONTINUOUS
 62
    2
 10
2864.9629635750588
 20
495.16530381241301
 11
2844.813323039702
 21
495.16530381241301
  0
LINE
  8
_0-1_1
  6
CONTINUOUS
 62
    2
 10
2864.9629635750588
 20
615.16530381241295
 11
2844.813323039702
 21
615.16530381241295
  0
LINE
  8
_0-1_1
  6
CONTINUOUS
 62
    2
 10
2845.813323039702
 20
498.365303812413
 11
2845.813323039702
 21
611.96530381241291
  0
SOLID
  8
_0-1_1
  6
CONTINUOUS
 62
    2
 10
2845.2799897063678
 20
498.365303812413
 11
2846.3466563730348
 21
498.365303812413
 12
2845.813323039702
 22
495.16530381241301
 13
2845.813323039702
 23
495.16530381241301
  0
SOLID
  8
_0-1_1
  6
CONTINUOUS
 62
    2
 10
2845.2799897063678
 20
611.96530381241291
 11
2846.3466563730348
 21
611.96530381241291
 12
2845.813323039702
 22
615.16530381241295
 13
2845.813323039702
 23
615.16530381241295
  0
TEXT
  8
_0-1_1
 62
    7
 10
2844.813323039702
 20
552.76530381241207
 40
3.2000000000000001
 41
1
 50
90
  1
120
  0
POINT
  8
_0-2_Defpoints
 62
    7
 10
2865.9629635750588
 20
495.16530381241301
  0
POINT
  8
_0-2_Defpoints
 62
    7
 10
2865.9629635750588
 20
615.16530381241295
  0
POINT
  8
_0-2_Defpoints
 62
    7
 10
2845.813323039702
 20
615.16530381241295
  0
ENDBLK
  0
BLOCK
  2
-017-_D17
 70
   64
 10
0
 20
0
 30
0
  0
LINE
  8
_0-1_1
  6
CONTINUOUS
 62
    2
 10
2946.4629635750579
 20
664.59432085180685
 11
2946.4629635750579
 21
690.48416760042493
  0
LINE
  8
_0-1_1
  6
CONTINUOUS
 62
    2
 10
2915.9629635750579
 20
672.11785381283402
 11
2915.9629635750579
 21
690.48416760042493
  0
LINE
  8
_0-1_1
  6
CONTINUOUS
 62
    2
 10
2943.262963575059
 20
689.48416760042493
 11
2919.1629635750578
 21
689.48416760042493
  0
SOLID
  8
_0-1_1
  6
CONTINUOUS
 62
    2
 10
2943.262963575059
 20
690.01750093375824
 11
2943.262963575059
 21
688.95083426709163
 12
2946.4629635750579
 22
689.48416760042493
 13
2946.4629635750579
 23
689.48416760042493
  0
SOLID
  8
_0-1_1
  6
CONTINUOUS
 62
    2
 10
2919.1629635750578
 20
690.01750093375824
 11
2919.1629635750578
 21
688.95083426709163
 12
2915.9629635750579
 22
689.48416760042493
 13
2915.9629635750579
 23
689.48416760042493
  0
TEXT
  8
_0-1_1
 62
    7
 10
2928.0129635750581
 20
690.48416760042493
 40
3.2000000000000001
 41
1
 50
0
  1
30.5
  0
POINT
  8
_0-2_Defpoints
 62
    7
 10
2946.4629635750579
 20
663.59432085180685
  0
POINT
  8
_0-2_Defpoints
 62
    7
 10
2915.9629635750579
 20
671.11785381283402
  0
POINT
  8
_0-2_Defpoints
 62
    7
 10
2915.9629635750579
 20
689.48416760042493
  0
ENDBLK
  0
BLOCK
  2
-018-_D18
 70
   64
 10
0
 20
0
 30
0
  0
LINE
  8
_0-1_1
  6
CONTINUOUS
 62
    2
 10
2953.4629635750579
 20
659.20342368574495
 11
2953.4629635750579
 21
674.11785381283402
  0
LINE
  8
_0-1_1
  6
CONTINUOUS
 62
    2
 10
2939.4629635750579
 20
659.20342368574495
 11
2939.4629635750579
 21
674.11785381283402
  0
LINE
  8
_0-1_1
  6
CONTINUOUS
 62
    2
 10
2950.2629635750581
 20
673.11785381283391
 11
2942.6629635750578
 21
673.11785381283391
  0
SOLID
  8
_0-1_1
  6
CONTINUOUS
 62
    2
 10
2950.2629635750581
 20
673.65118714616733
 11
2950.2629635750581
 21
672.58452047950072
 12
2953.4629635750579
 22
673.11785381283391
 13
2953.4629635750579
 23
673.11785381283391
  0
SOLID
  8
_0-1_1
  6
CONTINUOUS
 62
    2
 10
2942.6629635750578
 20
673.65118714616733
 11
2942.6629635750578
 21
672.58452047950072
 12
2939.4629635750579
 22
673.11785381283391
 13
2939.4629635750579
 23
673.11785381283391
  0
TEXT
  8
_0-1_1
 62
    7
 10
2944.862963575058
 20
674.11785381283402
 40
3.2000000000000001
 41
1
 50
0
  1
14
  0
POINT
  8
_0-2_Defpoints
 62
    7
 10
2953.4629635750579
 20
658.20342368574506
  0
POINT
  8
_0-2_Defpoints
 62
    7
 10
2939.4629635750579
 20
658.20342368574506
  0
POINT
  8
_0-2_Defpoints
 62
    7
 10
2939.4629635750579
 20
673.11785381283391
  0
ENDBLK
  0
BLOCK
  2
-019-_D19
 70
   64
 10
0
 20
0
 30
0
  0
LINE
  8
_0-1_1
  6
CONTINUOUS
 62
    2
 10
2936.0681038991888
 20
682.01959112726194
 11
2928.4681038991889
 21
682.01959112726194
  0
SOLID
  8
_0-1_1
  6
CONTINUOUS
 62
    2
 10
2936.0681038991888
 20
682.55292446059524
 11
2936.0681038991888
 21
681.48625779392864
 12
2939.2681038991891
 22
682.01959112726194
 13
2939.2681038991891
 23
682.01959112726194
  0
SOLID
  8
_0-1_1
  6
CONTINUOUS
 62
    2
 10
2928.4681038991889
 20
682.55292446059524
 11
2928.4681038991889
 21
681.48625779392864
 12
2925.2681038991891
 22
682.01959112726194
 13
2925.2681038991891
 23
682.01959112726194
  0
TEXT
  8
_0-1_1
 62
    7
 10
2930.6681038991891
 20
683.01959112726183
 40
3.2000000000000001
 41
1
 50
0
  1
14
  0
POINT
  8
_0-2_Defpoints
 62
    7
 10
2939.2681038991891
 20
682.01959112726194
  0
POINT
  8
_0-2_Defpoints
 62
    7
 10
2925.2681038991891
 20
682.01959112726194
  0
POINT
  8
_0-2_Defpoints
 62
    7
 10
2925.2681038991891
 20
682.01959112726194
  0
ENDBLK
  0
BLOCK
  2
-020-_D20
 70
   64
 10
0
 20
0
 30
0
  0
LINE
  8
_0-1_1
  6
CONTINUOUS
 62
    2
 10
2923.1629635750568
 20
669.00165459795289
 11
2923.1629635750568
 21
674.11785381283402
  0
LINE
  8
_0-1_1
  6
CONTINUOUS
 62
    2
 10
2915.9629635750579
 20
672.11785381283402
 11
2915.9629635750579
 21
674.11785381283402
  0
LINE
  8
_0-1_1
  6
CONTINUOUS
 62
    2
 10
2926.3629635750571
 20
673.11785381283391
 11
2929.5629635750578
 21
673.11785381283391
  0
LINE
  8
_0-1_1
  6
CONTINUOUS
 62
    2
 10
2912.762963575059
 20
673.11785381283391
 11
2901.1629635750578
 21
673.11785381283391
  0
LINE
  8
_0-1_1
  6
CONTINUOUS
 62
    2
 10
2923.1629635750568
 20
673.11785381283391
 11
2915.9629635750579
 21
673.11785381283391
  0
SOLID
  8
_0-1_1
  6
CONTINUOUS
 62
    2
 10
2926.3629635750571
 20
673.65118714616733
 11
2926.3629635750571
 21
672.58452047950072
 12
2923.1629635750568
 22
673.11785381283391
 13
2923.1629635750568
 23
673.11785381283391
  0
SOLID
  8
_0-1_1
  6
CONTINUOUS
 62
    2
 10
2912.762963575059
 20
673.65118714616733
 11
2912.762963575059
 21
672.58452047950072
 12
2915.9629635750579
 22
673.11785381283391
 13
2915.9629635750579
 23
673.11785381283391
  0
TEXT
  8
_0-1_1
 62
    7
 10
2902.9629635750579
 20
674.11785381283402
 40
3.2000000000000001
 41
1
 50
0
  1
7.2
  0
POINT
  8
_0-2_Defpoints
 62
    7
 10
2923.1629635750568
 20
668.00165459795289
  0
POINT
  8
_0-2_Defpoints
 62
    7
 10
2915.9629635750579
 20
671.11785381283402
  0
POINT
  8
_0-2_Defpoints
 62
    7
 10
2915.9629635750579
 20
673.11785381283391
  0
ENDBLK
  0
ENDSEC
  0
SECTION
  2
ENTITIES
  0
LINE
  8
_0-1_1
  6
CONTINUOUS
 62
    2
 10
106.19237005417062
 20
246.9823345434853
 11
115.29751037830145
 21
271.99850198500257
  0
LINE
  8
_0-1_1
  6
CONTINUOUS
 62
    2
 10
120.19237005417062
 20
246.9823345434853
 11
129.29751037830146
 21
271.99850198500257
  0
INSERT
  2
-020-_D20
  8
_0-1_1
 10
-2810.3126136642135
 20
-410.96078176304547
 41
1
 42
1
 50
0
  0
INSERT
  2
-019-_D19
  8
_0-1_1
 10
-2810.3126136642135
 20
-410.96078176304547
 41
1
 42
1
 50
0
  0
INSERT
  2
-018-_D18
  8
_0-1_1
 10
-2810.3126136642135
 20
-410.96078176304547
 41
1
 42
1
 50
0
  0
INSERT
  2
-017-_D17
  8
_0-1_1
 10
-2810.3126136642135
 20
-410.96078176304547
 41
1
 42
1
 50
0
  0
INSERT
  2
-010-_D10
  8
_0-1_1
 10
-2810.3126136642135
 20
-410.96078176304547
 41
1
 42
1
 50
0
  0
INSERT
  2
-009-_D9
  8
_0-1_1
 10
-2810.3126136642135
 20
-410.96078176304547
 41
1
 42
1
 50
0
  0
INSERT
  2
-008-_D8
  8
_0-1_1
 10
-2810.3126136642135
 20
-410.96078176304547
 41
1
 42
1
 50
0
  0
INSERT
  2
-007-_D7
  8
_0-1_1
 10
-2810.3126136642135
 20
-410.96078176304547
 41
1
 42
1
 50
0
  0
INSERT
  2
-006-_D6
  8
_0-1_1
 10
-2810.3126136642135
 20
-410.96078176304547
 41
1
 42
1
 50
0
  0
INSERT
  2
-005-_D5
  8
_0-1_1
 10
-2810.3126136642135
 20
-410.96078176304547
 41
1
 42
1
 50
0
  0
INSERT
  2
-004-_D4
  8
_0-1_1
 10
-2810.3126136642135
 20
-410.96078176304547
 41
1
 42
1
 50
0
  0
INSERT
  2
-003-_D3
  8
_0-1_1
 10
-2810.3126136642135
 20
-410.96078176304547
 41
1
 42
1
 50
0
  0
INSERT
  2
-002-_D2
  8
_0-1_1
 10
-2810.3126136642135
 20
-410.96078176304547
 41
1
 42
1
 50
0
  0
INSERT
  2
-001-_D1
  8
_0-1_1
 10
-2810.3126136642135
 20
-410.96078176304547
 41
1
 42
1
 50
0
  0
INSERT
  2
-000-_D0
  8
_0-1_1
 10
-2810.3126136642135
 20
-410.96078176304547
 41
1
 42
1
 50
0
  0
INSERT
  2
-016-_D16
  8
_0-1_1
 10
-2810.3126136642135
 20
-410.96078176304547
 41
1
 42
1
 50
0
  0
INSERT
  2
-015-_D15
  8
_0-1_1
 10
-2810.3126136642135
 20
-410.96078176304547
 41
1
 42
1
 50
0
  0
INSERT
  2
-014-_D14
  8
_0-1_1
 10
-2810.3126136642135
 20
-410.96078176304547
 41
1
 42
1
 50
0
  0
INSERT
  2
-013-_D13
  8
_0-1_1
 10
-2810.3126136642135
 20
-410.96078176304547
 41
1
 42
1
 50
0
  0
INSERT
  2
-012-_D12
  8
_0-1_1
 10
-2810.3126136642135
 20
-410.96078176304547
 41
1
 42
1
 50
0
  0
INSERT
  2
-011-_D11
  8
_0-1_1
 10
-2810.3126136642135
 20
-410.96078176304547
 41
1
 42
1
 50
0
  0
TEXT
  8
_0-1_1
 62
    7
 10
358.07503629549319
 20
76.96730310289621
 40
3.2000000000000001
 41
0.89
 50
0
  1
ハ
  0
TEXT
  8
_0-1_1
 62
    7
 10
273.85075339749846
 20
76.705000409101899
 40
3.2000000000000001
 41
0.89
 50
0
  1
ハ
  0
TEXT
  8
_0-1_1
 62
    7
 10
340.64661499947351
 20
116.26732995467841
 40
3.2000000000000001
 41
0.89
 50
0
  1
イ
  0
TEXT
  8
_0-1_1
 62
    7
 10
345.05168166614021
 20
116.26732995467841
 40
3.2000000000000001
 41
0.89
 50
0
  1
ロ
  0
TEXT
  8
_0-1_1
 62
    7
 10
285.60760895668136
 20
115.83532922660936
 40
3.2000000000000001
 41
0.89
 50
0
  1
イ
  0
TEXT
  8
_0-1_1
 62
    7
 10
290.0126756233476
 20
115.83532922660936
 40
3.2000000000000001
 41
0.89
 50
0
  1
ロ
  0
TEXT
  8
_0-1_1
 62
    7
 10
264.26852223644027
 20
259.50912538999079
 40
3
 41
0.89
 50
0
  1
リモコンは3通りの取付け方法ができます。
  0
TEXT
  8
_0-1_1
 62
    7
 10
265.30108745927236
 20
266.55063378500904
 40
4.5
 41
0.89
 50
0
  1
リモコン取付け寸法図
  0
CIRCLE
  8
_0-3_0_COMPONENTS
  6
CONTINUOUS
 62
    7
 10
349.83567106221244
 20
93.704522049367312
 40
2.15000000000009
  0
CIRCLE
  8
_0-3_0_COMPONENTS
  6
CONTINUOUS
 62
    7
 10
329.83567106221153
 20
93.704522049367312
 40
2.15000000000009
  0
CIRCLE
  8
_0-3_0_COMPONENTS
  6
CONTINUOUS
 62
    7
 10
283.83567106221244
 20
93.704522049367312
 40
2.15000000000009
  0
CIRCLE
  8
_0-3_0_COMPONENTS
  6
CONTINUOUS
 62
    7
 10
303.83567106221244
 20
93.704522049367312
 40
2.15000000000009
  0
CIRCLE
  8
_0-3_0_COMPONENTS
  6
CONTINUOUS
 62
    7
 10
349.83567106221244
 20
194.70452204936725
 40
2.15000000000009
  0
CIRCLE
  8
_0-3_0_COMPONENTS
  6
CONTINUOUS
 62
    7
 10
329.83567106221153
 20
194.70452204936725
 40
2.15000000000009
  0
CIRCLE
  8
_0-3_0_COMPONENTS
  6
CONTINUOUS
 62
    7
 10
283.83567106221244
 20
194.70452204936725
 40
2.15000000000009
  0
CIRCLE
  8
_0-3_0_COMPONENTS
  6
CONTINUOUS
 62
    7
 10
303.83567106221244
 20
194.70452204936725
 40
2.15000000000009
  0
CIRCLE
  8
_0-3_0_COMPONENTS
  6
CONTINUOUS
 62
    7
 10
316.83567106221244
 20
185.95452204936725
 40
2.5
  0
CIRCLE
  8
_0-1_1
  6
CONTINUOUS
 62
    2
 10
359.30916962882747
 20
78.467303102896323
 40
1.8
  0
CIRCLE
  8
_0-1_1
  6
CONTINUOUS
 62
    2
 10
275.08488673083229
 20
78.205000409101899
 40
1.8
  0
CIRCLE
  8
_0-1_1
  6
CONTINUOUS
 62
    2
 10
356.77753244021232
 20
208.70112281381636
 40
1.8
  0
CIRCLE
  8
_0-1_1
  6
CONTINUOUS
 62
    2
 10
276.32130377931525
 20
208.77991877373835
 40
1.8
  0
CIRCLE
  8
_0-1_1
  6
CONTINUOUS
 62
    2
 10
341.88074833280734
 20
117.76732995467853
 40
1.8
  0
CIRCLE
  8
_0-1_1
  6
CONTINUOUS
 62
    2
 10
346.38074833280643
 20
117.76732995467853
 40
1.8
  0
CIRCLE
  8
_0-1_1
  6
CONTINUOUS
 62
    2
 10
286.84174229001428
 20
117.33532922660936
 40
1.8
  0
CIRCLE
  8
_0-1_1
  6
CONTINUOUS
 62
    2
 10
291.34174229001428
 20
117.33532922660936
 40
1.8
  0
CIRCLE
  8
_0-1_1
  6
CONTINUOUS
 62
    2
 10
342.14067659190141
 20
174.33403191159334
 40
1.8
  0
CIRCLE
  8
_0-1_1
  6
CONTINUOUS
 62
    2
 10
346.64067659190141
 20
174.33403191159334
 40
1.8
  0
CIRCLE
  8
_0-1_1
  6
CONTINUOUS
 62
    2
 10
286.75936750676146
 20
174.98762512444329
 40
1.8
  0
CIRCLE
  8
_0-1_1
  6
CONTINUOUS
 62
    2
 10
291.25936750676146
 20
174.98762512444329
 40
1.8
  0
CIRCLE
  8
_0-3_0_COMPONENTS
  6
CONTINUOUS
 62
    7
 10
309.63567106221262
 20
166.70452204936725
 40
3
  0
CIRCLE
  8
_0-1_1
  6
CONTINUOUS
 62
    2
 10
266.06852223644045
 20
255.00912538999079
 40
1.8
  0
CIRCLE
  8
_0-1_1
  6
CONTINUOUS
 62
    2
 10
266.06852223644045
 20
251.20912538999095
 40
1.8
  0
CIRCLE
  8
_0-1_1
  6
CONTINUOUS
 62
    2
 10
266.06852223644045
 20
247.40912538999089
 40
1.8
  0
ARC
  8
_0-3_0_COMPONENTS
  6
CONTINUOUS
 62
    7
 10
120.35034991084421
 20
244.54264192269954
 40
0.5
 50
180
 51
191.54760892848798
  0
ARC
  8
_0-3_0_COMPONENTS
  6
CONTINUOUS
 62
    7
 10
105.3503499108433
 20
244.54264192269954
 40
0.5000000000003801
 50
348.45239107290439
 51
0
  0
ARC
  8
_0-3_0_COMPONENTS
  6
CONTINUOUS
 62
    7
 10
119.35034991084421
 20
245.54264192269943
 40
0.5
 50
0
 51
90
  0
ARC
  8
_0-3_0_COMPONENTS
  6
CONTINUOUS
 62
    7
 10
106.35034991084421
 20
245.54264192269943
 40
0.5
 50
90
 51
180
  0
ARC
  8
_0-3_0_COMPONENTS
  6
CONTINUOUS
 62
    7
 10
51.413548131444258
 20
234.46672373949934
 40
3.4999999999999298
 50
181.99999807170792
 51
221.13484636140472
  0
ARC
  8
_0-3_0_COMPONENTS
  6
CONTINUOUS
 62
    7
 10
159.88715169004444
 20
234.46672373869932
 40
3.499999999998999
 50
318.86514979639997
 51
358.00000191629931
  0
ARC
  8
_0-3_0_COMPONENTS
  6
CONTINUOUS
 62
    7
 10
56.309109867844199
 20
238.74264192269959
 40
9.9999999999998792
 50
221.1348534881076
 51
270
  0
ARC
  8
_0-3_0_COMPONENTS
  6
CONTINUOUS
 62
    7
 10
154.9915899538455
 20
238.74264192269959
 40
10
 50
270
 51
318.86514644490029
  0
ARC
  8
_0-3_0_COMPONENTS
  6
CONTINUOUS
 62
    7
 10
115.07322609004359
 20
250.54264192269954
 40
0.4999999999968199
 50
32.005383208083486
 51
90
  0
ARC
  8
_0-3_0_COMPONENTS
  6
CONTINUOUS
 62
    7
 10
110.62747373164438
 20
250.54264192269954
 40
0.5
 50
90
 51
147.99461679191654
  0
ARC
  8
_0-3_0_COMPONENTS
  6
CONTINUOUS
 62
    7
 10
291.83567106221244
 20
102.45452204936735
 40
2.15000000000009
 50
90
 51
270
  0
ARC
  8
_0-3_0_COMPONENTS
  6
CONTINUOUS
 62
    7
 10
295.83567106221244
 20
102.45452204936735
 40
2.149999999999919
 50
270
 51
90
  0
ARC
  8
_0-3_0_COMPONENTS
  6
CONTINUOUS
 62
    7
 10
337.83567106221244
 20
185.95452204936725
 40
2.15000000000009
 50
90
 51
270
  0
ARC
  8
_0-3_0_COMPONENTS
  6
CONTINUOUS
 62
    7
 10
341.83567106221244
 20
185.95452204936725
 40
2.149999999999979
 50
270
 51
90
  0
ARC
  8
_0-3_0_COMPONENTS
  6
CONTINUOUS
 62
    7
 10
291.83567106221244
 20
185.95452204936725
 40
2.15000000000009
 50
90
 51
270
  0
ARC
  8
_0-3_0_COMPONENTS
  6
CONTINUOUS
 62
    7
 10
295.83567106221244
 20
185.95452204936725
 40
2.149999999999979
 50
270
 51
90
  0
ARC
  8
_0-3_0_COMPONENTS
  6
CONTINUOUS
 62
    7
 10
337.83567106221244
 20
102.45452204936735
 40
2.15000000000009
 50
90
 51
270
  0
ARC
  8
_0-3_0_COMPONENTS
  6
CONTINUOUS
 62
    7
 10
341.83567106221244
 20
102.45452204936735
 40
2.149999999999919
 50
270
 51
90
  0
ARC
  8
_0-3_0_COMPONENTS
  6
CONTINUOUS
 62
    7
 10
314.83567106221244
 20
102.45452204936735
 40
2.5
 50
90
 51
270
  0
ARC
  8
_0-3_0_COMPONENTS
  6
CONTINUOUS
 62
    7
 10
318.83567106221244
 20
102.45452204936735
 40
2.4999999999999391
 50
270
 51
90
  0
ARC
  8
_0-3_0_COMPONENTS
  6
CONTINUOUS
 62
    7
 10
266.83567106221244
 20
92.204522049367312
 40
8
 50
180
 51
270
  0
ARC
  8
_0-3_0_COMPONENTS
  6
CONTINUOUS
 62
    7
 10
266.83567106221244
 20
196.20452204936725
 40
8
 50
90
 51
180
  0
ARC
  8
_0-3_0_COMPONENTS
  6
CONTINUOUS
 62
    7
 10
366.83567106221244
 20
92.204522049367312
 40
8
 50
270
 51
0
  0
ARC
  8
_0-3_0_COMPONENTS
  6
CONTINUOUS
 62
    7
 10
303.83567106221244
 20
93.704522049367312
 40
4.15000000000009
 50
180
 51
0
  0
ARC
  8
_0-3_0_COMPONENTS
  6
CONTINUOUS
 62
    7
 10
366.83567106221244
 20
196.20452204936725
 40
8
 50
0
 51
90
  0
ARC
  8
_0-3_0_COMPONENTS
  6
CONTINUOUS
 62
    7
 10
283.83567106221244
 20
93.704522049367312
 40
4.1499999999684193
 50
188.41111944570741
 51
0
  0
ARC
  8
_0-3_0_COMPONENTS
  6
CONTINUOUS
 62
    7
 10
329.83567106221153
 20
93.704522049367312
 40
4.15000000000009
 50
180
 51
0
  0
ARC
  8
_0-3_0_COMPONENTS
  6
CONTINUOUS
 62
    7
 10
349.83567106221244
 20
93.704522049367312
 40
4.15000000000009
 50
180
 51
351.5888805544946
  0
ARC
  8
_0-3_0_COMPONENTS
  6
CONTINUOUS
 62
    7
 10
303.83567106221244
 20
194.70452204936725
 40
4.15000000000009
 50
0
 51
180
  0
ARC
  8
_0-3_0_COMPONENTS
  6
CONTINUOUS
 62
    7
 10
283.83567106221244
 20
194.70452204936725
 40
4.15000000000009
 50
0
 51
171.5888805542925
  0
ARC
  8
_0-3_0_COMPONENTS
  6
CONTINUOUS
 62
    7
 10
329.83567106221153
 20
194.70452204936725
 40
4.15000000000009
 50
0
 51
180
  0
ARC
  8
_0-3_0_COMPONENTS
  6
CONTINUOUS
 62
    7
 10
349.83567106221244
 20
194.70452204936725
 40
4.1500000000512002
 50
10.819500432216978
 51
180
  0
ARC
  8
_0-3_0_COMPONENTS
  6
CONTINUOUS
 62
    7
 10
329.83567106221153
 20
93.704522049367312
 40
6.4441125496997093
 50
164.2425430194994
 51
248.60418023035958
  0
ARC
  8
_0-3_0_COMPONENTS
  6
CONTINUOUS
 62
    7
 10
349.83567106221244
 20
194.70452204936725
 40
6.44411254970026
 50
314.91612113019721
 51
68.604180230359588
  0
ARC
  8
_0-3_0_COMPONENTS
  6
CONTINUOUS
 62
    7
 10
283.83567106221244
 20
194.70452204936725
 40
6.4441125496948492
 50
111.39581976964038
 51
225.08387886980278
  0
ARC
  8
_0-3_0_COMPONENTS
  6
CONTINUOUS
 62
    7
 10
283.83567106221244
 20
93.704522049367312
 40
6.4441125496948492
 50
291.39581976964041
 51
21.865743538503938
  0
ARC
  8
_0-3_0_COMPONENTS
  6
CONTINUOUS
 62
    7
 10
303.83567106221244
 20
93.704522049367312
 40
6.444112549700308
 50
158.13425646149761
 51
248.60418023035958
  0
ARC
  8
_0-3_0_COMPONENTS
  6
CONTINUOUS
 62
    7
 10
329.83567106221153
 20
93.704522049367312
 40
6.4441125496948492
 50
291.39581976964041
 51
21.865743538503938
  0
ARC
  8
_0-3_0_COMPONENTS
  6
CONTINUOUS
 62
    7
 10
283.83567106221244
 20
93.704522049367312
 40
6.4441125496996898
 50
134.91612113020221
 51
248.60418023035958
  0
ARC
  8
_0-3_0_COMPONENTS
  6
CONTINUOUS
 62
    7
 10
349.83567106221244
 20
194.70452204936725
 40
6.4441125496948492
 50
111.39581976964038
 51
195.29605816570506
  0
ARC
  8
_0-3_0_COMPONENTS
  6
CONTINUOUS
 62
    7
 10
291.83567106221244
 20
102.45452204936735
 40
3.9499999999987891
 50
154.5083377582797
 51
180
  0
ARC
  8
_0-3_0_COMPONENTS
  6
CONTINUOUS
 62
    7
 10
295.83567106221244
 20
102.45452204936735
 40
3.9499999999998189
 50
0
 51
25.491662241720323
  0
ARC
  8
_0-3_0_COMPONENTS
  6
CONTINUOUS
 62
    7
 10
337.83567106221244
 20
102.45452204936735
 40
3.9499999999987891
 50
154.5083377582797
 51
180
  0
ARC
  8
_0-3_0_COMPONENTS
  6
CONTINUOUS
 62
    7
 10
341.83567106221244
 20
102.45452204936735
 40
3.9499999999998189
 50
0
 51
25.491662241720323
  0
ARC
  8
_0-3_0_COMPONENTS
  6
CONTINUOUS
 62
    7
 10
337.83567106221244
 20
185.95452204936725
 40
4.65000000000009
 50
180
 51
201.44398286492517
  0
ARC
  8
_0-3_0_COMPONENTS
  6
CONTINUOUS
 62
    7
 10
266.83567106221244
 20
92.204522049367312
 40
6.5
 50
180
 51
270
  0
ARC
  8
_0-3_0_COMPONENTS
  6
CONTINUOUS
 62
    7
 10
266.83567106221244
 20
92.204522049367312
 40
4.75
 50
180
 51
270
  0
ARC
  8
_0-3_0_COMPONENTS
  6
CONTINUOUS
 62
    7
 10
341.83567106221244
 20
185.95452204936725
 40
4.6500000000399888
 50
338.5560171355255
 51
0.0000000000000254
  0
ARC
  8
_0-3_0_COMPONENTS
  6
CONTINUOUS
 62
    7
 10
291.83567106221244
 20
185.95452204936725
 40
3.9499999999998189
 50
180
 51
205.49166224171881
  0
ARC
  8
_0-3_0_COMPONENTS
  6
CONTINUOUS
 62
    7
 10
295.83567106221244
 20
185.95452204936725
 40
3.9499999999987389
 50
334.50833775828107
 51
0.0000000000000858
  0
ARC
  8
_0-3_0_COMPONENTS
  6
CONTINUOUS
 62
    7
 10
329.83567106221153
 20
194.70452204936725
 40
6.4441125496996791
 50
344.70394183429482
 51
68.604180230359588
  0
ARC
  8
_0-3_0_COMPONENTS
  6
CONTINUOUS
 62
    7
 10
329.83567106221153
 20
194.70452204936725
 40
6.4441125496948492
 50
111.39581976964038
 51
195.7574569805005
  0
ARC
  8
_0-3_0_COMPONENTS
  6
CONTINUOUS
 62
    7
 10
349.83567106221244
 20
93.704522049367312
 40
6.444112549700308
 50
158.13425646149761
 51
248.60418023035958
  0
ARC
  8
_0-3_0_COMPONENTS
  6
CONTINUOUS
 62
    7
 10
303.83567106221244
 20
93.704522049367312
 40
6.4441125496948492
 50
291.39581976964041
 51
15.757456980500599
  0
ARC
  8
_0-3_0_COMPONENTS
  6
CONTINUOUS
 62
    7
 10
366.83567106221244
 20
92.204522049367312
 40
6.5
 50
270
 51
0
  0
ARC
  8
_0-3_0_COMPONENTS
  6
CONTINUOUS
 62
    7
 10
366.83567106221244
 20
92.204522049367312
 40
4.75
 50
270
 51
0
  0
ARC
  8
_0-3_0_COMPONENTS
  6
CONTINUOUS
 62
    7
 10
366.83567106221244
 20
196.20452204936725
 40
6.5
 50
0
 51
90
  0
ARC
  8
_0-3_0_COMPONENTS
  6
CONTINUOUS
 62
    7
 10
366.83567106221244
 20
196.20452204936725
 40
4.75
 50
0
 51
90
  0
ARC
  8
_0-3_0_COMPONENTS
  6
CONTINUOUS
 62
    7
 10
303.83567106221244
 20
194.70452204936725
 40
6.4441125496997093
 50
344.2425430194994
 51
68.604180230359588
  0
ARC
  8
_0-3_0_COMPONENTS
  6
CONTINUOUS
 62
    7
 10
303.83567106221244
 20
194.70452204936725
 40
6.4441125496948492
 50
111.39581976964038
 51
201.8657435385019
  0
ARC
  8
_0-3_0_COMPONENTS
  6
CONTINUOUS
 62
    7
 10
266.83567106221244
 20
196.20452204936725
 40
6.5
 50
90
 51
180
  0
ARC
  8
_0-3_0_COMPONENTS
  6
CONTINUOUS
 62
    7
 10
266.83567106221244
 20
196.20452204936725
 40
4.75
 50
90
 51
180
  0
ARC
  8
_0-3_0_COMPONENTS
  6
CONTINUOUS
 62
    7
 10
283.83567106221244
 20
194.70452204936725
 40
6.4441125496998612
 50
338.13425646149659
 51
68.604180230359574
  0
ARC
  8
_0-3_0_COMPONENTS
  6
CONTINUOUS
 62
    7
 10
349.83567106221244
 20
93.704522049367312
 40
6.4441125496948492
 50
291.39581976964041
 51
45.083878869797786
  0
ARC
  8
_0-3_0_COMPONENTS
  6
CONTINUOUS
 62
    7
 10
270.08567106221244
 20
110.95452204936735
 40
1
 50
180
 51
270
  0
ARC
  8
_0-3_0_COMPONENTS
  6
CONTINUOUS
 62
    7
 10
363.58567106221244
 20
110.95452204936735
 40
1
 50
270
 51
0
  0
ARC
  8
_0-3_0_COMPONENTS
  6
CONTINUOUS
 62
    7
 10
363.58567106221244
 20
177.45452204936725
 40
1
 50
0
 51
90
  0
ARC
  8
_0-3_0_COMPONENTS
  6
CONTINUOUS
 62
    7
 10
270.08567106221244
 20
177.45452204936725
 40
1
 50
90
 51
180
  0
ARC
  8
_0-3_0_COMPONENTS
  6
CONTINUOUS
 62
    7
 10
303.63567106221262
 20
172.20452204936725
 40
1
 50
90
 51
180
  0
ARC
  8
_0-3_0_COMPONENTS
  6
CONTINUOUS
 62
    7
 10
315.63567106221353
 20
172.20452204936725
 40
1
 50
0
 51
90
  0
ARC
  8
_0-3_0_COMPONENTS
  6
CONTINUOUS
 62
    7
 10
303.63567106221262
 20
150.20452204936736
 40
1
 50
180
 51
270
  0
ARC
  8
_0-3_0_COMPONENTS
  6
CONTINUOUS
 62
    7
 10
315.63567106221353
 20
150.20452204936736
 40
1
 50
270
 51
0
  0
ARC
  8
_0-3_0_COMPONENTS
  6
CONTINUOUS
 62
    7
 10
309.63567106221262
 20
163.27452204936741
 40
8.4299999999997972
 50
55.291950727478678
 51
124.70804927252379
  0
ARC
  8
_0-3_0_COMPONENTS
  6
CONTINUOUS
 62
    7
 10
200.62403924541149
 20
168.92739822856742
 40
0.5
 50
0
 51
57.99461679191237
  0
ARC
  8
_0-3_0_COMPONENTS
  6
CONTINUOUS
 62
    7
 10
200.62403924541149
 20
164.48164587016731
 40
0.49999999999698
 50
302.00538320808766
 51
0.0000000000000381
  0
ARC
  8
_0-3_0_COMPONENTS
  6
CONTINUOUS
 62
    7
 10
199.62403924541149
 20
156.20452204936725
 40
2.5
 50
180
 51
36.869897645843991
  0
ARC
  8
_0-3_0_COMPONENTS
  6
CONTINUOUS
 62
    7
 10
199.62403924541149
 20
156.20452204936725
 40
3.5
 50
180
 51
36.869897645847004
  0
ARC
  8
_0-3_0_COMPONENTS
  6
CONTINUOUS
 62
    7
 10
195.62403924541149
 20
149.70452204936736
 40
0.5
 50
270
 51
0
  0
ARC
  8
_0-3_0_COMPONENTS
  6
CONTINUOUS
 62
    7
 10
195.62403924541149
 20
172.70452204936725
 40
0.5
 50
0
 51
90
  0
ARC
  8
_0-3_0_COMPONENTS
  6
CONTINUOUS
 62
    7
 10
194.62403924541149
 20
173.70452204936725
 40
0.5000000000001798
 50
258.45239107288642
 51
270
  0
ARC
  8
_0-3_0_COMPONENTS
  6
CONTINUOUS
 62
    7
 10
194.62403924541149
 20
148.70452204936736
 40
0.5
 50
90
 51
101.5476089284854
  0
ARC
  8
_0-3_0_COMPONENTS
  6
CONTINUOUS
 62
    7
 10
184.86942762740955
 20
88.140743787306121
 40
3.685670309429839
 50
213.57051403655151
 51
269.65569133562701
  0
ARC
  8
_0-3_0_COMPONENTS
  6
CONTINUOUS
 62
    7
 10
199.62403924541149
 20
97.204522049367312
 40
21
 50
180
 51
211.91482270210838
  0
ARC
  8
_0-3_0_COMPONENTS
  6
CONTINUOUS
 62
    7
 10
184.86942762740955
 20
200.26830031142867
 40
3.685670309463259
 50
90.344308664372974
 51
146.42948596344621
  0
ARC
  8
_0-3_0_COMPONENTS
  6
CONTINUOUS
 62
    7
 10
199.62403924541149
 20
191.20452204936725
 40
20.99999999991386
 50
148.0851772978915
 51
180
  0
LINE
  8
_0-3_0_COMPONENTS
  6
CONTINUOUS
 62
    7
 10
105.85034991084421
 20
245.54264192269943
 11
105.85034991084421
 21
244.54264192269954
  0
LINE
  8
_0-3_0_COMPONENTS
  6
CONTINUOUS
 62
    7
 10
119.8503499108433
 20
245.54264192269943
 11
119.8503499108433
 21
244.54264192269954
  0
LINE
  8
_0-3_0_COMPONENTS
  6
CONTINUOUS
 62
    7
 10
106.35034991084421
 20
246.04264192269954
 11
119.35034991084421
 21
246.04264192269954
  0
LINE
  8
_0-1_1
  6
CENTER2
 62
    3
 10
112.8503499108433
 20
257.04087283490741
 11
112.8503499108433
 21
238.90084169421959
  0
LINE
  8
_0-1_1
  6
CENTER2
 62
    3
 10
136.15034991084439
 20
252.63353908876138
 11
136.15034991084439
 21
237.73564312741052
  0
LINE
  8
_0-1_1
  6
CENTER2
 62
    3
 10
105.65034991084438
 20
260.15707204978855
 11
105.65034991084438
 21
222.7424516090623
  0
LINE
  8
_0-3_0_COMPONENTS
  6
CONTINUOUS
 62
    7
 10
162.65034991084439
 20
242.4426419226994
 11
162.55034991084448
 21
241.94264192269929
  0
LINE
  8
_0-3_0_COMPONENTS
  6
CONTINUOUS
 62
    7
 10
163.65034991084439
 20
241.94264192269929
 11
163.38501958884444
 21
234.34457561869942
  0
LINE
  8
_0-3_0_COMPONENTS
  6
CONTINUOUS
 62
    7
 10
163.65034991084439
 20
244.44264192269929
 11
163.65034991084439
 21
242.4426419226994
  0
LINE
  8
_0-3_0_COMPONENTS
  6
CONTINUOUS
 62
    7
 10
143.15034991084439
 20
244.44264192269929
 11
143.15034991084439
 21
247.24264192269959
  0
LINE
  8
_0-3_0_COMPONENTS
  6
CONTINUOUS
 62
    7
 10
129.15034991084439
 20
244.44264192269929
 11
129.15034991084439
 21
247.24264192269959
  0
LINE
  8
_0-3_0_COMPONENTS
  6
CONTINUOUS
 62
    7
 10
115.85034991084421
 20
250.24264192269947
 11
115.49722524204344
 21
250.80764139269933
  0
LINE
  8
_0-3_0_COMPONENTS
  6
CONTINUOUS
 62
    7
 10
117.65034991084438
 20
253.04264192269954
 11
108.05034991084447
 21
253.04264192269954
  0
LINE
  8
_0-3_0_COMPONENTS
  6
CONTINUOUS
 62
    7
 10
110.62747373164438
 20
251.04264192269954
 11
115.07322609004359
 21
251.04264192269954
  0
LINE
  8
_0-3_0_COMPONENTS
  6
CONTINUOUS
 62
    7
 10
110.20347457964453
 20
250.80764139269933
 11
115.49722524204344
 21
250.80764139269933
  0
LINE
  8
_0-3_0_COMPONENTS
  6
CONTINUOUS
 62
    7
 10
109.8503499108433
 20
250.24264192269947
 11
115.85034991084421
 21
250.24264192269947
  0
LINE
  8
_0-3_0_COMPONENTS
  6
CONTINUOUS
 62
    7
 10
117.65034991084438
 20
249.04264192269954
 11
108.05034991084447
 21
249.04264192269954
  0
LINE
  8
_0-3_0_COMPONENTS
  6
CONTINUOUS
 62
    7
 10
117.65034991084438
 20
246.04264192269954
 11
117.65034991084438
 21
253.04262633789937
  0
LINE
  8
_0-3_0_COMPONENTS
  6
CONTINUOUS
 62
    7
 10
115.85034991084421
 20
249.04264192269954
 11
115.85034991084421
 21
250.24264192269947
  0
LINE
  8
_0-3_0_COMPONENTS
  6
CONTINUOUS
 62
    7
 10
129.15034991084439
 20
247.24264192269959
 11
143.15034991084439
 21
247.24264192269959
  0
LINE
  8
_0-3_0_COMPONENTS
  6
CONTINUOUS
 62
    7
 10
47.650349910844397
 20
244.44264192269929
 11
163.65034991084439
 21
244.44264192269929
  0
LINE
  8
_0-3_0_COMPONENTS
  6
CONTINUOUS
 62
    7
 10
109.8503499108433
 20
249.04264192269954
 11
109.8503499108433
 21
250.24264192269947
  0
LINE
  8
_0-3_0_COMPONENTS
  6
CONTINUOUS
 62
    7
 10
108.05034991084447
 20
246.04264192269954
 11
108.05034991084447
 21
253.04262633789937
  0
LINE
  8
_0-3_0_COMPONENTS
  6
CONTINUOUS
 62
    7
 10
47.650349910844397
 20
242.4426419226994
 11
163.65034991084439
 21
242.4426419226994
  0
LINE
  8
_0-3_0_COMPONENTS
  6
CONTINUOUS
 62
    7
 10
47.650349910844397
 20
241.94264192269929
 11
163.65034991084439
 21
241.94264192269929
  0
LINE
  8
_0-3_0_COMPONENTS
  6
CONTINUOUS
 62
    7
 10
109.8503499108433
 20
250.24264192269947
 11
110.20347457964453
 21
250.80764139269933
  0
LINE
  8
_0-3_0_COMPONENTS
  6
CONTINUOUS
 62
    7
 10
56.309109867844199
 20
228.74264192269947
 11
154.9915899538455
 21
228.74264192269947
  0
LINE
  8
_0-3_0_COMPONENTS
  6
CONTINUOUS
 62
    7
 10
48.750349910844306
 20
241.94264192269929
 11
48.650349910844397
 21
242.4426419226994
  0
LINE
  8
_0-3_0_COMPONENTS
  6
CONTINUOUS
 62
    7
 10
47.650349910844397
 20
242.4426419226994
 11
47.650349910844397
 21
244.44264192269929
  0
LINE
  8
_0-3_0_COMPONENTS
  6
CONTINUOUS
 62
    7
 10
47.915680232844351
 20
234.34457561729936
 11
47.650349910844397
 21
241.94264192269929
  0
LINE
  8
_0-1_1
  6
PHANTOM2
 62
    1
 10
268.33567106221244
 20
191.70452204936725
 11
365.33567106221244
 21
191.70452204936725
  0
LINE
  8
_0-1_1
  6
PHANTOM2
 62
    1
 10
268.33567106221244
 20
191.70452204936725
 11
268.33567106221244
 21
182.20452204936725
  0
LINE
  8
_0-1_1
  6
PHANTOM2
 62
    1
 10
268.33567106221244
 20
182.20452204936725
 11
365.33567106221244
 21
182.20452204936725
  0
LINE
  8
_0-1_1
  6
PHANTOM2
 62
    1
 10
365.33567106221244
 20
182.20452204936725
 11
365.33567106221244
 21
191.70452204936725
  0
LINE
  8
_0-1_1
  6
PHANTOM2
 62
    1
 10
268.33567106221244
 20
182.20452204936725
 11
268.33567106221244
 21
106.20452204936735
  0
LINE
  8
_0-1_1
  6
PHANTOM2
 62
    1
 10
365.33567106221244
 20
106.20452204936735
 11
365.33567106221244
 21
182.20452204936725
  0
LINE
  8
_0-1_1
  6
PHANTOM2
 62
    1
 10
268.33567106221244
 20
106.20452204936735
 11
365.33567106221244
 21
106.20452204936735
  0
LINE
  8
_0-1_1
  6
PHANTOM2
 62
    1
 10
268.33567106221244
 20
96.704522049367312
 11
365.33567106221244
 21
96.704522049367312
  0
LINE
  8
_0-1_1
  6
PHANTOM2
 62
    1
 10
268.33567106221244
 20
106.20452204936735
 11
268.33567106221244
 21
96.704522049367312
  0
LINE
  8
_0-1_1
  6
PHANTOM2
 62
    1
 10
365.33567106221244
 20
96.704522049367312
 11
365.33567106221244
 21
106.20452204936735
  0
LINE
  8
_0-3_0_COMPONENTS
  6
CONTINUOUS
 62
    7
 10
368.73567106221253
 20
142.20452204936736
 11
368.73567106221253
 21
141.70452204936736
  0
LINE
  8
_0-3_0_COMPONENTS
  6
CONTINUOUS
 62
    7
 10
264.93567106221235
 20
146.20452204936736
 11
264.93567106221235
 21
146.70452204936736
  0
LINE
  8
_0-3_0_COMPONENTS
  6
CONTINUOUS
 62
    7
 10
276.83567106221244
 20
198.70452204936725
 11
277.33567106221244
 21
198.70452204936725
  0
LINE
  8
_0-3_0_COMPONENTS
  6
CONTINUOUS
 62
    7
 10
318.83567106221244
 20
198.70452204936725
 11
319.33567106221244
 21
198.70452204936725
  0
LINE
  8
_0-3_0_COMPONENTS
  6
CONTINUOUS
 62
    7
 10
360.83567106221244
 20
198.70452204936725
 11
361.33567106221244
 21
198.70452204936725
  0
LINE
  8
_0-3_0_COMPONENTS
  6
CONTINUOUS
 62
    7
 10
356.83567106221244
 20
89.704522049367312
 11
356.33567106221244
 21
89.704522049367312
  0
LINE
  8
_0-3_0_COMPONENTS
  6
CONTINUOUS
 62
    7
 10
314.83567106221244
 20
89.704522049367312
 11
314.33567106221244
 21
89.704522049367312
  0
LINE
  8
_0-3_0_COMPONENTS
  6
CONTINUOUS
 62
    7
 10
272.83567106221244
 20
89.704522049367312
 11
272.33567106221244
 21
89.704522049367312
  0
LINE
  8
_0-3_0_COMPONENTS
  6
CONTINUOUS
 62
    7
 10
271.13567106221262
 20
178.45452204936725
 11
270.08567106221244
 21
178.45452204936725
  0
LINE
  8
_0-3_0_COMPONENTS
  6
CONTINUOUS
 62
    7
 10
271.13567106221262
 20
109.95452204936735
 11
362.53567106221225
 21
109.95452204936735
  0
LINE
  8
_0-3_0_COMPONENTS
  6
CONTINUOUS
 62
    7
 10
271.13567106221262
 20
109.95452204936735
 11
271.13567106221262
 21
178.45452204936725
  0
LINE
  8
_0-3_0_COMPONENTS
  6
CONTINUOUS
 62
    7
 10
362.53567106221225
 20
178.45452204936725
 11
271.13567106221262
 21
178.45452204936725
  0
LINE
  8
_0-3_0_COMPONENTS
  6
CONTINUOUS
 62
    7
 10
362.53567106221225
 20
109.95452204936735
 11
363.58567106221244
 21
109.95452204936735
  0
LINE
  8
_0-3_0_COMPONENTS
  6
CONTINUOUS
 62
    7
 10
362.53567106221225
 20
178.45452204936725
 11
362.53567106221225
 21
109.95452204936735
  0
LINE
  8
_0-1_1
  6
CENTER2
 62
    3
 10
316.83567106221244
 20
79.003004204967453
 11
316.83567106221244
 21
209.40603989376734
  0
LINE
  8
_0-3_0_COMPONENTS
  6
CONTINUOUS
 62
    7
 10
258.83567106221244
 20
196.20452204936725
 11
258.83567106221244
 21
92.204522049367312
  0
LINE
  8
_0-3_0_COMPONENTS
  6
CONTINUOUS
 62
    7
 10
260.33567106221244
 20
196.20452204936725
 11
260.33567106221244
 21
92.204522049367312
  0
LINE
  8
_0-3_0_COMPONENTS
  6
CONTINUOUS
 62
    7
 10
366.83567106221244
 20
84.204522049367312
 11
266.83567106221244
 21
84.204522049367312
  0
LINE
  8
_0-3_0_COMPONENTS
  6
CONTINUOUS
 62
    7
 10
266.83567106221244
 20
85.704522049367312
 11
366.83567106221244
 21
85.704522049367312
  0
LINE
  8
_0-3_0_COMPONENTS
  6
CONTINUOUS
 62
    7
 10
272.33567106221244
 20
87.204522049367312
 11
277.33567106221244
 21
87.204522049367312
  0
LINE
  8
_0-3_0_COMPONENTS
  6
CONTINUOUS
 62
    7
 10
314.33567106221244
 20
87.204522049367312
 11
319.33567106221244
 21
87.204522049367312
  0
LINE
  8
_0-3_0_COMPONENTS
  6
CONTINUOUS
 62
    7
 10
356.33567106221244
 20
87.204522049367312
 11
361.33567106221244
 21
87.204522049367312
  0
LINE
  8
_0-3_0_COMPONENTS
  6
CONTINUOUS
 62
    7
 10
266.83567106221244
 20
87.454522049367312
 11
272.03567106221225
 21
87.454522049367312
  0
LINE
  8
_0-3_0_COMPONENTS
  6
CONTINUOUS
 62
    7
 10
361.63567106221262
 20
87.454522049367312
 11
366.83567106221244
 21
87.454522049367312
  0
LINE
  8
_0-3_0_COMPONENTS
  6
CONTINUOUS
 62
    7
 10
272.03567106221225
 20
87.704522049367312
 11
272.33567106221244
 21
87.704522049367312
  0
LINE
  8
_0-3_0_COMPONENTS
  6
CONTINUOUS
 62
    7
 10
277.33567106221244
 20
87.704522049367312
 11
281.48480174361247
 21
87.704522049367312
  0
LINE
  8
_0-3_0_COMPONENTS
  6
CONTINUOUS
 62
    7
 10
286.18654038081331
 20
87.704522049367312
 11
301.48480174361247
 21
87.704522049367312
  0
LINE
  8
_0-3_0_COMPONENTS
  6
CONTINUOUS
 62
    7
 10
306.18654038081331
 20
87.704522049367312
 11
314.33567106221244
 21
87.704522049367312
  0
LINE
  8
_0-3_0_COMPONENTS
  6
CONTINUOUS
 62
    7
 10
319.33567106221244
 20
87.704522049367312
 11
327.48480174361247
 21
87.704522049367312
  0
LINE
  8
_0-3_0_COMPONENTS
  6
CONTINUOUS
 62
    7
 10
332.1865403808124
 20
87.704522049367312
 11
347.48480174361247
 21
87.704522049367312
  0
LINE
  8
_0-3_0_COMPONENTS
  6
CONTINUOUS
 62
    7
 10
352.1865403808124
 20
87.704522049367312
 11
356.33567106221244
 21
87.704522049367312
  0
LINE
  8
_0-3_0_COMPONENTS
  6
CONTINUOUS
 62
    7
 10
361.33567106221244
 20
87.704522049367312
 11
361.63567106221262
 21
87.704522049367312
  0
LINE
  8
_0-3_0_COMPONENTS
  6
CONTINUOUS
 62
    7
 10
262.08567106221244
 20
196.20452204936725
 11
262.08567106221244
 21
92.204522049367312
  0
LINE
  8
_0-3_0_COMPONENTS
  6
CONTINUOUS
 62
    7
 10
262.43567106221235
 20
146.70452204936736
 11
262.43567106221235
 21
141.70452204936736
  0
LINE
  8
_0-3_0_COMPONENTS
  6
CONTINUOUS
 62
    7
 10
264.93567106221235
 20
141.70452204936736
 11
264.93567106221235
 21
142.20452204936736
  0
LINE
  8
_0-3_0_COMPONENTS
  6
CONTINUOUS
 62
    7
 10
361.33567106221244
 20
89.704522049367312
 11
360.83567106221244
 21
89.704522049367312
  0
LINE
  8
_0-3_0_COMPONENTS
  6
CONTINUOUS
 62
    7
 10
319.33567106221244
 20
89.704522049367312
 11
318.83567106221244
 21
89.704522049367312
  0
LINE
  8
_0-3_0_COMPONENTS
  6
CONTINUOUS
 62
    7
 10
277.33567106221244
 20
89.704522049367312
 11
276.83567106221244
 21
89.704522049367312
  0
LINE
  8
_0-1_1
  6
CENTER2
 62
    3
 10
361.27978361191344
 20
93.704522049367312
 11
338.39155851261239
 21
93.704522049367312
  0
LINE
  8
_0-1_1
  6
CENTER2
 62
    3
 10
338.39155851261239
 20
93.704522049367312
 11
318.39155851261239
 21
93.704522049367312
  0
LINE
  8
_0-1_1
  6
CENTER2
 62
    3
 10
315.27978361191253
 20
93.704522049367199
 11
292.39155851261239
 21
93.704522049367312
  0
LINE
  8
_0-1_1
  6
CENTER2
 62
    3
 10
292.39155851261239
 20
93.704522049367312
 11
272.39155851261239
 21
93.704522049367312
  0
LINE
  8
_0-3_0_COMPONENTS
  6
CONTINUOUS
 62
    7
 10
267.63567106221353
 20
141.70452204936736
 11
267.63567106221353
 21
146.70452204936736
  0
LINE
  8
_0-3_0_COMPONENTS
  6
CONTINUOUS
 62
    7
 10
268.83567106221153
 20
109.70452204936735
 11
268.83567106221153
 21
178.70452204936725
  0
LINE
  8
_0-3_0_COMPONENTS
  6
CONTINUOUS
 62
    7
 10
271.13567106221262
 20
179.9045220493673
 11
271.13567106221262
 21
178.70452204936725
  0
LINE
  8
_0-3_0_COMPONENTS
  6
CONTINUOUS
 62
    7
 10
271.13567106221262
 20
109.70452204936735
 11
271.13567106221262
 21
108.50452204936742
  0
LINE
  8
_0-3_0_COMPONENTS
  6
CONTINUOUS
 62
    7
 10
272.03567106221225
 20
87.454522049367312
 11
272.03567106221225
 21
108.50452204936742
  0
LINE
  8
_0-3_0_COMPONENTS
  6
CONTINUOUS
 62
    7
 10
272.03567106221225
 20
179.9045220493673
 11
272.03567106221225
 21
200.95452204936725
  0
LINE
  8
_0-3_0_COMPONENTS
  6
CONTINUOUS
 62
    7
 10
272.33567106221244
 20
87.204522049367312
 11
272.33567106221244
 21
89.704522049367312
  0
LINE
  8
_0-3_0_COMPONENTS
  6
CONTINUOUS
 62
    7
 10
272.33567106221244
 20
198.70452204936725
 11
272.33567106221244
 21
201.20452204936725
  0
LINE
  8
_0-3_0_COMPONENTS
  6
CONTINUOUS
 62
    7
 10
279.73030861221241
 20
195.31156336086723
 11
279.28567106221225
 21
192.30452204936727
  0
LINE
  8
_0-3_0_COMPONENTS
  6
CONTINUOUS
 62
    7
 10
307.98567106221253
 20
95.454522049367312
 11
325.68567106221235
 21
95.454522049367312
  0
LINE
  8
_0-3_0_COMPONENTS
  6
CONTINUOUS
 62
    7
 10
287.98567106221253
 20
96.104522049367346
 11
299.68567106221235
 21
96.104522049367346
  0
LINE
  8
_0-3_0_COMPONENTS
  6
CONTINUOUS
 62
    7
 10
333.98567106221253
 20
96.104522049367346
 11
345.68567106221235
 21
96.104522049367346
  0
LINE
  8
_0-3_0_COMPONENTS
  6
CONTINUOUS
 62
    7
 10
318.83567106221244
 20
99.954522049367312
 11
314.83567106221244
 21
99.954522049367312
  0
LINE
  8
_0-3_0_COMPONENTS
  6
CONTINUOUS
 62
    7
 10
291.83567106221244
 20
100.30452204936733
 11
295.83567106221244
 21
100.30452204936733
  0
LINE
  8
_0-3_0_COMPONENTS
  6
CONTINUOUS
 62
    7
 10
337.83567106221244
 20
100.30452204936733
 11
341.83567106221244
 21
100.30452204936733
  0
LINE
  8
_0-3_0_COMPONENTS
  6
CONTINUOUS
 62
    7
 10
279.28567106221225
 20
96.104522049367346
 11
279.73030861221241
 21
93.097480737867329
  0
LINE
  8
_0-3_0_COMPONENTS
  6
CONTINUOUS
 62
    7
 10
277.33567106221244
 20
87.204522049367312
 11
277.33567106221244
 21
89.704522049367312
  0
LINE
  8
_0-3_0_COMPONENTS
  6
CONTINUOUS
 62
    7
 10
277.33567106221244
 20
198.70452204936725
 11
277.33567106221244
 21
201.20452204936725
  0
LINE
  8
_0-1_1
  6
CENTER2
 62
    3
 10
344.83577106221218
 20
102.45452204936735
 11
334.83557106221223
 21
102.45452204936735
  0
LINE
  8
_0-3_0_COMPONENTS
  6
CONTINUOUS
 62
    7
 10
306.58567106221244
 20
102.45452204936735
 11
299.78567106221225
 21
102.45452204936735
  0
LINE
  8
_0-1_1
  6
CENTER2
 62
    3
 10
298.83577106221218
 20
102.45452204936748
 11
288.83557106221223
 21
102.45452204936735
  0
LINE
  8
_0-3_0_COMPONENTS
  6
CONTINUOUS
 62
    7
 10
287.88567106221262
 20
102.45452204936735
 11
281.08567106221244
 21
102.45452204936735
  0
LINE
  8
_0-3_0_COMPONENTS
  6
CONTINUOUS
 62
    7
 10
327.08567106221244
 20
102.45452204936735
 11
333.88567106221353
 21
102.45452204936735
  0
LINE
  8
_0-3_0_COMPONENTS
  6
CONTINUOUS
 62
    7
 10
345.78567106221225
 20
102.45452204936735
 11
352.58567106221244
 21
102.45452204936735
  0
LINE
  8
_0-3_0_COMPONENTS
  6
CONTINUOUS
 62
    7
 10
349.58567106221244
 20
104.1545220493673
 11
345.40113035941249
 21
104.1545220493673
  0
LINE
  8
_0-3_0_COMPONENTS
  6
CONTINUOUS
 62
    7
 10
334.27021176501239
 20
104.1545220493673
 11
330.08567106221244
 21
104.1545220493673
  0
LINE
  8
_0-3_0_COMPONENTS
  6
CONTINUOUS
 62
    7
 10
284.08567106221153
 20
104.1545220493673
 11
288.27021176501239
 21
104.1545220493673
  0
LINE
  8
_0-3_0_COMPONENTS
  6
CONTINUOUS
 62
    7
 10
299.40113035941249
 20
104.1545220493673
 11
303.58567106221244
 21
104.1545220493673
  0
LINE
  8
_0-3_0_COMPONENTS
  6
CONTINUOUS
 62
    7
 10
341.83567106221244
 20
104.60452204936746
 11
337.83567106221244
 21
104.60452204936746
  0
LINE
  8
_0-3_0_COMPONENTS
  6
CONTINUOUS
 62
    7
 10
295.83567106221244
 20
104.60452204936746
 11
291.83567106221244
 21
104.60452204936746
  0
LINE
  8
_0-3_0_COMPONENTS
  6
CONTINUOUS
 62
    7
 10
314.83567106221244
 20
104.95452204936735
 11
318.83567106221244
 21
104.95452204936735
  0
LINE
  8
_0-3_0_COMPONENTS
  6
CONTINUOUS
 62
    7
 10
279.28567106221225
 20
192.30452204936727
 11
279.28567106221225
 21
179.9045220493673
  0
LINE
  8
_0-3_0_COMPONENTS
  6
CONTINUOUS
 62
    7
 10
279.28567106221225
 20
108.50452204936742
 11
279.28567106221225
 21
96.104522049367346
  0
LINE
  8
_0-3_0_COMPONENTS
  6
CONTINUOUS
 62
    7
 10
281.08567106221244
 20
102.45452204936735
 11
281.08567106221244
 21
108.50452204936742
  0
LINE
  8
_0-3_0_COMPONENTS
  6
CONTINUOUS
 62
    7
 10
281.08567106221244
 20
179.9045220493673
 11
281.08567106221244
 21
185.95452204936725
  0
LINE
  8
_0-1_1
  6
CENTER2
 62
    3
 10
283.83567106221244
 20
206.14863459906746
 11
283.83567106221244
 21
183.26040949966727
  0
LINE
  8
_0-1_1
  6
CENTER2
 62
    3
 10
283.83567106221244
 20
82.260409499667332
 11
283.83567106221244
 21
105.14863459906746
  0
LINE
  8
_0-3_0_COMPONENTS
  6
CONTINUOUS
 62
    7
 10
284.08567106221153
 20
108.50452204936742
 11
284.08567106221153
 21
104.1545220493673
  0
LINE
  8
_0-3_0_COMPONENTS
  6
CONTINUOUS
 62
    7
 10
284.08567106221153
 20
179.9045220493673
 11
284.08567106221153
 21
184.25452204936743
  0
LINE
  8
_0-3_0_COMPONENTS
  6
CONTINUOUS
 62
    7
 10
362.53567106221225
 20
108.50452204936742
 11
354.38567106221262
 21
108.50452204936742
  0
LINE
  8
_0-3_0_COMPONENTS
  6
CONTINUOUS
 62
    7
 10
352.58567106221244
 20
108.50452204936742
 11
349.58567106221244
 21
108.50452204936742
  0
LINE
  8
_0-3_0_COMPONENTS
  6
CONTINUOUS
 62
    7
 10
330.08567106221244
 20
108.50452204936742
 11
327.08567106221244
 21
108.50452204936742
  0
LINE
  8
_0-3_0_COMPONENTS
  6
CONTINUOUS
 62
    7
 10
306.58567106221244
 20
108.50452204936742
 11
303.58567106221244
 21
108.50452204936742
  0
LINE
  8
_0-3_0_COMPONENTS
  6
CONTINUOUS
 62
    7
 10
284.08567106221153
 20
108.50452204936742
 11
281.08567106221244
 21
108.50452204936742
  0
LINE
  8
_0-3_0_COMPONENTS
  6
CONTINUOUS
 62
    7
 10
279.28567106221225
 20
108.50452204936742
 11
271.13567106221262
 21
108.50452204936742
  0
LINE
  8
_0-3_0_COMPONENTS
  6
CONTINUOUS
 62
    7
 10
268.83567106221153
 20
109.70452204936735
 11
364.83567106221244
 21
109.70452204936735
  0
LINE
  8
_0-3_0_COMPONENTS
  6
CONTINUOUS
 62
    7
 10
286.08567106221244
 20
102.45452204936735
 11
286.08567106221244
 21
104.1545220493673
  0
LINE
  8
_0-3_0_COMPONENTS
  6
CONTINUOUS
 62
    7
 10
286.08567106221244
 20
184.25452204936743
 11
286.08567106221244
 21
185.95452204936725
  0
LINE
  8
_0-3_0_COMPONENTS
  6
CONTINUOUS
 62
    7
 10
287.98567106221253
 20
93.704522049367312
 11
287.98567106221253
 21
96.104522049367346
  0
LINE
  8
_0-3_0_COMPONENTS
  6
CONTINUOUS
 62
    7
 10
287.98567106221253
 20
192.30452204936727
 11
287.98567106221253
 21
194.70452204936725
  0
LINE
  8
_0-1_1
  6
CENTER2
 62
    3
 10
293.83567106221244
 20
190.95462204936734
 11
293.83567106221244
 21
180.95442204936739
  0
LINE
  8
_0-1_1
  6
CENTER2
 62
    3
 10
293.83567106221153
 20
97.454422049367337
 11
293.83567106221244
 21
107.45462204936734
  0
LINE
  8
_0-3_0_COMPONENTS
  6
CONTINUOUS
 62
    7
 10
299.68567106221235
 20
194.70452204936725
 11
299.68567106221235
 21
192.30452204936727
  0
LINE
  8
_0-3_0_COMPONENTS
  6
CONTINUOUS
 62
    7
 10
299.68567106221235
 20
96.104522049367346
 11
299.68567106221235
 21
93.704522049367312
  0
LINE
  8
_0-3_0_COMPONENTS
  6
CONTINUOUS
 62
    7
 10
301.58567106221244
 20
185.95452204936725
 11
301.58567106221244
 21
184.25452204936743
  0
LINE
  8
_0-3_0_COMPONENTS
  6
CONTINUOUS
 62
    7
 10
301.58567106221244
 20
104.1545220493673
 11
301.58567106221244
 21
102.45452204936735
  0
LINE
  8
_0-3_0_COMPONENTS
  6
CONTINUOUS
 62
    7
 10
303.58567106221244
 20
184.25452204936743
 11
303.58567106221244
 21
179.9045220493673
  0
LINE
  8
_0-3_0_COMPONENTS
  6
CONTINUOUS
 62
    7
 10
303.58567106221244
 20
104.1545220493673
 11
303.58567106221244
 21
108.50452204936742
  0
LINE
  8
_0-1_1
  6
CENTER2
 62
    3
 10
303.83567106221244
 20
206.14863459906746
 11
303.83567106221244
 21
183.26040949966727
  0
LINE
  8
_0-1_1
  6
CENTER2
 62
    3
 10
303.83567106221244
 20
82.260409499667332
 11
303.83567106221244
 21
105.14863459906746
  0
LINE
  8
_0-3_0_COMPONENTS
  6
CONTINUOUS
 62
    7
 10
306.58567106221244
 20
185.95452204936725
 11
306.58567106221244
 21
179.9045220493673
  0
LINE
  8
_0-3_0_COMPONENTS
  6
CONTINUOUS
 62
    7
 10
306.58567106221244
 20
108.50452204936742
 11
306.58567106221244
 21
102.45452204936735
  0
LINE
  8
_0-3_0_COMPONENTS
  6
CONTINUOUS
 62
    7
 10
307.98567106221253
 20
93.704522049367312
 11
307.98567106221253
 21
95.454522049367312
  0
LINE
  8
_0-3_0_COMPONENTS
  6
CONTINUOUS
 62
    7
 10
307.98567106221253
 20
192.95452204936725
 11
307.98567106221253
 21
194.70452204936725
  0
LINE
  8
_0-3_0_COMPONENTS
  6
CONTINUOUS
 62
    7
 10
314.33567106221244
 20
87.204522049367312
 11
314.33567106221244
 21
89.704522049367312
  0
LINE
  8
_0-3_0_COMPONENTS
  6
CONTINUOUS
 62
    7
 10
314.33567106221244
 20
198.70452204936725
 11
314.33567106221244
 21
201.20452204936725
  0
LINE
  8
_0-3_0_COMPONENTS
  6
CONTINUOUS
 62
    7
 10
371.23567106221253
 20
141.70452204936736
 11
366.03567106221225
 21
141.70452204936736
  0
LINE
  8
_0-3_0_COMPONENTS
  6
CONTINUOUS
 62
    7
 10
267.63567106221353
 20
141.70452204936736
 11
262.43567106221235
 21
141.70452204936736
  0
LINE
  8
_0-1_1
  6
CENTER2
 62
    3
 10
380.3752023787124
 20
144.20452204936725
 11
254.14048815651221
 21
144.20452204936736
  0
LINE
  8
_0-3_0_COMPONENTS
  6
CONTINUOUS
 62
    7
 10
319.33567106221244
 20
87.204522049367312
 11
319.33567106221244
 21
89.704522049367312
  0
LINE
  8
_0-3_0_COMPONENTS
  6
CONTINUOUS
 62
    7
 10
319.33567106221244
 20
198.70452204936725
 11
319.33567106221244
 21
201.20452204936725
  0
LINE
  8
_0-3_0_COMPONENTS
  6
CONTINUOUS
 62
    7
 10
262.43567106221235
 20
146.70452204936736
 11
267.63567106221353
 21
146.70452204936736
  0
LINE
  8
_0-3_0_COMPONENTS
  6
CONTINUOUS
 62
    7
 10
366.03567106221225
 20
146.70452204936736
 11
371.23567106221253
 21
146.70452204936736
  0
LINE
  8
_0-3_0_COMPONENTS
  6
CONTINUOUS
 62
    7
 10
325.68567106221235
 20
194.70452204936725
 11
325.68567106221235
 21
192.95452204936725
  0
LINE
  8
_0-3_0_COMPONENTS
  6
CONTINUOUS
 62
    7
 10
325.68567106221235
 20
95.454522049367312
 11
325.68567106221235
 21
93.704522049367312
  0
LINE
  8
_0-3_0_COMPONENTS
  6
CONTINUOUS
 62
    7
 10
327.08567106221244
 20
102.45452204936735
 11
327.08567106221244
 21
108.50452204936742
  0
LINE
  8
_0-3_0_COMPONENTS
  6
CONTINUOUS
 62
    7
 10
327.08567106221244
 20
179.9045220493673
 11
327.08567106221244
 21
185.95452204936725
  0
LINE
  8
_0-1_1
  6
CENTER2
 62
    3
 10
329.83567106221153
 20
206.14863459906723
 11
329.83567106221153
 21
183.26040949966727
  0
LINE
  8
_0-1_1
  6
CENTER2
 62
    3
 10
329.83567106221153
 20
82.260409499667332
 11
329.83567106221153
 21
105.14863459906746
  0
LINE
  8
_0-3_0_COMPONENTS
  6
CONTINUOUS
 62
    7
 10
330.08567106221244
 20
184.25452204936743
 11
330.08567106221244
 21
179.9045220493673
  0
LINE
  8
_0-3_0_COMPONENTS
  6
CONTINUOUS
 62
    7
 10
330.08567106221244
 20
104.1545220493673
 11
330.08567106221244
 21
108.50452204936742
  0
LINE
  8
_0-3_0_COMPONENTS
  6
CONTINUOUS
 62
    7
 10
332.08567106221244
 20
102.45452204936735
 11
332.08567106221244
 21
104.1545220493673
  0
LINE
  8
_0-3_0_COMPONENTS
  6
CONTINUOUS
 62
    7
 10
332.08567106221244
 20
184.25452204936743
 11
332.08567106221244
 21
185.95452204936725
  0
LINE
  8
_0-3_0_COMPONENTS
  6
CONTINUOUS
 62
    7
 10
333.98567106221253
 20
93.704522049367312
 11
333.98567106221253
 21
96.104522049367346
  0
LINE
  8
_0-3_0_COMPONENTS
  6
CONTINUOUS
 62
    7
 10
333.98567106221253
 20
193.00452204936743
 11
333.98567106221253
 21
194.70452204936725
  0
LINE
  8
_0-1_1
  6
CENTER2
 62
    3
 10
339.83567106221244
 20
190.95462204936734
 11
339.83567106221244
 21
180.95442204936739
  0
LINE
  8
_0-1_1
  6
CENTER2
 62
    3
 10
339.83567106221244
 20
97.454422049367451
 11
339.83567106221244
 21
107.45462204936734
  0
LINE
  8
_0-3_0_COMPONENTS
  6
CONTINUOUS
 62
    7
 10
345.68567106221235
 20
194.70452204936725
 11
345.68567106221235
 21
193.00452204936743
  0
LINE
  8
_0-3_0_COMPONENTS
  6
CONTINUOUS
 62
    7
 10
345.68567106221235
 20
96.104522049367346
 11
345.68567106221235
 21
93.704522049367312
  0
LINE
  8
_0-3_0_COMPONENTS
  6
CONTINUOUS
 62
    7
 10
347.58567106221244
 20
185.95452204936725
 11
347.58567106221244
 21
184.25452204936743
  0
LINE
  8
_0-3_0_COMPONENTS
  6
CONTINUOUS
 62
    7
 10
347.58567106221244
 20
104.1545220493673
 11
347.58567106221244
 21
102.45452204936735
  0
LINE
  8
_0-3_0_COMPONENTS
  6
CONTINUOUS
 62
    7
 10
349.58567106221244
 20
108.50452204936742
 11
349.58567106221244
 21
104.1545220493673
  0
LINE
  8
_0-3_0_COMPONENTS
  6
CONTINUOUS
 62
    7
 10
349.58567106221244
 20
179.9045220493673
 11
349.58567106221244
 21
184.25452204936743
  0
LINE
  8
_0-1_1
  6
CENTER2
 62
    3
 10
349.83567106221244
 20
206.14863459906723
 11
349.83567106221244
 21
183.26040949966727
  0
LINE
  8
_0-1_1
  6
CENTER2
 62
    3
 10
349.83567106221244
 20
82.260409499667332
 11
349.83567106221244
 21
105.14863459906746
  0
LINE
  8
_0-3_0_COMPONENTS
  6
CONTINUOUS
 62
    7
 10
352.58567106221244
 20
185.95452204936725
 11
352.58567106221244
 21
179.9045220493673
  0
LINE
  8
_0-3_0_COMPONENTS
  6
CONTINUOUS
 62
    7
 10
352.58567106221244
 20
108.50452204936742
 11
352.58567106221244
 21
102.45452204936735
  0
LINE
  8
_0-3_0_COMPONENTS
  6
CONTINUOUS
 62
    7
 10
354.38567106221262
 20
96.104522049367346
 11
354.38567106221262
 21
108.50452204936742
  0
LINE
  8
_0-3_0_COMPONENTS
  6
CONTINUOUS
 62
    7
 10
354.38567106221262
 20
179.9045220493673
 11
354.38567106221262
 21
193.00452204936743
  0
LINE
  8
_0-3_0_COMPONENTS
  6
CONTINUOUS
 62
    7
 10
356.33567106221244
 20
87.204522049367312
 11
356.33567106221244
 21
89.704522049367312
  0
LINE
  8
_0-3_0_COMPONENTS
  6
CONTINUOUS
 62
    7
 10
356.33567106221244
 20
198.70452204936725
 11
356.33567106221244
 21
201.20452204936725
  0
LINE
  8
_0-3_0_COMPONENTS
  6
CONTINUOUS
 62
    7
 10
268.83567106221153
 20
178.70452204936725
 11
364.83567106221244
 21
178.70452204936725
  0
LINE
  8
_0-3_0_COMPONENTS
  6
CONTINUOUS
 62
    7
 10
271.13567106221262
 20
179.9045220493673
 11
279.28567106221225
 21
179.9045220493673
  0
LINE
  8
_0-3_0_COMPONENTS
  6
CONTINUOUS
 62
    7
 10
281.08567106221244
 20
179.9045220493673
 11
284.08567106221153
 21
179.9045220493673
  0
LINE
  8
_0-3_0_COMPONENTS
  6
CONTINUOUS
 62
    7
 10
303.58567106221244
 20
179.9045220493673
 11
306.58567106221244
 21
179.9045220493673
  0
LINE
  8
_0-3_0_COMPONENTS
  6
CONTINUOUS
 62
    7
 10
327.08567106221244
 20
179.9045220493673
 11
330.08567106221244
 21
179.9045220493673
  0
LINE
  8
_0-3_0_COMPONENTS
  6
CONTINUOUS
 62
    7
 10
349.58567106221244
 20
179.9045220493673
 11
352.58567106221244
 21
179.9045220493673
  0
LINE
  8
_0-3_0_COMPONENTS
  6
CONTINUOUS
 62
    7
 10
354.38567106221262
 20
179.9045220493673
 11
362.53567106221225
 21
179.9045220493673
  0
LINE
  8
_0-3_0_COMPONENTS
  6
CONTINUOUS
 62
    7
 10
291.83567106221244
 20
183.80452204936727
 11
295.83567106221244
 21
183.80452204936727
  0
LINE
  8
_0-3_0_COMPONENTS
  6
CONTINUOUS
 62
    7
 10
337.83567106221244
 20
183.80452204936727
 11
341.83567106221244
 21
183.80452204936727
  0
LINE
  8
_0-3_0_COMPONENTS
  6
CONTINUOUS
 62
    7
 10
361.33567106221244
 20
87.204522049367312
 11
361.33567106221244
 21
89.704522049367312
  0
LINE
  8
_0-3_0_COMPONENTS
  6
CONTINUOUS
 62
    7
 10
361.33567106221244
 20
198.70452204936725
 11
361.33567106221244
 21
201.20452204936725
  0
LINE
  8
_0-3_0_COMPONENTS
  6
CONTINUOUS
 62
    7
 10
361.63567106221262
 20
200.95452204936725
 11
361.63567106221262
 21
179.9045220493673
  0
LINE
  8
_0-3_0_COMPONENTS
  6
CONTINUOUS
 62
    7
 10
361.63567106221262
 20
108.50452204936742
 11
361.63567106221262
 21
87.454522049367312
  0
LINE
  8
_0-3_0_COMPONENTS
  6
CONTINUOUS
 62
    7
 10
353.94103351231251
 20
93.097480737867329
 11
354.38567106221262
 21
96.104522049367346
  0
LINE
  8
_0-3_0_COMPONENTS
  6
CONTINUOUS
 62
    7
 10
349.58567106221244
 20
184.25452204936743
 11
346.16377688351349
 21
184.25452204936743
  0
LINE
  8
_0-3_0_COMPONENTS
  6
CONTINUOUS
 62
    7
 10
333.50756524101143
 20
184.25452204936743
 11
330.08567106221244
 21
184.25452204936743
  0
LINE
  8
_0-3_0_COMPONENTS
  6
CONTINUOUS
 62
    7
 10
284.08567106221153
 20
184.25452204936743
 11
288.27021176501239
 21
184.25452204936743
  0
LINE
  8
_0-3_0_COMPONENTS
  6
CONTINUOUS
 62
    7
 10
299.40113035941249
 20
184.25452204936743
 11
303.58567106221244
 21
184.25452204936743
  0
LINE
  8
_0-1_1
  6
CENTER2
 62
    3
 10
344.83577106221218
 20
185.95452204936725
 11
334.83557106221223
 21
185.95452204936725
  0
LINE
  8
_0-1_1
  6
CENTER2
 62
    3
 10
324.33567106221244
 20
185.95452204936725
 11
309.33567106221244
 21
185.95452204936725
  0
LINE
  8
_0-3_0_COMPONENTS
  6
CONTINUOUS
 62
    7
 10
306.58567106221244
 20
185.95452204936725
 11
299.78567106221225
 21
185.95452204936725
  0
LINE
  8
_0-1_1
  6
CENTER2
 62
    3
 10
298.83577106221218
 20
185.95452204936725
 11
288.83557106221223
 21
185.95452204936725
  0
LINE
  8
_0-3_0_COMPONENTS
  6
CONTINUOUS
 62
    7
 10
287.88567106221262
 20
185.95452204936725
 11
281.08567106221244
 21
185.95452204936725
  0
LINE
  8
_0-3_0_COMPONENTS
  6
CONTINUOUS
 62
    7
 10
327.08567106221244
 20
185.95452204936725
 11
333.18567106221235
 21
185.95452204936725
  0
LINE
  8
_0-3_0_COMPONENTS
  6
CONTINUOUS
 62
    7
 10
346.48567106221253
 20
185.95452204936725
 11
352.58567106221244
 21
185.95452204936725
  0
LINE
  8
_0-3_0_COMPONENTS
  6
CONTINUOUS
 62
    7
 10
341.83567106221244
 20
188.10452204936757
 11
337.83567106221244
 21
188.10452204936757
  0
LINE
  8
_0-3_0_COMPONENTS
  6
CONTINUOUS
 62
    7
 10
295.83567106221244
 20
188.10452204936757
 11
291.83567106221244
 21
188.10452204936757
  0
LINE
  8
_0-3_0_COMPONENTS
  6
CONTINUOUS
 62
    7
 10
362.53567106221225
 20
108.50452204936742
 11
362.53567106221225
 21
109.70452204936735
  0
LINE
  8
_0-3_0_COMPONENTS
  6
CONTINUOUS
 62
    7
 10
362.53567106221225
 20
178.70452204936725
 11
362.53567106221225
 21
179.9045220493673
  0
LINE
  8
_0-3_0_COMPONENTS
  6
CONTINUOUS
 62
    7
 10
364.83567106221244
 20
178.70452204936725
 11
364.83567106221244
 21
109.70452204936735
  0
LINE
  8
_0-3_0_COMPONENTS
  6
CONTINUOUS
 62
    7
 10
366.03567106221225
 20
146.70452204936736
 11
366.03567106221225
 21
141.70452204936736
  0
LINE
  8
_0-3_0_COMPONENTS
  6
CONTINUOUS
 62
    7
 10
299.68567106221235
 20
192.30452204936727
 11
287.98567106221253
 21
192.30452204936727
  0
LINE
  8
_0-3_0_COMPONENTS
  6
CONTINUOUS
 62
    7
 10
307.98567106221253
 20
192.95452204936725
 11
325.68567106221235
 21
192.95452204936725
  0
LINE
  8
_0-3_0_COMPONENTS
  6
CONTINUOUS
 62
    7
 10
345.68567106221235
 20
193.00452204936743
 11
333.98567106221253
 21
193.00452204936743
  0
LINE
  8
_0-1_1
  6
CENTER2
 62
    3
 10
361.27978361191344
 20
194.70452204936725
 11
338.39155851261239
 21
194.70452204936725
  0
LINE
  8
_0-1_1
  6
CENTER2
 62
    3
 10
338.39155851261239
 20
194.70452204936725
 11
318.39155851261239
 21
194.70452204936725
  0
LINE
  8
_0-1_1
  6
CENTER2
 62
    3
 10
315.27978361191253
 20
194.70452204936725
 11
292.39155851261239
 21
194.70452204936725
  0
LINE
  8
_0-1_1
  6
CENTER2
 62
    3
 10
292.39155851261239
 20
194.70452204936725
 11
272.39155851261239
 21
194.70452204936725
  0
LINE
  8
_0-3_0_COMPONENTS
  6
CONTINUOUS
 62
    7
 10
354.38567106221262
 20
193.00452204936743
 11
353.91189825201263
 21
195.4835418806673
  0
LINE
  8
_0-3_0_COMPONENTS
  6
CONTINUOUS
 62
    7
 10
368.73567106221253
 20
146.70452204936736
 11
368.73567106221253
 21
146.20452204936736
  0
LINE
  8
_0-3_0_COMPONENTS
  6
CONTINUOUS
 62
    7
 10
371.23567106221253
 20
141.70452204936736
 11
371.23567106221253
 21
146.70452204936736
  0
LINE
  8
_0-3_0_COMPONENTS
  6
CONTINUOUS
 62
    7
 10
371.58567106221244
 20
92.204522049367312
 11
371.58567106221244
 21
196.20452204936725
  0
LINE
  8
_0-3_0_COMPONENTS
  6
CONTINUOUS
 62
    7
 10
272.33567106221244
 20
198.70452204936725
 11
272.83567106221244
 21
198.70452204936725
  0
LINE
  8
_0-3_0_COMPONENTS
  6
CONTINUOUS
 62
    7
 10
314.33567106221244
 20
198.70452204936725
 11
314.83567106221244
 21
198.70452204936725
  0
LINE
  8
_0-3_0_COMPONENTS
  6
CONTINUOUS
 62
    7
 10
356.33567106221244
 20
198.70452204936725
 11
356.83567106221244
 21
198.70452204936725
  0
LINE
  8
_0-3_0_COMPONENTS
  6
CONTINUOUS
 62
    7
 10
373.33567106221244
 20
92.204522049367312
 11
373.33567106221244
 21
196.20452204936725
  0
LINE
  8
_0-3_0_COMPONENTS
  6
CONTINUOUS
 62
    7
 10
374.83567106221244
 20
196.20452204936725
 11
374.83567106221244
 21
92.204522049367312
  0
LINE
  8
_0-3_0_COMPONENTS
  6
CONTINUOUS
 62
    7
 10
361.63567106221262
 20
200.70452204936725
 11
361.33567106221244
 21
200.70452204936725
  0
LINE
  8
_0-3_0_COMPONENTS
  6
CONTINUOUS
 62
    7
 10
356.33567106221244
 20
200.70452204936725
 11
352.1865403808124
 21
200.70452204936725
  0
LINE
  8
_0-3_0_COMPONENTS
  6
CONTINUOUS
 62
    7
 10
347.48480174361247
 20
200.70452204936725
 11
332.1865403808124
 21
200.70452204936725
  0
LINE
  8
_0-3_0_COMPONENTS
  6
CONTINUOUS
 62
    7
 10
327.48480174361247
 20
200.70452204936725
 11
319.33567106221244
 21
200.70452204936725
  0
LINE
  8
_0-3_0_COMPONENTS
  6
CONTINUOUS
 62
    7
 10
314.33567106221244
 20
200.70452204936725
 11
306.18654038081331
 21
200.70452204936725
  0
LINE
  8
_0-3_0_COMPONENTS
  6
CONTINUOUS
 62
    7
 10
301.48480174361247
 20
200.70452204936725
 11
286.18654038081331
 21
200.70452204936725
  0
LINE
  8
_0-3_0_COMPONENTS
  6
CONTINUOUS
 62
    7
 10
281.48480174361247
 20
200.70452204936725
 11
277.33567106221244
 21
200.70452204936725
  0
LINE
  8
_0-3_0_COMPONENTS
  6
CONTINUOUS
 62
    7
 10
272.33567106221244
 20
200.70452204936725
 11
272.03567106221225
 21
200.70452204936725
  0
LINE
  8
_0-3_0_COMPONENTS
  6
CONTINUOUS
 62
    7
 10
366.83567106221244
 20
200.95452204936725
 11
361.63567106221262
 21
200.95452204936725
  0
LINE
  8
_0-3_0_COMPONENTS
  6
CONTINUOUS
 62
    7
 10
272.03567106221225
 20
200.95452204936725
 11
266.83567106221244
 21
200.95452204936725
  0
LINE
  8
_0-3_0_COMPONENTS
  6
CONTINUOUS
 62
    7
 10
361.33567106221244
 20
201.20452204936725
 11
356.33567106221244
 21
201.20452204936725
  0
LINE
  8
_0-3_0_COMPONENTS
  6
CONTINUOUS
 62
    7
 10
319.33567106221244
 20
201.20452204936725
 11
314.33567106221244
 21
201.20452204936725
  0
LINE
  8
_0-3_0_COMPONENTS
  6
CONTINUOUS
 62
    7
 10
277.33567106221244
 20
201.20452204936725
 11
272.33567106221244
 21
201.20452204936725
  0
LINE
  8
_0-3_0_COMPONENTS
  6
CONTINUOUS
 62
    7
 10
366.83567106221244
 20
202.70452204936725
 11
266.83567106221244
 21
202.70452204936725
  0
LINE
  8
_0-3_0_COMPONENTS
  6
CONTINUOUS
 62
    7
 10
366.83567106221244
 20
204.20452204936725
 11
266.83567106221244
 21
204.20452204936725
  0
LINE
  8
_0-1_1
  6
CENTER2
 62
    3
 10
309.63567106221262
 20
170.60452204936757
 11
309.63567106221262
 21
162.80452204936727
  0
LINE
  8
_0-1_1
  6
CENTER2
 62
    3
 10
313.53567106221225
 20
166.70452204936725
 11
305.73567106221253
 21
166.70452204936725
  0
LINE
  8
_0-3_0_COMPONENTS
  6
CONTINUOUS
 62
    7
 10
275.93567106221235
 20
200.51096626056744
 11
276.83567106221244
 21
200.51096626056744
  0
LINE
  8
_0-3_0_COMPONENTS
  6
CONTINUOUS
 62
    7
 10
272.83567106221244
 20
200.51096626056744
 11
273.73567106221253
 21
200.51096626056744
  0
LINE
  8
_0-3_0_COMPONENTS
  6
CONTINUOUS
 62
    7
 10
315.73567106221253
 20
200.51096626056744
 11
314.83567106221244
 21
200.51096626056744
  0
LINE
  8
_0-3_0_COMPONENTS
  6
CONTINUOUS
 62
    7
 10
318.83567106221244
 20
200.51096626056744
 11
317.93567106221235
 21
200.51096626056744
  0
LINE
  8
_0-3_0_COMPONENTS
  6
CONTINUOUS
 62
    7
 10
357.73567106221253
 20
200.51096626056744
 11
356.83567106221244
 21
200.51096626056744
  0
LINE
  8
_0-3_0_COMPONENTS
  6
CONTINUOUS
 62
    7
 10
360.83567106221244
 20
200.51096626056744
 11
359.93567106221235
 21
200.51096626056744
  0
LINE
  8
_0-3_0_COMPONENTS
  6
CONTINUOUS
 62
    7
 10
357.73567106221253
 20
200.24358454936725
 11
359.93567106221235
 21
200.24358454936725
  0
LINE
  8
_0-3_0_COMPONENTS
  6
CONTINUOUS
 62
    7
 10
315.73567106221253
 20
200.24358454936725
 11
317.93567106221235
 21
200.24358454936725
  0
LINE
  8
_0-3_0_COMPONENTS
  6
CONTINUOUS
 62
    7
 10
273.73567106221253
 20
200.24358454936725
 11
275.93567106221235
 21
200.24358454936725
  0
LINE
  8
_0-3_0_COMPONENTS
  6
CONTINUOUS
 62
    7
 10
314.83567106221244
 20
199.80452204936727
 11
318.83567106221244
 21
199.80452204936727
  0
LINE
  8
_0-3_0_COMPONENTS
  6
CONTINUOUS
 62
    7
 10
272.83567106221244
 20
199.80452204936727
 11
276.83567106221244
 21
199.80452204936727
  0
LINE
  8
_0-3_0_COMPONENTS
  6
CONTINUOUS
 62
    7
 10
360.83567106221244
 20
199.80452204936727
 11
356.83567106221244
 21
199.80452204936727
  0
LINE
  8
_0-3_0_COMPONENTS
  6
CONTINUOUS
 62
    7
 10
276.83567106221244
 20
199.50452204936743
 11
272.83567106221244
 21
199.50452204936743
  0
LINE
  8
_0-3_0_COMPONENTS
  6
CONTINUOUS
 62
    7
 10
318.83567106221244
 20
199.50452204936743
 11
314.83567106221244
 21
199.50452204936743
  0
LINE
  8
_0-3_0_COMPONENTS
  6
CONTINUOUS
 62
    7
 10
360.83567106221244
 20
199.50452204936743
 11
356.83567106221244
 21
199.50452204936743
  0
LINE
  8
_0-3_0_COMPONENTS
  6
CONTINUOUS
 62
    7
 10
276.83567106221244
 20
198.20452204936725
 11
272.83567106221244
 21
198.20452204936725
  0
LINE
  8
_0-3_0_COMPONENTS
  6
CONTINUOUS
 62
    7
 10
318.83567106221244
 20
198.20452204936725
 11
314.83567106221244
 21
198.20452204936725
  0
LINE
  8
_0-3_0_COMPONENTS
  6
CONTINUOUS
 62
    7
 10
360.83567106221244
 20
198.20452204936725
 11
356.83567106221244
 21
198.20452204936725
  0
LINE
  8
_0-3_0_COMPONENTS
  6
CONTINUOUS
 62
    7
 10
370.83567106221244
 20
145.30452204936727
 11
370.83567106221244
 21
146.20452204936736
  0
LINE
  8
_0-3_0_COMPONENTS
  6
CONTINUOUS
 62
    7
 10
370.83567106221244
 20
142.20452204936736
 11
370.83567106221244
 21
143.10452204936746
  0
LINE
  8
_0-3_0_COMPONENTS
  6
CONTINUOUS
 62
    7
 10
370.44211527341349
 20
142.20452204936736
 11
370.44211527341349
 21
143.10452204936746
  0
LINE
  8
_0-3_0_COMPONENTS
  6
CONTINUOUS
 62
    7
 10
370.44211527341349
 20
146.20452204936736
 11
370.44211527341349
 21
145.30452204936727
  0
LINE
  8
_0-3_0_COMPONENTS
  6
CONTINUOUS
 62
    7
 10
369.73567106221253
 20
141.70452204936736
 11
369.73567106221253
 21
146.70452204936736
  0
LINE
  8
_0-3_0_COMPONENTS
  6
CONTINUOUS
 62
    7
 10
369.43567106221235
 20
146.20452204936736
 11
369.43567106221235
 21
142.20452204936736
  0
LINE
  8
_0-3_0_COMPONENTS
  6
CONTINUOUS
 62
    7
 10
368.23567106221253
 20
146.20452204936736
 11
368.23567106221253
 21
142.20452204936736
  0
LINE
  8
_0-3_0_COMPONENTS
  6
CONTINUOUS
 62
    7
 10
364.58567106221244
 20
110.95452204936735
 11
364.58567106221244
 21
177.45452204936725
  0
LINE
  8
_0-3_0_COMPONENTS
  6
CONTINUOUS
 62
    7
 10
360.83567106221244
 20
198.20452204936725
 11
360.83567106221244
 21
201.20452204936725
  0
LINE
  8
_0-3_0_COMPONENTS
  6
CONTINUOUS
 62
    7
 10
360.83567106221244
 20
87.204522049367312
 11
360.83567106221244
 21
90.204522049367312
  0
LINE
  8
_0-3_0_COMPONENTS
  6
CONTINUOUS
 62
    7
 10
359.93567106221235
 20
199.80452204936727
 11
359.93567106221235
 21
201.20452204936725
  0
LINE
  8
_0-3_0_COMPONENTS
  6
CONTINUOUS
 62
    7
 10
359.93567106221235
 20
87.204522049367312
 11
359.93567106221235
 21
88.604522049367346
  0
LINE
  8
_0-3_0_COMPONENTS
  6
CONTINUOUS
 62
    7
 10
357.73567106221253
 20
199.80452204936727
 11
357.73567106221253
 21
201.20452204936725
  0
LINE
  8
_0-3_0_COMPONENTS
  6
CONTINUOUS
 62
    7
 10
357.73567106221253
 20
87.204522049367312
 11
357.73567106221253
 21
88.604522049367346
  0
LINE
  8
_0-3_0_COMPONENTS
  6
CONTINUOUS
 62
    7
 10
356.83567106221244
 20
198.20452204936725
 11
356.83567106221244
 21
201.20452204936725
  0
LINE
  8
_0-3_0_COMPONENTS
  6
CONTINUOUS
 62
    7
 10
356.83567106221244
 20
87.204522049367312
 11
356.83567106221244
 21
90.204522049367312
  0
LINE
  8
_0-3_0_COMPONENTS
  6
CONTINUOUS
 62
    7
 10
363.58567106221244
 20
178.45452204936725
 11
362.53567106221225
 21
178.45452204936725
  0
LINE
  8
_0-3_0_COMPONENTS
  6
CONTINUOUS
 62
    7
 10
315.63567106221353
 20
173.20452204936725
 11
303.63567106221262
 21
173.20452204936725
  0
LINE
  8
_0-3_0_COMPONENTS
  6
CONTINUOUS
 62
    7
 10
294.33567106221244
 20
170.70452204936725
 11
278.33567106221244
 21
170.70452204936725
  0
LINE
  8
_0-3_0_COMPONENTS
  6
CONTINUOUS
 62
    7
 10
293.33567106221244
 20
169.05452204936727
 11
279.33567106221244
 21
169.05452204936727
  0
LINE
  8
_0-3_0_COMPONENTS
  6
CONTINUOUS
 62
    7
 10
310.13567106221262
 20
168.70452204936725
 11
309.13567106221262
 21
168.70452204936725
  0
LINE
  8
_0-3_0_COMPONENTS
  6
CONTINUOUS
 62
    7
 10
292.83567106221244
 20
168.55452204936727
 11
279.83567106221244
 21
168.55452204936727
  0
LINE
  8
_0-3_0_COMPONENTS
  6
CONTINUOUS
 62
    7
 10
309.13567106221262
 20
167.20452204936725
 11
307.63567106221353
 21
167.20452204936725
  0
LINE
  8
_0-3_0_COMPONENTS
  6
CONTINUOUS
 62
    7
 10
311.63567106221353
 20
167.20452204936725
 11
310.13567106221262
 21
167.20452204936725
  0
LINE
  8
_0-3_0_COMPONENTS
  6
CONTINUOUS
 62
    7
 10
310.13567106221262
 20
166.20452204936725
 11
311.63567106221353
 21
166.20452204936725
  0
LINE
  8
_0-3_0_COMPONENTS
  6
CONTINUOUS
 62
    7
 10
307.63567106221353
 20
166.20452204936725
 11
309.13567106221262
 21
166.20452204936725
  0
LINE
  8
_0-3_0_COMPONENTS
  6
CONTINUOUS
 62
    7
 10
309.13567106221262
 20
164.70452204936714
 11
310.13567106221262
 21
164.70452204936714
  0
LINE
  8
_0-3_0_COMPONENTS
  6
CONTINUOUS
 62
    7
 10
279.83567106221244
 20
163.85452204936757
 11
292.83567106221244
 21
163.85452204936757
  0
LINE
  8
_0-3_0_COMPONENTS
  6
CONTINUOUS
 62
    7
 10
279.33567106221244
 20
163.35452204936757
 11
293.33567106221244
 21
163.35452204936757
  0
LINE
  8
_0-3_0_COMPONENTS
  6
CONTINUOUS
 62
    7
 10
304.83567106221244
 20
162.70452204936725
 11
314.43567106221235
 21
162.70452204936725
  0
LINE
  8
_0-3_0_COMPONENTS
  6
CONTINUOUS
 62
    7
 10
278.33567106221244
 20
161.70452204936725
 11
294.33567106221244
 21
161.70452204936725
  0
LINE
  8
_0-3_0_COMPONENTS
  6
CONTINUOUS
 62
    7
 10
304.83567106221244
 20
158.30452204936727
 11
314.43567106221235
 21
158.30452204936727
  0
LINE
  8
_0-3_0_COMPONENTS
  6
CONTINUOUS
 62
    7
 10
304.83567106221244
 20
152.70452204936725
 11
314.43567106221235
 21
152.70452204936725
  0
LINE
  8
_0-3_0_COMPONENTS
  6
CONTINUOUS
 62
    7
 10
303.63567106221262
 20
149.20452204936736
 11
315.63567106221353
 21
149.20452204936736
  0
LINE
  8
_0-3_0_COMPONENTS
  6
CONTINUOUS
 62
    7
 10
368.23567106221253
 20
146.20452204936736
 11
371.23567106221253
 21
146.20452204936736
  0
LINE
  8
_0-3_0_COMPONENTS
  6
CONTINUOUS
 62
    7
 10
262.43567106221235
 20
146.20452204936736
 11
265.43567106221235
 21
146.20452204936736
  0
LINE
  8
_0-3_0_COMPONENTS
  6
CONTINUOUS
 62
    7
 10
369.73567106221253
 20
145.30452204936727
 11
371.23567106221253
 21
145.30452204936727
  0
LINE
  8
_0-3_0_COMPONENTS
  6
CONTINUOUS
 62
    7
 10
262.43567106221235
 20
145.30452204936727
 11
263.93567106221235
 21
145.30452204936727
  0
LINE
  8
_0-3_0_COMPONENTS
  6
CONTINUOUS
 62
    7
 10
318.83567106221244
 20
198.20452204936725
 11
318.83567106221244
 21
201.20452204936725
  0
LINE
  8
_0-3_0_COMPONENTS
  6
CONTINUOUS
 62
    7
 10
318.83567106221244
 20
87.204522049367312
 11
318.83567106221244
 21
90.204522049367312
  0
LINE
  8
_0-3_0_COMPONENTS
  6
CONTINUOUS
 62
    7
 10
317.93567106221235
 20
199.80452204936727
 11
317.93567106221235
 21
201.20452204936725
  0
LINE
  8
_0-3_0_COMPONENTS
  6
CONTINUOUS
 62
    7
 10
317.93567106221235
 20
87.204522049367312
 11
317.93567106221235
 21
88.604522049367346
  0
LINE
  8
_0-3_0_COMPONENTS
  6
CONTINUOUS
 62
    7
 10
369.73567106221253
 20
143.10452204936746
 11
371.23567106221253
 21
143.10452204936746
  0
LINE
  8
_0-3_0_COMPONENTS
  6
CONTINUOUS
 62
    7
 10
262.43567106221235
 20
143.10452204936746
 11
263.93567106221235
 21
143.10452204936746
  0
LINE
  8
_0-3_0_COMPONENTS
  6
CONTINUOUS
 62
    7
 10
368.23567106221253
 20
142.20452204936736
 11
371.23567106221253
 21
142.20452204936736
  0
LINE
  8
_0-3_0_COMPONENTS
  6
CONTINUOUS
 62
    7
 10
262.43567106221235
 20
142.20452204936736
 11
265.43567106221235
 21
142.20452204936736
  0
LINE
  8
_0-3_0_COMPONENTS
  6
CONTINUOUS
 62
    7
 10
316.63567106221262
 20
150.20452204936736
 11
316.63567106221262
 21
172.20452204936725
  0
LINE
  8
_0-3_0_COMPONENTS
  6
CONTINUOUS
 62
    7
 10
315.73567106221253
 20
199.80452204936727
 11
315.73567106221253
 21
201.20452204936725
  0
LINE
  8
_0-3_0_COMPONENTS
  6
CONTINUOUS
 62
    7
 10
315.73567106221253
 20
87.204522049367312
 11
315.73567106221253
 21
88.604522049367346
  0
LINE
  8
_0-3_0_COMPONENTS
  6
CONTINUOUS
 62
    7
 10
314.83567106221244
 20
198.20452204936725
 11
314.83567106221244
 21
201.20452204936725
  0
LINE
  8
_0-3_0_COMPONENTS
  6
CONTINUOUS
 62
    7
 10
314.83567106221244
 20
87.204522049367312
 11
314.83567106221244
 21
90.204522049367312
  0
LINE
  8
_0-3_0_COMPONENTS
  6
CONTINUOUS
 62
    7
 10
314.43567106221235
 20
170.20452204936725
 11
314.43567106221235
 21
152.70453247116745
  0
LINE
  8
_0-3_0_COMPONENTS
  6
CONTINUOUS
 62
    7
 10
311.63567106221353
 20
166.20452204936725
 11
311.63567106221353
 21
167.20452204936725
  0
LINE
  8
_0-3_0_COMPONENTS
  6
CONTINUOUS
 62
    7
 10
310.13567106221262
 20
167.20452204936725
 11
310.13567106221262
 21
168.70452204936725
  0
LINE
  8
_0-3_0_COMPONENTS
  6
CONTINUOUS
 62
    7
 10
310.13567106221262
 20
164.70452204936714
 11
310.13567106221262
 21
166.20452204936725
  0
LINE
  8
_0-3_0_COMPONENTS
  6
CONTINUOUS
 62
    7
 10
309.13567106221262
 20
166.20452204936725
 11
309.13567106221262
 21
164.70452204936714
  0
LINE
  8
_0-3_0_COMPONENTS
  6
CONTINUOUS
 62
    7
 10
309.13567106221262
 20
168.70452204936725
 11
309.13567106221262
 21
167.20452204936725
  0
LINE
  8
_0-3_0_COMPONENTS
  6
CONTINUOUS
 62
    7
 10
307.63567106221353
 20
167.20452204936725
 11
307.63567106221353
 21
166.20452204936725
  0
LINE
  8
_0-3_0_COMPONENTS
  6
CONTINUOUS
 62
    7
 10
304.83567106221244
 20
170.20452204936725
 11
304.83567106221244
 21
152.70453247116745
  0
LINE
  8
_0-3_0_COMPONENTS
  6
CONTINUOUS
 62
    7
 10
302.63567106221353
 20
172.20452204936725
 11
302.63567106221353
 21
150.20452204936736
  0
LINE
  8
_0-3_0_COMPONENTS
  6
CONTINUOUS
 62
    7
 10
294.33567106221244
 20
161.70452204936725
 11
294.33567106221244
 21
170.70452204936725
  0
LINE
  8
_0-3_0_COMPONENTS
  6
CONTINUOUS
 62
    7
 10
293.33567106221244
 20
163.35452204936757
 11
293.33567106221244
 21
169.05452204936727
  0
LINE
  8
_0-3_0_COMPONENTS
  6
CONTINUOUS
 62
    7
 10
292.83567106221244
 20
163.85452204936757
 11
292.83567106221244
 21
168.55452204936727
  0
LINE
  8
_0-3_0_COMPONENTS
  6
CONTINUOUS
 62
    7
 10
270.08567106221244
 20
109.95452204936735
 11
271.13567106221262
 21
109.95452204936735
  0
LINE
  8
_0-3_0_COMPONENTS
  6
CONTINUOUS
 62
    7
 10
279.83567106221244
 20
168.55452204936727
 11
279.83567106221244
 21
163.85452204936757
  0
LINE
  8
_0-3_0_COMPONENTS
  6
CONTINUOUS
 62
    7
 10
279.33567106221244
 20
169.05452204936727
 11
279.33567106221244
 21
163.35452204936757
  0
LINE
  8
_0-3_0_COMPONENTS
  6
CONTINUOUS
 62
    7
 10
278.33567106221244
 20
170.70452204936725
 11
278.33567106221244
 21
161.70452204936725
  0
LINE
  8
_0-3_0_COMPONENTS
  6
CONTINUOUS
 62
    7
 10
276.83567106221244
 20
198.20452204936725
 11
276.83567106221244
 21
201.20452204936725
  0
LINE
  8
_0-3_0_COMPONENTS
  6
CONTINUOUS
 62
    7
 10
276.83567106221244
 20
87.204522049367312
 11
276.83567106221244
 21
90.204522049367312
  0
LINE
  8
_0-3_0_COMPONENTS
  6
CONTINUOUS
 62
    7
 10
275.93567106221235
 20
88.604522049367346
 11
275.93567106221235
 21
87.204522049367312
  0
LINE
  8
_0-3_0_COMPONENTS
  6
CONTINUOUS
 62
    7
 10
275.93567106221235
 20
201.20452204936725
 11
275.93567106221235
 21
199.80452204936727
  0
LINE
  8
_0-3_0_COMPONENTS
  6
CONTINUOUS
 62
    7
 10
273.73567106221253
 20
199.80452204936727
 11
273.73567106221253
 21
201.20452204936725
  0
LINE
  8
_0-3_0_COMPONENTS
  6
CONTINUOUS
 62
    7
 10
273.73567106221253
 20
87.204522049367312
 11
273.73567106221253
 21
88.604522049367346
  0
LINE
  8
_0-3_0_COMPONENTS
  6
CONTINUOUS
 62
    7
 10
272.83567106221244
 20
198.20452204936725
 11
272.83567106221244
 21
201.20452204936725
  0
LINE
  8
_0-3_0_COMPONENTS
  6
CONTINUOUS
 62
    7
 10
272.83567106221244
 20
87.204522049367312
 11
272.83567106221244
 21
90.204522049367312
  0
LINE
  8
_0-3_0_COMPONENTS
  6
CONTINUOUS
 62
    7
 10
269.08567106221244
 20
177.45452204936725
 11
269.08567106221244
 21
110.95452204936735
  0
LINE
  8
_0-3_0_COMPONENTS
  6
CONTINUOUS
 62
    7
 10
276.83567106221244
 20
90.204522049367312
 11
272.83567106221244
 21
90.204522049367312
  0
LINE
  8
_0-3_0_COMPONENTS
  6
CONTINUOUS
 62
    7
 10
318.83567106221244
 20
90.204522049367312
 11
314.83567106221244
 21
90.204522049367312
  0
LINE
  8
_0-3_0_COMPONENTS
  6
CONTINUOUS
 62
    7
 10
360.83567106221244
 20
90.204522049367312
 11
356.83567106221244
 21
90.204522049367312
  0
LINE
  8
_0-3_0_COMPONENTS
  6
CONTINUOUS
 62
    7
 10
265.43567106221235
 20
146.20452204936736
 11
265.43567106221235
 21
142.20452204936736
  0
LINE
  8
_0-3_0_COMPONENTS
  6
CONTINUOUS
 62
    7
 10
264.23567106221253
 20
146.20452204936736
 11
264.23567106221253
 21
142.20452204936736
  0
LINE
  8
_0-3_0_COMPONENTS
  6
CONTINUOUS
 62
    7
 10
263.93567106221235
 20
141.70452204936736
 11
263.93567106221235
 21
146.70452204936736
  0
LINE
  8
_0-3_0_COMPONENTS
  6
CONTINUOUS
 62
    7
 10
263.22922685121238
 20
142.20452204936736
 11
263.22922685121238
 21
143.10452204936746
  0
LINE
  8
_0-3_0_COMPONENTS
  6
CONTINUOUS
 62
    7
 10
263.22922685121238
 20
146.20452204936736
 11
263.22922685121238
 21
145.30452204936727
  0
LINE
  8
_0-3_0_COMPONENTS
  6
CONTINUOUS
 62
    7
 10
262.83567106221244
 20
145.30452204936727
 11
262.83567106221244
 21
146.20452204936736
  0
LINE
  8
_0-3_0_COMPONENTS
  6
CONTINUOUS
 62
    7
 10
262.83567106221244
 20
142.20452204936736
 11
262.83567106221244
 21
143.10452204936746
  0
LINE
  8
_0-3_0_COMPONENTS
  6
CONTINUOUS
 62
    7
 10
276.83567106221244
 20
88.904522049367528
 11
272.83567106221244
 21
88.904522049367528
  0
LINE
  8
_0-3_0_COMPONENTS
  6
CONTINUOUS
 62
    7
 10
318.83567106221244
 20
88.904522049367528
 11
314.83567106221244
 21
88.904522049367528
  0
LINE
  8
_0-3_0_COMPONENTS
  6
CONTINUOUS
 62
    7
 10
360.83567106221244
 20
88.904522049367528
 11
356.83567106221244
 21
88.904522049367528
  0
LINE
  8
_0-3_0_COMPONENTS
  6
CONTINUOUS
 62
    7
 10
272.83567106221244
 20
88.604522049367346
 11
276.83567106221244
 21
88.604522049367346
  0
LINE
  8
_0-3_0_COMPONENTS
  6
CONTINUOUS
 62
    7
 10
318.83567106221244
 20
88.604522049367346
 11
314.83567106221244
 21
88.604522049367346
  0
LINE
  8
_0-3_0_COMPONENTS
  6
CONTINUOUS
 62
    7
 10
360.83567106221244
 20
88.604522049367346
 11
356.83567106221244
 21
88.604522049367346
  0
LINE
  8
_0-3_0_COMPONENTS
  6
CONTINUOUS
 62
    7
 10
275.93567106221235
 20
88.165459549367312
 11
273.73567106221253
 21
88.165459549367312
  0
LINE
  8
_0-3_0_COMPONENTS
  6
CONTINUOUS
 62
    7
 10
317.93567106221235
 20
88.165459549367312
 11
315.73567106221253
 21
88.165459549367312
  0
LINE
  8
_0-3_0_COMPONENTS
  6
CONTINUOUS
 62
    7
 10
359.93567106221235
 20
88.165459549367312
 11
357.73567106221253
 21
88.165459549367312
  0
LINE
  8
_0-3_0_COMPONENTS
  6
CONTINUOUS
 62
    7
 10
275.93567106221235
 20
87.898077838167353
 11
276.83567106221244
 21
87.898077838167353
  0
LINE
  8
_0-3_0_COMPONENTS
  6
CONTINUOUS
 62
    7
 10
272.83567106221244
 20
87.898077838167353
 11
273.73567106221253
 21
87.898077838167353
  0
LINE
  8
_0-3_0_COMPONENTS
  6
CONTINUOUS
 62
    7
 10
315.73567106221253
 20
87.898077838167353
 11
314.83567106221244
 21
87.898077838167353
  0
LINE
  8
_0-3_0_COMPONENTS
  6
CONTINUOUS
 62
    7
 10
318.83567106221244
 20
87.898077838167353
 11
317.93567106221235
 21
87.898077838167353
  0
LINE
  8
_0-3_0_COMPONENTS
  6
CONTINUOUS
 62
    7
 10
357.73567106221253
 20
87.898077838167353
 11
356.83567106221244
 21
87.898077838167353
  0
LINE
  8
_0-3_0_COMPONENTS
  6
CONTINUOUS
 62
    7
 10
360.83567106221244
 20
87.898077838167353
 11
359.93567106221235
 21
87.898077838167353
  0
LINE
  8
_0-3_0_COMPONENTS
  6
CONTINUOUS
 62
    7
 10
194.52403924541158
 20
84.204522049367312
 11
192.52403924541158
 21
84.204522049367312
  0
LINE
  8
_0-3_0_COMPONENTS
  6
CONTINUOUS
 62
    7
 10
184.84727938901141
 20
84.455140025967352
 11
192.02403924541158
 21
84.204522049367312
  0
LINE
  8
_0-3_0_COMPONENTS
  6
CONTINUOUS
 62
    7
 10
192.52403924541158
 20
85.204522049367312
 11
192.02403924541158
 21
85.304522049367449
  0
LINE
  8
_0-3_0_COMPONENTS
  6
CONTINUOUS
 62
    7
 10
178.62403924541149
 20
191.20452204936725
 11
178.62403924541149
 21
97.204522049367312
  0
LINE
  8
_0-3_0_COMPONENTS
  6
CONTINUOUS
 62
    7
 10
200.32403924541131
 20
163.70452204936725
 11
200.88903871541242
 21
164.05764671816757
  0
LINE
  8
_0-3_0_COMPONENTS
  6
CONTINUOUS
 62
    7
 10
192.02403924541158
 20
204.20452204936725
 11
192.02403924541158
 21
84.204522049367312
  0
LINE
  8
_0-3_0_COMPONENTS
  6
CONTINUOUS
 62
    7
 10
192.52403924541158
 20
84.204522049367312
 11
192.52403924541158
 21
204.20452204936725
  0
LINE
  8
_0-3_0_COMPONENTS
  6
CONTINUOUS
 62
    7
 10
194.52403924541158
 20
84.204522049367312
 11
194.52403924541158
 21
204.20452204936725
  0
LINE
  8
_0-3_0_COMPONENTS
  6
CONTINUOUS
 62
    7
 10
197.32403924541222
 20
169.05452204936727
 11
197.32403924541222
 21
163.35452204936757
  0
LINE
  8
_0-3_0_COMPONENTS
  6
CONTINUOUS
 62
    7
 10
196.12403924541149
 20
172.70452204936725
 11
196.12403924541149
 21
169.05452204936727
  0
LINE
  8
_0-3_0_COMPONENTS
  6
CONTINUOUS
 62
    7
 10
197.12403924541149
 20
156.20452204936725
 11
197.12403924541149
 21
162.37118871596737
  0
LINE
  8
_0-3_0_COMPONENTS
  6
CONTINUOUS
 62
    7
 10
195.62403924541149
 20
149.20452204936736
 11
194.62403924541149
 21
149.20452204936736
  0
LINE
  8
_0-3_0_COMPONENTS
  6
CONTINUOUS
 62
    7
 10
199.12403924541149
 20
162.70452204936725
 11
199.12403924541149
 21
171.70452204936725
  0
LINE
  8
_0-3_0_COMPONENTS
  6
CONTINUOUS
 62
    7
 10
200.32403924541131
 20
163.70452204936725
 11
200.32403924541131
 21
169.70452204936725
  0
LINE
  8
_0-3_0_COMPONENTS
  6
CONTINUOUS
 62
    7
 10
201.12403924541149
 20
164.48164587016731
 11
201.12403924541149
 21
168.92739822856742
  0
LINE
  8
_0-3_0_COMPONENTS
  6
CONTINUOUS
 62
    7
 10
197.12403924541149
 20
162.37118871596737
 11
198.12403924541149
 21
162.37118871596737
  0
LINE
  8
_0-3_0_COMPONENTS
  6
CONTINUOUS
 62
    7
 10
194.52403924541158
 20
163.35452204936757
 11
197.32403924541222
 21
163.35452204936757
  0
LINE
  8
_0-3_0_COMPONENTS
  6
CONTINUOUS
 62
    7
 10
199.12403924541149
 20
163.70452204936725
 11
200.32403924541131
 21
163.70452204936725
  0
LINE
  8
_0-3_0_COMPONENTS
  6
CONTINUOUS
 62
    7
 10
198.12403924541149
 20
162.37118871596737
 11
201.62403924541149
 21
157.70452204936725
  0
LINE
  8
_0-3_0_COMPONENTS
  6
CONTINUOUS
 62
    7
 10
199.12403924541149
 20
162.70452204936725
 11
202.42403924541122
 21
158.30452204936727
  0
LINE
  8
_0-3_0_COMPONENTS
  6
CONTINUOUS
 62
    7
 10
194.52403924541158
 20
169.05452204936727
 11
197.32403924541222
 21
169.05452204936727
  0
LINE
  8
_0-3_0_COMPONENTS
  6
CONTINUOUS
 62
    7
 10
199.12403924541149
 20
169.70452204936725
 11
200.32403924541131
 21
169.70452204936725
  0
LINE
  8
_0-3_0_COMPONENTS
  6
CONTINUOUS
 62
    7
 10
196.12403924541149
 20
170.20452204936725
 11
199.12403924541149
 21
170.20452204936725
  0
LINE
  8
_0-3_0_COMPONENTS
  6
CONTINUOUS
 62
    7
 10
196.12403924541149
 20
171.70452204936725
 11
199.12403924541149
 21
171.70452204936725
  0
LINE
  8
_0-3_0_COMPONENTS
  6
CONTINUOUS
 62
    7
 10
195.62403924541149
 20
173.20452204936725
 11
194.62403924541149
 21
173.20452204936725
  0
LINE
  8
_0-3_0_COMPONENTS
  6
CONTINUOUS
 62
    7
 10
200.32403924541131
 20
169.70452204936725
 11
200.88903871541242
 21
169.35139738056739
  0
LINE
  8
_0-3_0_COMPONENTS
  6
CONTINUOUS
 62
    7
 10
192.52403924541158
 20
203.20452204936725
 11
192.02403924541158
 21
203.10452204936723
  0
LINE
  8
_0-3_0_COMPONENTS
  6
CONTINUOUS
 62
    7
 10
192.02403924541158
 20
204.20452204936725
 11
184.84727938901141
 21
203.95390407276727
  0
LINE
  8
_0-3_0_COMPONENTS
  6
CONTINUOUS
 62
    7
 10
194.52403924541158
 20
204.20452204936725
 11
192.52403924541158
 21
204.20452204936725
  0
LINE
  8
_0-1_1
  6
CENTER2
 62
    3
 10
171.63199669925143
 20
144.20452204936736
 11
202.06912013601322
 21
144.20452204936736
  0
LINE
  8
_0-1_1
  6
CENTER2
 62
    3
 10
189.12966416271456
 20
166.20452204936725
 11
199.19001670501938
 21
166.20452204936725
  0
LINE
  8
_0-3_0_COMPONENTS
  6
CONTINUOUS
 62
    7
 10
196.12403924541149
 20
163.35452204936757
 11
196.12403924541149
 21
149.70452204936736
  0
LINE
  8
_0-1_1
  6
CONTINUOUS
 62
    2
 10
313.85965268210338
 20
271.99214218002691
 11
313.85965268210338
 21
265.60912538999104
  0
LINE
  8
_0-1_1
  6
CONTINUOUS
 62
    2
 10
264.26852223644027
 20
271.99214218002691
 11
313.85965268210338
 21
271.99214218002691
  0
LINE
  8
_0-1_1
  6
CONTINUOUS
 62
    2
 10
264.26852223644027
 20
265.60912538999104
 11
264.26852223644027
 21
271.99214218002691
  0
LINE
  8
_0-1_1
  6
CONTINUOUS
 62
    2
 10
313.85965268210338
 20
265.60912538999104
 11
264.26852223644027
 21
265.60912538999104
  0
SOLID
  8
_0-1_1
  6
CONTINUOUS
 62
    2
 10
95.175090466092569
 20
203.51908985860006
 11
95.816901771750508
 21
204.06499510467051
 12
97.569277127919576
 22
201.35452204936723
 13
97.569277127919576
 23
201.35452204936723
  0
SOLID
  8
_0-1_1
  6
CONTINUOUS
 62
    2
 10
281.2728711371642
 20
199.43212368540264
 11
282.05859954228253
 21
199.73636892061085
 12
282.8212213380284
 22
196.60014642067687
 13
282.8212213380284
 23
196.60014642067687
  0
SOLID
  8
_0-1_1
  6
CONTINUOUS
 62
    2
 10
351.56116319290549
 20
199.66977034339072
 11
352.36796616389756
 21
199.42686448558765
 12
351.04203809419459
 22
196.48417892195448
 13
351.04203809419459
 23
196.48417892195448
  0
SOLID
  8
_0-1_1
  6
CONTINUOUS
 62
    2
 10
297.11384875471048
 20
180.84078364005404
 11
296.30322396095152
 21
180.6109538476029
 12
295.83567106221244
 22
183.80452204936727
 13
295.83567106221244
 23
183.80452204936727
  0
SOLID
  8
_0-1_1
  6
CONTINUOUS
 62
    2
 10
338.47208912634323
 20
180.58526893548935
 11
337.64679538036352
 21
180.75504679800974
 12
338.70423770209845
 22
183.80452204936727
 13
338.70423770209845
 23
183.80452204936727
  0
SOLID
  8
_0-1_1
  6
CONTINUOUS
 62
    2
 10
296.58623663984553
 20
107.74365168767677
 11
297.37312827341247
 21
107.44242777299018
 12
295.83567106221244
 22
104.60452204936746
 13
295.83567106221244
 23
104.60452204936746
  0
SOLID
  8
_0-1_1
  6
CONTINUOUS
 62
    2
 10
336.75472278022334
 20
107.64574456409775
 11
337.57868150696322
 21
107.82188742198707
 12
337.83567106221244
 22
104.60452204936746
 13
337.83567106221244
 23
104.60452204936746
  0
SOLID
  8
_0-1_1
  6
CONTINUOUS
 62
    2
 10
282.1366439048802
 20
88.744665433041632
 11
281.32653475160032
 21
88.976306209953804
 12
282.61133252019362
 22
91.937180787888053
 13
282.61133252019362
 23
91.937180787888053
  0
SOLID
  8
_0-1_1
  6
CONTINUOUS
 62
    2
 10
352.28815392564547
 20
88.919063761985114
 11
351.4920824616156
 21
88.643012111177029
 12
350.84170796265425
 22
91.804419485044036
 13
350.84170796265425
 23
91.804419485044036
  0
SOLID
  8
_0-1_1
  6
CONTINUOUS
 62
    2
 10
123.02486914054225
 20
84.3503786073544
 11
122.26494229311127
 21
83.986448014643201
 12
121.26274206866037
 22
87.054522049367335
 13
121.26274206866037
 23
87.054522049367335
  0
LINE
  8
_0-1_1
  6
CONTINUOUS
 62
    7
 10
404.17480146066918
 20
13.613290431878397
 11
16.674801460669186
 21
13.613290431878397
  0
LINE
  8
_0-1_1
  6
CONTINUOUS
 62
    7
 10
404.17480146066918
 20
13.613290431878397
 11
404.17480146066918
 21
286.81329043187838
  0
LINE
  8
_0-1_1
  6
CONTINUOUS
 62
    7
 10
16.674801460669186
 20
286.81329043187838
 11
404.17480146066918
 21
286.81329043187838
  0
LINE
  8
_0-1_1
  6
CONTINUOUS
 62
    7
 10
16.674801460669186
 20
286.81329043187838
 11
16.674801460669186
 21
13.613290431878397
  0
LINE
  8
_0-1_1
  6
CONTINUOUS
 62
    6
 10
16.474801460669368
 20
10.193290431878551
 11
19.686953880111559
 21
10.193290431878551
  0
LINE
  8
_0-1_1
  6
CONTINUOUS
 62
    6
 10
16.474801460669368
 20
11.540680992519753
 11
16.474801460669368
 21
10.193290431878551
  0
ARC
  8
_0-3_0_COMPONENTS
  6
CONTINUOUS
 62
    7
 10
283.83567106222653
 20
187.1169222268744
 40
13.789469006796759
 50
80.184100186081565
 51
99.81589981402972
  0
ARC
  8
_0-3_0_COMPONENTS
  6
CONTINUOUS
 62
    7
 10
303.83567106222562
 20
187.11692222688657
 40
13.789469006784699
 50
80.18410018607102
 51
99.815899814036527
  0
ARC
  8
_0-3_0_COMPONENTS
  6
CONTINUOUS
 62
    7
 10
329.83567106222653
 20
187.11692222689907
 40
13.78946900677246
 50
80.184100186063972
 51
99.81589981404727
  0
ARC
  8
_0-3_0_COMPONENTS
  6
CONTINUOUS
 62
    7
 10
349.83567106222744
 20
187.11692222687042
 40
13.789469006800839
 50
80.184100186088343
 51
99.815899814030686
  0
ARC
  8
_0-3_0_COMPONENTS
  6
CONTINUOUS
 62
    7
 10
283.83567106219834
 20
101.29212187222492
 40
13.78946900715613
 50
260.18410018633977
 51
279.8158998137714
  0
ARC
  8
_0-3_0_COMPONENTS
  6
CONTINUOUS
 62
    7
 10
303.83567106219652
 20
101.29212187225107
 40
13.78946900718213
 50
260.18410018636427
 51
279.81589981375839
  0
ARC
  8
_0-3_0_COMPONENTS
  6
CONTINUOUS
 62
    7
 10
329.83567106219834
 20
101.29212187224935
 40
13.789469007180139
 50
260.18410018635529
 51
279.81589981375219
  0
ARC
  8
_0-3_0_COMPONENTS
  6
CONTINUOUS
 62
    7
 10
349.83567106219652
 20
101.2921218722621
 40
13.78946900719308
 50
260.18410018637388
 51
279.81589981375248
  0
TEXT
  8
_0-1_1
 62
    7
 10
339.87480146066917
 20
19.763290431878431
 40
3.2000000000000001
 41
1
 50
0
  1
作成日
  0
TEXT
  8
_0-1_1
 62
    7
 10
339.87480146066917
 20
53.013290431878303
 40
3.2000000000000001
 41
1
 50
0
  1
商品名
  0
TEXT
  8
_0-1_1
 62
    7
 10
338.1498014606692
 20
47.163290431878209
 40
2.8999999999999999
 41
1
 50
0
  1
PROD.MARK
  0
TEXT
  8
_0-1_1
 62
    7
 10
339.87480146066917
 20
39.888290431878303
 40
3.2000000000000001
 41
1
 50
0
  1
部品名
  0
TEXT
  8
_0-1_1
 62
    7
 10
339.07480146066916
 20
31.83829043187832
 40
2.7999999999999998
 41
1
 50
0
  1
PARTNAME
  0
TEXT
  8
_0-1_1
 62
    7
 10
368.5248014606683
 20
52.679957098545045
 40
3.2000000000000001
 41
1
 50
0
  1
BRS-C102HR-CX
  0
TEXT
  8
_0-1_1
 62
    7
 10
368.5248014606683
 20
47.879957098545048
 40
3.2000000000000001
 41
1
 50
0
  1
BRS-C103HR-CX
  0
TEXT
  8
_0-1_1
 62
    7
 10
364.92480146066918
 20
35.363290431878397
 40
4
 41
1
 50
0
  1
リモコン外形図
  0
LINE
  8
_0-1_1
  6
CONTINUOUS
 62
    2
 10
335.67480146066918
 20
57.613290431878397
 11
335.67480146066918
 21
13.613290431878397
  0
LINE
  8
_0-1_1
  6
CONTINUOUS
 62
    2
 10
353.67480146066918
 20
57.613290431878397
 11
353.67480146066918
 21
13.613290431878397
  0
LINE
  8
_0-1_1
  6
CONTINUOUS
 62
    2
 10
335.67480146066918
 20
45.613290431878397
 11
404.17480146066918
 21
45.613290431878397
  0
LINE
  8
_0-1_1
  6
CONTINUOUS
 62
    2
 10
335.67480146066918
 20
29.113290431878397
 11
404.17480146066918
 21
29.113290431878397
  0
LINE
  8
_0-1_1
  6
CONTINUOUS
 62
    2
 10
335.67480146066918
 20
57.613290431878397
 11
404.17480146066918
 21
57.613290431878397
  0
TEXT
  8
_0-1_1
 62
    7
 10
270.36852223644063
 20
253.50912538999079
 40
3
 41
0.89
 50
0
  1
スイッチボックスを使用する場合。
  0
TEXT
  8
_0-1_1
 62
    7
 10
270.36852223644063
 20
249.70912538999095
 40
3
 41
0.89
 50
0
  1
市販のはさみ金具を使用する場合。
  0
TEXT
  8
_0-1_1
 62
    7
 10
270.36852223644063
 20
245.909125389991
 40
3
 41
0.89
 50
0
  1
壁へ直接取付ける場合。
  0
TEXT
  8
_0-1_1
 62
    7
 10
264.9115222364403
 20
253.50912538999079
 40
3
 41
0.89
 50
0
  1
イ
  0
TEXT
  8
_0-1_1
 62
    7
 10
264.82252223644036
 20
249.80912538999098
 40
3
 41
0.89
 50
0
  1
ロ
  0
TEXT
  8
_0-1_1
 62
    7
 10
264.9115222364403
 20
245.909125389991
 40
3
 41
0.89
 50
0
  1
ハ
  0
TEXT
  8
_0-1_1
 62
    7
 10
321.83567106221244
 20
71.619200060597108
 40
3.2000000000000001
 41
1
 50
0
  1
開口寸法
  0
CIRCLE
  8
_0-1_1
  6
CONTINUOUS
 62
    2
 10
304.03567106221225
 20
73.219200060597131
 40
2.399999999999999
  0
CIRCLE
  8
_0-1_1
  6
CONTINUOUS
 62
    2
 10
298.23567106221162
 20
73.219200060597131
 40
2.399999999999999
  0
TEXT
  8
_0-1_1
 62
    7
 10
302.70660439554558
 20
71.619200060597108
 40
3.2000000000000001
 41
0.89
 50
0
  1
ロ
  0
TEXT
  8
_0-1_1
 62
    7
 10
297.00153772887824
 20
71.619200060597108
 40
3.2000000000000001
 41
0.89
 50
0
  1
イ
  0
CIRCLE
  8
_0-1_1
  6
CONTINUOUS
 62
    2
 10
309.83567106221244
 20
73.219200060597131
 40
2.399999999999999
  0
TEXT
  8
_0-1_1
 62
    7
 10
308.60153772887861
 20
71.619200060597108
 40
3.2000000000000001
 41
0.89
 50
0
  1
ハ
  0
CIRCLE
  8
_0-1_1
  6
CONTINUOUS
 62
    2
 10
392.91983291973156
 20
137.20452204936725
 40
2.399999999999999
  0
CIRCLE
  8
_0-1_1
  6
CONTINUOUS
 62
    2
 10
392.91983291973156
 20
131.40452204936707
 40
2.399999999999999
  0
TEXT
  8
_0-1_1
 62
    7
 10
394.51983291973147
 20
135.87545538270057
 40
3.2000000000000001
 41
0.89
 50
90
  1
ロ
  0
TEXT
  8
_0-1_1
 62
    7
 10
394.51983291973147
 20
130.17038871603358
 40
3.2000000000000001
 41
0.89
 50
90
  1
イ
  0
TEXT
  8
_0-1_1
 62
    7
 10
394.51983291973147
 20
149.20452204936725
 40
3.2000000000000001
 41
1
 50
90
  1
開口寸法
  0
CIRCLE
  8
_0-1_1
  6
CONTINUOUS
 62
    2
 10
385.08934454705149
 20
137.20452204936725
 40
2.399999999999999
  0
TEXT
  8
_0-1_1
 62
    7
 10
386.6893445470514
 20
135.97038871603388
 40
3.2000000000000001
 41
0.89
 50
90
  1
ハ
  0
TEXT
  8
_0-1_1
 62
    7
 10
386.6893445470514
 20
149.20452204936725
 40
3.2000000000000001
 41
1
 50
90
  1
開口寸法
  0
LINE
  8
_0-1_1
  6
CONTINUOUS
 62
    2
 10
350.84170796265425
 20
91.804419485044036
 11
356.4375342393896
 21
75.667303102896312
  0
LINE
  8
_0-1_1
  6
CONTINUOUS
 62
    2
 10
356.4375342393896
 20
75.667303102896312
 11
362.18080501826443
 21
75.667303102896312
  0
LINE
  8
_0-1_1
  6
CONTINUOUS
 62
    2
 10
282.61133252019362
 20
91.937180787888053
 11
277.88415829744235
 21
75.40500040910183
  0
LINE
  8
_0-1_1
  6
CONTINUOUS
 62
    2
 10
277.88415829744235
 20
75.40500040910183
 11
272.28561516422132
 21
75.40500040910183
  0
LINE
  8
_0-1_1
  6
CONTINUOUS
 62
    2
 10
337.83567106221244
 20
104.60452204936746
 11
335.62034820566623
 21
114.96732995467857
  0
LINE
  8
_0-1_1
  6
CONTINUOUS
 62
    2
 10
335.62034820566623
 20
114.96732995467857
 11
348.18074833280752
 21
114.96732995467857
  0
LINE
  8
_0-1_1
  6
CONTINUOUS
 62
    2
 10
295.83567106221244
 20
104.60452204936746
 11
299.6372067328466
 21
114.53532922660929
  0
LINE
  8
_0-1_1
  6
CONTINUOUS
 62
    2
 10
299.6372067328466
 20
114.53532922660929
 11
285.04174229001455
 21
114.53532922660929
  0
LINE
  8
_0-1_1
  6
CONTINUOUS
 62
    2
 10
338.70423770209845
 20
183.80452204936727
 11
336.17997576770449
 21
171.53403191159327
  0
LINE
  8
_0-1_1
  6
CONTINUOUS
 62
    2
 10
336.17997576770449
 20
171.53403191159327
 11
348.44067659190159
 21
171.53403191159327
  0
LINE
  8
_0-1_1
  6
CONTINUOUS
 62
    2
 10
295.83567106221244
 20
183.80452204936727
 11
299.12931447126447
 21
172.18762512444334
  0
LINE
  8
_0-1_1
  6
CONTINUOUS
 62
    2
 10
299.12931447126447
 20
172.18762512444334
 11
284.95936750676128
 21
172.18762512444334
  0
LINE
  8
_0-1_1
  6
CONTINUOUS
 62
    2
 10
351.04203809419459
 20
196.48417892195448
 11
353.87721708606659
 21
205.9011228138163
  0
LINE
  8
_0-1_1
  6
CONTINUOUS
 62
    2
 10
353.87721708606659
 20
205.9011228138163
 11
359.6778477943576
 21
205.9011228138163
  0
LINE
  8
_0-1_1
  6
CONTINUOUS
 62
    2
 10
282.8212213380284
 20
196.60014642067687
 11
279.18923981977332
 21
205.9799187737384
  0
LINE
  8
_0-1_1
  6
CONTINUOUS
 62
    2
 10
279.18923981977332
 20
205.9799187737384
 11
273.45336773885719
 21
205.9799187737384
  0
LINE
  8
_0-1_1
  6
CONTINUOUS
 62
    2
 10
121.26274206866037
 20
87.054522049367335
 11
134.77176453706033
 21
58.846206887413814
  0
LINE
  8
_0-1_1
  6
CONTINUOUS
 62
    2
 10
134.77176453706033
 20
58.846206887413814
 11
172.77176453706033
 21
58.846206887413814
  0
TEXT
  8
_0-1_1
 62
    7
 10
285.52523417342854
 20
173.48762512444318
 40
3.2000000000000001
 41
0.89
 50
0
  1
イ
  0
TEXT
  8
_0-1_1
 62
    7
 10
289.93030084009433
 20
173.48762512444318
 40
3.2000000000000001
 41
0.89
 50
0
  1
ロ
  0
TEXT
  8
_0-1_1
 62
    7
 10
340.90654325856849
 20
172.83403191159334
 40
3.2000000000000001
 41
0.89
 50
0
  1
イ
  0
TEXT
  8
_0-1_1
 62
    7
 10
345.31160992523518
 20
172.83403191159334
 40
3.2000000000000001
 41
0.89
 50
0
  1
ロ
  0
TEXT
  8
_0-1_1
 62
    7
 10
275.08717044598233
 20
207.27991877373835
 40
3.2000000000000001
 41
0.89
 50
0
  1
ハ
  0
TEXT
  8
_0-1_1
 62
    7
 10
355.5433991068794
 20
207.20112281381636
 40
3.2000000000000001
 41
0.89
 50
0
  1
ハ
  0
LINE
  8
_0-3_0_COMPONENTS
  6
CONTINUOUS
 62
    7
 10
55.650349910844397
 20
204.20452204936714
 11
155.65034991084439
 21
204.20452204936714
  0
ARC
  8
_0-3_0_COMPONENTS
  6
CONTINUOUS
 62
    7
 10
55.650349910844397
 20
196.20452204936714
 40
8
 50
90
 51
180
  0
ARC
  8
_0-3_0_COMPONENTS
  6
CONTINUOUS
 62
    7
 10
155.65034991084439
 20
196.20452204936714
 40
8
 50
0
 51
90
  0
LINE
  8
_0-3_0_COMPONENTS
  6
CONTINUOUS
 62
    7
 10
163.65034991084439
 20
196.20452204936714
 11
163.65034991084439
 21
92.204522049367312
  0
ARC
  8
_0-3_0_COMPONENTS
  6
CONTINUOUS
 62
    7
 10
155.65034991084439
 20
92.204522049367312
 40
8
 50
270
 51
0
  0
LINE
  8
_0-3_0_COMPONENTS
  6
CONTINUOUS
 62
    7
 10
55.650349910844397
 20
84.204522049367312
 11
155.65034991084439
 21
84.204522049367312
  0
ARC
  8
_0-3_0_COMPONENTS
  6
CONTINUOUS
 62
    7
 10
55.650349910844397
 20
92.204522049367312
 40
8
 50
180
 51
270
  0
LINE
  8
_0-3_0_COMPONENTS
  6
CONTINUOUS
 62
    7
 10
47.650349910844397
 20
196.20452204936714
 11
47.650349910844397
 21
92.204522049367312
  0
ARC
  8
_0-3_0_COMPONENTS
  6
CONTINUOUS
 62
    7
 10
147.65072425984453
 20
88.580932568760033
 40
1.5
 50
270
 51
0
  0
ARC
  8
_0-3_0_COMPONENTS
  6
CONTINUOUS
 62
    7
 10
63.650724259844537
 20
88.580932568760033
 40
1.5
 50
180
 51
270
  0
ARC
  8
_0-3_0_COMPONENTS
  6
CONTINUOUS
 62
    7
 10
63.650724259844537
 20
96.580932568760033
 40
1.5
 50
90
 51
180
  0
ARC
  8
_0-3_0_COMPONENTS
  6
CONTINUOUS
 62
    7
 10
147.65072425984453
 20
96.580932568760033
 40
1.5
 50
0
 51
90
  0
ARC
  8
_0-3_0_COMPONENTS
  6
CONTINUOUS
 62
    7
 10
147.65072425984453
 20
199.77472686725604
 40
1.5
 50
0
 51
90
  0
ARC
  8
_0-3_0_COMPONENTS
  6
CONTINUOUS
 62
    7
 10
63.650724259844537
 20
199.77472686725604
 40
1.5
 50
90
 51
180
  0
ARC
  8
_0-3_0_COMPONENTS
  6
CONTINUOUS
 62
    7
 10
63.650724259844537
 20
191.77472686725604
 40
1.5
 50
180
 51
270
  0
ARC
  8
_0-3_0_COMPONENTS
  6
CONTINUOUS
 62
    7
 10
147.65072425984453
 20
191.77472686725604
 40
1.5
 50
270
 51
0
  0
LINE
  8
_0-3_0_COMPONENTS
  6
CONTINUOUS
 62
    7
 10
62.150724259844537
 20
88.580932568760033
 11
62.150724259844537
 21
96.580932568760033
  0
LINE
  8
_0-3_0_COMPONENTS
  6
CONTINUOUS
 62
    7
 10
147.65072425984453
 20
87.080932568760147
 11
63.650724259844537
 21
87.080932568760147
  0
LINE
  8
_0-3_0_COMPONENTS
  6
CONTINUOUS
 62
    7
 10
149.15072425984453
 20
96.580932568760033
 11
149.15072425984453
 21
88.580932568760033
  0
LINE
  8
_0-3_0_COMPONENTS
  6
CONTINUOUS
 62
    7
 10
63.650724259844537
 20
98.080932568760033
 11
147.65072425984453
 21
98.080932568760033
  0
LINE
  8
_0-3_0_COMPONENTS
  6
CONTINUOUS
 62
    7
 10
63.650724259844537
 20
201.27472686725604
 11
147.65072425984453
 21
201.27472686725604
  0
LINE
  8
_0-3_0_COMPONENTS
  6
CONTINUOUS
 62
    7
 10
149.15072425984453
 20
199.77472686725604
 11
149.15072425984453
 21
191.77472686725604
  0
LINE
  8
_0-3_0_COMPONENTS
  6
CONTINUOUS
 62
    7
 10
147.65072425984453
 20
190.27472686725604
 11
63.650724259844537
 21
190.27472686725604
  0
LINE
  8
_0-3_0_COMPONENTS
  6
CONTINUOUS
 62
    7
 10
62.150724259844537
 20
191.77472686725604
 11
62.150724259844537
 21
199.77472686725604
  0
LINE
  8
_0-3_0_COMPONENTS
  6
CONTINUOUS
 62
    4
 10
57.250349910844306
 20
102.50452204936721
 11
57.250349910844306
 21
186.20452204936702
  0
LINE
  8
_0-3_0_COMPONENTS
  6
CONTINUOUS
 62
    4
 10
154.05034991084448
 20
102.50452204936721
 11
154.05034991084448
 21
186.20452204936702
  0
LINE
  8
_0-3_0_COMPONENTS
  6
CONTINUOUS
 62
    4
 10
151.05034991084448
 20
99.50452204936721
 11
60.250349910844306
 21
99.50452204936721
  0
LINE
  8
_0-3_0_COMPONENTS
  6
CONTINUOUS
 62
    4
 10
151.05034991084448
 20
189.20452204936714
 11
60.250349910844306
 21
189.20452204936714
  0
ARC
  8
_0-3_0_COMPONENTS
  6
CONTINUOUS
 62
    4
 10
60.250349910844306
 20
102.50452204936721
 40
3
 50
180
 51
270
  0
ARC
  8
_0-3_0_COMPONENTS
  6
CONTINUOUS
 62
    4
 10
151.05034991084448
 20
102.50452204936721
 40
3
 50
270
 51
0
  0
ARC
  8
_0-3_0_COMPONENTS
  6
CONTINUOUS
 62
    4
 10
151.05034991084448
 20
186.20452204936702
 40
3
 50
0
 51
90
  0
ARC
  8
_0-3_0_COMPONENTS
  6
CONTINUOUS
 62
    4
 10
60.250349910844306
 20
186.20452204936702
 40
3
 50
90
 51
180
  0
LINE
  8
_0-3_0_COMPONENTS
  6
CONTINUOUS
 62
    4
 10
66.686149070882493
 20
184.34826392290847
 11
66.854958070882275
 21
183.02121292290848
  0
LINE
  8
_0-3_0_COMPONENTS
  6
CONTINUOUS
 62
    4
 10
66.912147070882383
 20
182.57059492290773
 11
66.987939070883385
 21
181.97597192290777
  0
LINE
  8
_0-3_0_COMPONENTS
  6
CONTINUOUS
 62
    4
 10
67.634928070882324
 20
181.97597192290777
 11
67.229440070882446
 21
185.04141692290852
  0
LINE
  8
_0-3_0_COMPONENTS
  6
CONTINUOUS
 62
    4
 10
69.122865070882198
 20
182.85171492290862
 11
69.483566070883625
 21
181.97597192290777
  0
LINE
  8
_0-3_0_COMPONENTS
  6
CONTINUOUS
 62
    4
 10
68.221283070881327
 20
185.04141692290852
 11
68.815907070881621
 21
183.59723292290857
  0
LINE
  8
_0-3_0_COMPONENTS
  6
CONTINUOUS
 62
    4
 10
69.224495070882312
 20
184.27936192290849
 11
68.906513070882283
 21
185.04141692290852
  0
LINE
  8
_0-3_0_COMPONENTS
  6
CONTINUOUS
 62
    4
 10
70.187055070882252
 20
181.97597192290777
 11
69.534554070881313
 21
183.53659992290852
  0
LINE
  8
_0-3_0_COMPONENTS
  6
CONTINUOUS
 62
    4
 10
64.831309070882525
 20
181.97597192290777
 11
65.029747070882422
 21
185.04141692290852
  0
LINE
  8
_0-3_0_COMPONENTS
  6
CONTINUOUS
 62
    4
 10
64.30593207088259
 20
183.89144492290847
 11
64.181909070883193
 21
181.97597192290777
  0
LINE
  8
_0-3_0_COMPONENTS
  6
CONTINUOUS
 62
    4
 10
70.92637207088137
 20
181.11883192290758
 11
70.92637207088137
 21
185.89786792290874
  0
LINE
  8
_0-3_0_COMPONENTS
  6
CONTINUOUS
 62
    4
 10
61.36864407088251
 20
185.89786792290874
 11
61.36864407088251
 21
181.11883192290758
  0
LINE
  8
_0-3_0_COMPONENTS
  6
CONTINUOUS
 62
    4
 10
63.476009070882355
 20
182.88134292290874
 11
63.280327070881412
 21
185.04141692290852
  0
LINE
  8
_0-3_0_COMPONENTS
  6
CONTINUOUS
 62
    4
 10
62.923415070882583
 20
183.88799992290853
 11
63.103594070882536
 21
181.97597192290777
  0
LINE
  8
_0-3_0_COMPONENTS
  6
CONTINUOUS
 62
    4
 10
62.586141070882604
 20
181.97597192290777
 11
62.923415070882583
 21
183.88799992290853
  0
LINE
  8
_0-3_0_COMPONENTS
  6
CONTINUOUS
 62
    4
 10
62.450404070882541
 20
185.04141692290852
 11
61.909868070881202
 21
181.97597192290777
  0
LINE
  8
_0-3_0_COMPONENTS
  6
CONTINUOUS
 62
    4
 10
63.641029070881359
 20
181.97597192290777
 11
64.30593207088259
 21
183.89144492290847
  0
LINE
  8
_0-3_0_COMPONENTS
  6
CONTINUOUS
 62
    4
 10
64.218427070882626
 20
185.04141692290852
 11
63.476009070882355
 21
182.88134292290874
  0
LINE
  8
_0-3_0_COMPONENTS
  6
CONTINUOUS
 62
    4
 10
66.246899070882591
 20
185.04141692290852
 11
65.20062407088244
 21
181.97597192290777
  0
LINE
  8
_0-3_0_COMPONENTS
  6
CONTINUOUS
 62
    4
 10
66.234152070882373
 20
183.02121292290848
 11
66.686149070882493
 21
184.34826392290847
  0
LINE
  8
_0-3_0_COMPONENTS
  6
CONTINUOUS
 62
    4
 10
65.877240070882635
 20
181.97597192290777
 11
66.079812070882326
 21
182.57059492290773
  0
LINE
  8
_0-3_0_COMPONENTS
  6
CONTINUOUS
 62
    4
 10
70.92637207088137
 20
185.89786792290874
 11
61.36864407088251
 21
185.89786792290874
  0
LINE
  8
_0-3_0_COMPONENTS
  6
CONTINUOUS
 62
    4
 10
63.280327070881412
 20
185.04141692290852
 11
62.450404070882541
 21
185.04141692290852
  0
LINE
  8
_0-3_0_COMPONENTS
  6
CONTINUOUS
 62
    4
 10
65.029747070882422
 20
185.04141692290852
 11
64.218427070882626
 21
185.04141692290852
  0
LINE
  8
_0-3_0_COMPONENTS
  6
CONTINUOUS
 62
    4
 10
67.229440070882446
 20
185.04141692290852
 11
66.246899070882591
 21
185.04141692290852
  0
LINE
  8
_0-3_0_COMPONENTS
  6
CONTINUOUS
 62
    4
 10
68.906513070882283
 20
185.04141692290852
 11
68.221283070881327
 21
185.04141692290852
  0
LINE
  8
_0-3_0_COMPONENTS
  6
CONTINUOUS
 62
    4
 10
70.439236070882543
 20
185.04141692290852
 11
69.682004070882612
 21
185.04141692290852
  0
LINE
  8
_0-3_0_COMPONENTS
  6
CONTINUOUS
 62
    4
 10
66.854958070882275
 20
183.02121292290848
 11
66.234152070882373
 21
183.02121292290848
  0
LINE
  8
_0-3_0_COMPONENTS
  6
CONTINUOUS
 62
    4
 10
66.079812070882326
 20
182.57059492290773
 11
66.912147070882383
 21
182.57059492290773
  0
LINE
  8
_0-3_0_COMPONENTS
  6
CONTINUOUS
 62
    4
 10
69.483566070883625
 20
181.97597192290777
 11
70.187055070882252
 21
181.97597192290777
  0
LINE
  8
_0-3_0_COMPONENTS
  6
CONTINUOUS
 62
    4
 10
67.842667070883635
 20
181.97597192290777
 11
68.595765070882407
 21
181.97597192290777
  0
LINE
  8
_0-3_0_COMPONENTS
  6
CONTINUOUS
 62
    4
 10
66.987939070883385
 20
181.97597192290777
 11
67.634928070882324
 21
181.97597192290777
  0
LINE
  8
_0-3_0_COMPONENTS
  6
CONTINUOUS
 62
    4
 10
65.20062407088244
 20
181.97597192290777
 11
65.877240070882635
 21
181.97597192290777
  0
LINE
  8
_0-3_0_COMPONENTS
  6
CONTINUOUS
 62
    4
 10
64.181909070883193
 20
181.97597192290777
 11
64.831309070882525
 21
181.97597192290777
  0
LINE
  8
_0-3_0_COMPONENTS
  6
CONTINUOUS
 62
    4
 10
63.103594070882536
 20
181.97597192290777
 11
63.641029070881359
 21
181.97597192290777
  0
LINE
  8
_0-3_0_COMPONENTS
  6
CONTINUOUS
 62
    4
 10
61.909868070881202
 20
181.97597192290777
 11
62.586141070882604
 21
181.97597192290777
  0
LINE
  8
_0-3_0_COMPONENTS
  6
CONTINUOUS
 62
    4
 10
61.36864407088251
 20
181.11883192290758
 11
70.92637207088137
 21
181.11883192290758
  0
LINE
  8
_0-3_0_COMPONENTS
  6
CONTINUOUS
 62
    4
 10
68.595765070882407
 20
181.97597192290777
 11
69.122865070882198
 21
182.85171492290862
  0
LINE
  8
_0-3_0_COMPONENTS
  6
CONTINUOUS
 62
    4
 10
69.534554070881313
 20
183.53659992290852
 11
70.439236070882543
 21
185.04141692290852
  0
LINE
  8
_0-3_0_COMPONENTS
  6
CONTINUOUS
 62
    4
 10
68.815907070881621
 20
183.59723292290857
 11
67.842667070883635
 21
181.97597192290777
  0
LINE
  8
_0-3_0_COMPONENTS
  6
CONTINUOUS
 62
    4
 10
69.682004070882612
 20
185.04141692290852
 11
69.224495070882312
 21
184.27936192290849
  0
CIRCLE
  8
_0-3_0_COMPONENTS
  6
CONTINUOUS
 62
    4
 10
72.667523070882452
 20
182.21850592290775
 40
0.8998590000001097
  0
CIRCLE
  8
_0-3_0_COMPONENTS
  6
CONTINUOUS
 62
    4
 10
72.666834070882487
 20
182.21781692290767
 40
1.09898500000008
  0
CIRCLE
  8
_0-3_0_COMPONENTS
  6
CONTINUOUS
 62
    4
 10
144.13839320302349
 20
181.27790354379737
 40
1.0610925771469719
  0
CIRCLE
  8
_0-3_0_COMPONENTS
  6
CONTINUOUS
 62
    4
 10
142.76224641403132
 20
183.6112021259488
 40
1.061196830692981
  0
CIRCLE
  8
_0-3_0_COMPONENTS
  6
CONTINUOUS
 62
    4
 10
145.4644982905952
 20
183.6112021259488
 40
1.061196830692981
  0
CIRCLE
  8
_0-3_0_COMPONENTS
  6
CONTINUOUS
 62
    4
 10
145.4644982905952
 20
178.84483431944488
 40
1.060884070058033
  0
CIRCLE
  8
_0-3_0_COMPONENTS
  6
CONTINUOUS
 62
    4
 10
146.86274683104556
 20
181.27790354379737
 40
1.061092577149032
  0
CIRCLE
  8
_0-3_0_COMPONENTS
  6
CONTINUOUS
 62
    4
 10
148.26224641403132
 20
183.6112021259488
 40
1.0611968306919619
  0
LINE
  8
_0-3_0_COMPONENTS
  6
CONTINUOUS
 62
    4
 10
61.250349910844306
 20
119.70452204936725
 11
61.250349910844306
 21
108.9045220493673
  0
ARC
  8
_0-3_0_COMPONENTS
  6
CONTINUOUS
 62
    4
 10
64.250349910844306
 20
108.9045220493673
 40
3
 50
180
 51
270
  0
LINE
  8
_0-3_0_COMPONENTS
  6
CONTINUOUS
 62
    4
 10
64.250349910844306
 20
105.90452204936717
 11
78.050349910844488
 21
105.90452204936717
  0
ARC
  8
_0-3_0_COMPONENTS
  6
CONTINUOUS
 62
    4
 10
78.050349910844488
 20
108.9045220493673
 40
3
 50
270
 51
0
  0
LINE
  8
_0-3_0_COMPONENTS
  6
CONTINUOUS
 62
    4
 10
81.050349910844488
 20
108.9045220493673
 11
81.050349910844488
 21
119.70452204936725
  0
ARC
  8
_0-3_0_COMPONENTS
  6
CONTINUOUS
 62
    4
 10
78.050349910844488
 20
119.70452204936725
 40
3
 50
0
 51
90
  0
LINE
  8
_0-3_0_COMPONENTS
  6
CONTINUOUS
 62
    4
 10
78.050349910844488
 20
122.70452204936725
 11
64.250349910844306
 21
122.70452204936725
  0
ARC
  8
_0-3_0_COMPONENTS
  6
CONTINUOUS
 62
    4
 10
64.250349910844306
 20
119.70452204936725
 40
3
 50
90
 51
180
  0
LINE
  8
_0-3_0_COMPONENTS
  6
CONTINUOUS
 62
    4
 10
61.650349910844397
 20
119.70452204936725
 11
61.650349910844397
 21
108.9045220493673
  0
ARC
  8
_0-3_0_COMPONENTS
  6
CONTINUOUS
 62
    4
 10
64.250349910845216
 20
108.90452204936717
 40
2.6000000000003629
 50
179.9999999999967
 51
269.99999999998999
  0
LINE
  8
_0-3_0_COMPONENTS
  6
CONTINUOUS
 62
    4
 10
64.250349910844306
 20
106.30452204936726
 11
78.050349910844488
 21
106.30452204936726
  0
ARC
  8
_0-3_0_COMPONENTS
  6
CONTINUOUS
 62
    4
 10
78.050349910844488
 20
108.90452204936717
 40
2.599999999999909
 50
270.00000000001
 51
0.0000000000031551
  0
LINE
  8
_0-3_0_COMPONENTS
  6
CONTINUOUS
 62
    4
 10
80.650349910844397
 20
108.9045220493673
 11
80.650349910844397
 21
119.70452204936725
  0
ARC
  8
_0-3_0_COMPONENTS
  6
CONTINUOUS
 62
    4
 10
78.050349910844488
 20
119.70452204936735
 40
2.6000000000003629
 50
359.99999999999681
 51
89.999999999989981
  0
LINE
  8
_0-3_0_COMPONENTS
  6
CONTINUOUS
 62
    4
 10
78.050349910844488
 20
122.30452204936726
 11
64.250349910844306
 21
122.30452204936726
  0
ARC
  8
_0-3_0_COMPONENTS
  6
CONTINUOUS
 62
    4
 10
64.250349910845216
 20
119.70452204936735
 40
2.599999999999909
 50
90.000000000010032
 51
180.00000000000321
  0
LINE
  8
_0-3_0_COMPONENTS
  6
CONTINUOUS
 62
    4
 10
84.250349910844306
 20
119.70452204936725
 11
84.250349910844306
 21
108.9045220493673
  0
ARC
  8
_0-3_0_COMPONENTS
  6
CONTINUOUS
 62
    4
 10
87.250349910844306
 20
108.9045220493673
 40
3
 50
180
 51
270
  0
LINE
  8
_0-3_0_COMPONENTS
  6
CONTINUOUS
 62
    4
 10
87.250349910844306
 20
105.90452204936717
 11
101.05034991084447
 21
105.90452204936717
  0
ARC
  8
_0-3_0_COMPONENTS
  6
CONTINUOUS
 62
    4
 10
101.05034991084447
 20
108.9045220493673
 40
3
 50
270
 51
0
  0
LINE
  8
_0-3_0_COMPONENTS
  6
CONTINUOUS
 62
    4
 10
104.05034991084447
 20
108.9045220493673
 11
104.05034991084447
 21
119.70452204936725
  0
ARC
  8
_0-3_0_COMPONENTS
  6
CONTINUOUS
 62
    4
 10
101.05034991084447
 20
119.70452204936725
 40
3
 50
0
 51
90
  0
LINE
  8
_0-3_0_COMPONENTS
  6
CONTINUOUS
 62
    4
 10
101.05034991084447
 20
122.70452204936725
 11
87.250349910844306
 21
122.70452204936725
  0
ARC
  8
_0-3_0_COMPONENTS
  6
CONTINUOUS
 62
    4
 10
87.250349910844306
 20
119.70452204936725
 40
3
 50
90
 51
180
  0
LINE
  8
_0-3_0_COMPONENTS
  6
CONTINUOUS
 62
    4
 10
84.650349910844397
 20
119.70452204936725
 11
84.650349910844397
 21
108.9045220493673
  0
ARC
  8
_0-3_0_COMPONENTS
  6
CONTINUOUS
 62
    4
 10
87.250349910844306
 20
108.90452204936717
 40
2.6000000000003629
 50
179.9999999999967
 51
269.99999999998999
  0
LINE
  8
_0-3_0_COMPONENTS
  6
CONTINUOUS
 62
    4
 10
87.250349910844306
 20
106.30452204936726
 11
101.05034991084447
 21
106.30452204936726
  0
ARC
  8
_0-3_0_COMPONENTS
  6
CONTINUOUS
 62
    4
 10
101.05034991084447
 20
108.90452204936717
 40
2.599999999999909
 50
270.00000000001
 51
0.0000000000031551
  0
LINE
  8
_0-3_0_COMPONENTS
  6
CONTINUOUS
 62
    4
 10
103.65034991084438
 20
108.9045220493673
 11
103.65034991084438
 21
119.70452204936725
  0
ARC
  8
_0-3_0_COMPONENTS
  6
CONTINUOUS
 62
    4
 10
101.05034991084447
 20
119.70452204936735
 40
2.6000000000003629
 50
359.99999999999681
 51
89.999999999989981
  0
LINE
  8
_0-3_0_COMPONENTS
  6
CONTINUOUS
 62
    4
 10
101.05034991084447
 20
122.30452204936726
 11
87.250349910844306
 21
122.30452204936726
  0
ARC
  8
_0-3_0_COMPONENTS
  6
CONTINUOUS
 62
    4
 10
87.250349910844306
 20
119.70452204936735
 40
2.599999999999909
 50
90.000000000010032
 51
180.00000000000321
  0
LINE
  8
_0-3_0_COMPONENTS
  6
CONTINUOUS
 62
    4
 10
107.2503499108443
 20
119.70452204936725
 11
107.2503499108443
 21
108.9045220493673
  0
ARC
  8
_0-3_0_COMPONENTS
  6
CONTINUOUS
 62
    4
 10
110.2503499108443
 20
108.9045220493673
 40
3
 50
180
 51
270
  0
LINE
  8
_0-3_0_COMPONENTS
  6
CONTINUOUS
 62
    4
 10
110.2503499108443
 20
105.90452204936717
 11
124.05034991084447
 21
105.90452204936717
  0
ARC
  8
_0-3_0_COMPONENTS
  6
CONTINUOUS
 62
    4
 10
124.05034991084447
 20
108.9045220493673
 40
3
 50
270
 51
0
  0
LINE
  8
_0-3_0_COMPONENTS
  6
CONTINUOUS
 62
    4
 10
127.05034991084447
 20
108.9045220493673
 11
127.05034991084447
 21
119.70452204936725
  0
ARC
  8
_0-3_0_COMPONENTS
  6
CONTINUOUS
 62
    4
 10
124.05034991084447
 20
119.70452204936725
 40
3
 50
0
 51
90
  0
LINE
  8
_0-3_0_COMPONENTS
  6
CONTINUOUS
 62
    4
 10
124.05034991084447
 20
122.70452204936725
 11
110.2503499108443
 21
122.70452204936725
  0
ARC
  8
_0-3_0_COMPONENTS
  6
CONTINUOUS
 62
    4
 10
110.2503499108443
 20
119.70452204936725
 40
3
 50
90
 51
180
  0
LINE
  8
_0-3_0_COMPONENTS
  6
CONTINUOUS
 62
    4
 10
107.65034991084438
 20
119.70452204936725
 11
107.65034991084438
 21
108.9045220493673
  0
ARC
  8
_0-3_0_COMPONENTS
  6
CONTINUOUS
 62
    4
 10
110.2503499108443
 20
108.90452204936717
 40
2.6000000000003629
 50
179.9999999999967
 51
269.99999999998999
  0
LINE
  8
_0-3_0_COMPONENTS
  6
CONTINUOUS
 62
    4
 10
110.2503499108443
 20
106.30452204936726
 11
124.05034991084447
 21
106.30452204936726
  0
ARC
  8
_0-3_0_COMPONENTS
  6
CONTINUOUS
 62
    4
 10
124.05034991084447
 20
108.90452204936717
 40
2.599999999999909
 50
270.00000000001
 51
0.0000000000031551
  0
LINE
  8
_0-3_0_COMPONENTS
  6
CONTINUOUS
 62
    4
 10
126.65034991084438
 20
108.9045220493673
 11
126.65034991084438
 21
119.70452204936725
  0
ARC
  8
_0-3_0_COMPONENTS
  6
CONTINUOUS
 62
    4
 10
124.05034991084447
 20
119.70452204936735
 40
2.6000000000003629
 50
359.99999999999681
 51
89.999999999989981
  0
LINE
  8
_0-3_0_COMPONENTS
  6
CONTINUOUS
 62
    4
 10
124.05034991084447
 20
122.30452204936726
 11
110.2503499108443
 21
122.30452204936726
  0
ARC
  8
_0-3_0_COMPONENTS
  6
CONTINUOUS
 62
    4
 10
110.2503499108443
 20
119.70452204936735
 40
2.599999999999909
 50
90.000000000010032
 51
180.00000000000321
  0
LINE
  8
_0-3_0_COMPONENTS
  6
CONTINUOUS
 62
    4
 10
130.2503499108443
 20
119.70452204936725
 11
130.2503499108443
 21
108.9045220493673
  0
ARC
  8
_0-3_0_COMPONENTS
  6
CONTINUOUS
 62
    4
 10
133.2503499108443
 20
108.9045220493673
 40
3
 50
180
 51
270
  0
LINE
  8
_0-3_0_COMPONENTS
  6
CONTINUOUS
 62
    4
 10
133.2503499108443
 20
105.90452204936717
 11
147.05034991084448
 21
105.90452204936717
  0
ARC
  8
_0-3_0_COMPONENTS
  6
CONTINUOUS
 62
    4
 10
147.05034991084448
 20
108.9045220493673
 40
3
 50
270
 51
0
  0
LINE
  8
_0-3_0_COMPONENTS
  6
CONTINUOUS
 62
    4
 10
150.05034991084448
 20
108.9045220493673
 11
150.05034991084448
 21
119.70452204936725
  0
ARC
  8
_0-3_0_COMPONENTS
  6
CONTINUOUS
 62
    4
 10
147.05034991084448
 20
119.70452204936725
 40
3
 50
0
 51
90
  0
LINE
  8
_0-3_0_COMPONENTS
  6
CONTINUOUS
 62
    4
 10
147.05034991084448
 20
122.70452204936725
 11
133.2503499108443
 21
122.70452204936725
  0
ARC
  8
_0-3_0_COMPONENTS
  6
CONTINUOUS
 62
    4
 10
133.2503499108443
 20
119.70452204936725
 40
3
 50
90
 51
180
  0
LINE
  8
_0-3_0_COMPONENTS
  6
CONTINUOUS
 62
    4
 10
130.65034991084439
 20
119.70452204936725
 11
130.65034991084439
 21
108.9045220493673
  0
ARC
  8
_0-3_0_COMPONENTS
  6
CONTINUOUS
 62
    4
 10
133.2503499108443
 20
108.90452204936717
 40
2.6000000000003629
 50
179.9999999999967
 51
269.99999999998999
  0
LINE
  8
_0-3_0_COMPONENTS
  6
CONTINUOUS
 62
    4
 10
133.2503499108443
 20
106.30452204936726
 11
147.05034991084448
 21
106.30452204936726
  0
ARC
  8
_0-3_0_COMPONENTS
  6
CONTINUOUS
 62
    4
 10
147.05034991084448
 20
108.90452204936717
 40
2.599999999999909
 50
270.00000000001
 51
0.0000000000031551
  0
LINE
  8
_0-3_0_COMPONENTS
  6
CONTINUOUS
 62
    4
 10
149.65034991084439
 20
108.9045220493673
 11
149.65034991084439
 21
119.70452204936725
  0
ARC
  8
_0-3_0_COMPONENTS
  6
CONTINUOUS
 62
    4
 10
147.05034991084448
 20
119.70452204936735
 40
2.6000000000003629
 50
359.99999999999681
 51
89.999999999989981
  0
LINE
  8
_0-3_0_COMPONENTS
  6
CONTINUOUS
 62
    4
 10
147.05034991084448
 20
122.30452204936726
 11
133.2503499108443
 21
122.30452204936726
  0
ARC
  8
_0-3_0_COMPONENTS
  6
CONTINUOUS
 62
    4
 10
133.2503499108443
 20
119.70452204936735
 40
2.599999999999909
 50
90.000000000010032
 51
180.00000000000321
  0
CIRCLE
  8
_0-3_0_COMPONENTS
  6
CONTINUOUS
 62
    4
 10
64.150349910844397
 20
137.30452204936716
 40
1
  0
TEXT
  8
_0-3_0_COMPONENTS
 62
    7
 10
119.0621024881634
 20
156.97410967823338
 40
3
 41
0.89
 50
0
  1
24時間
  0
TEXT
  8
_0-3_0_COMPONENTS
 62
    7
 10
121.09212826135943
 20
152.75864576070773
 40
3
 41
0.89
 50
0
  1
換 気
  0
TEXT
  8
_0-3_0_COMPONENTS
 62
    7
 10
101.86632929228744
 20
156.97410967823338
 40
3
 41
0.8000000000000001
 50
0
  1
タイマー
  0
TEXT
  8
_0-3_0_COMPONENTS
 62
    7
 10
104.09212826135943
 20
152.76637771947048
 40
3
 41
0.89
 50
0
  1
切 替
  0
CIRCLE
  8
_0-3_0_COMPONENTS
  6
CONTINUOUS
 62
    4
 10
147.0003499108443
 20
144.30452204936818
 40
1
  0
TEXT
  8
_0-3_0_COMPONENTS
 62
    7
 10
137.1502880551734
 20
154.54318184318367
 40
4.2999999999999989
 41
0.89
 50
0
  1
停止
  0
TEXT
  8
_0-3_0_COMPONENTS
 62
    7
 10
137.05498908610161
 20
143.30452204936807
 40
2
 41
0.8
 50
0
  1
リセット
  0
TEXT
  8
_0-3_0_COMPONENTS
 62
    7
 10
73.405607642803261
 20
154.89575916276942
 40
3.2000000000000001
 41
1.3
 50
0
  1
△
  0
TEXT
  8
_0-3_0_COMPONENTS
 62
    7
 10
88.405607642803261
 20
154.57823338957337
 40
3.2000000000000001
 41
1.3
 50
0
  1
▽
  0
ARC
  8
_0-3_0_COMPONENTS
  6
CONTINUOUS
 62
    4
 10
119.95034991084456
 20
153.5545220493675
 40
2.40000000000009
 50
180.00000000000321
 51
270
  0
LINE
  8
_0-3_0_COMPONENTS
  6
CONTINUOUS
 62
    4
 10
119.95034991084456
 20
151.15452204936741
 11
130.45034991084457
 21
151.15452204936741
  0
ARC
  8
_0-3_0_COMPONENTS
  6
CONTINUOUS
 62
    4
 10
130.45034991084457
 20
153.5545220493675
 40
2.40000000000009
 50
270
 51
359.99999999999681
  0
LINE
  8
_0-3_0_COMPONENTS
  6
CONTINUOUS
 62
    4
 10
132.85034991084421
 20
153.55452204936727
 11
132.85034991084421
 21
159.05452204936739
  0
ARC
  8
_0-3_0_COMPONENTS
  6
CONTINUOUS
 62
    4
 10
130.45034991084457
 20
159.05452204936739
 40
2.40000000000009
 50
0
 51
90
  0
LINE
  8
_0-3_0_COMPONENTS
  6
CONTINUOUS
 62
    4
 10
130.45034991084457
 20
161.45452204936736
 11
119.95034991084456
 21
161.45452204936736
  0
ARC
  8
_0-3_0_COMPONENTS
  6
CONTINUOUS
 62
    4
 10
119.95034991084456
 20
159.05452204936739
 40
2.3999999999999768
 50
90
 51
180
  0
LINE
  8
_0-3_0_COMPONENTS
  6
CONTINUOUS
 62
    4
 10
117.55034991084447
 20
159.05452204936739
 11
117.55034991084447
 21
153.55452204936727
  0
ARC
  8
_0-3_0_COMPONENTS
  6
CONTINUOUS
 62
    4
 10
119.95034991084456
 20
153.5545220493675
 40
2
 50
180.00000000000321
 51
270
  0
LINE
  8
_0-3_0_COMPONENTS
  6
CONTINUOUS
 62
    4
 10
119.95034991084456
 20
151.55452204936727
 11
130.45034991084457
 21
151.55452204936727
  0
ARC
  8
_0-3_0_COMPONENTS
  6
CONTINUOUS
 62
    4
 10
130.45034991084457
 20
153.5545220493675
 40
2.0000000000001127
 50
270
 51
359.99999999999681
  0
LINE
  8
_0-3_0_COMPONENTS
  6
CONTINUOUS
 62
    4
 10
132.45034991084457
 20
153.55452204936727
 11
132.45034991084457
 21
159.05452204936739
  0
ARC
  8
_0-3_0_COMPONENTS
  6
CONTINUOUS
 62
    4
 10
130.45034991084457
 20
159.05452204936739
 40
2
 50
0
 51
90
  0
LINE
  8
_0-3_0_COMPONENTS
  6
CONTINUOUS
 62
    4
 10
130.45034991084457
 20
161.05452204936761
 11
119.95034991084456
 21
161.0545220493675
  0
ARC
  8
_0-3_0_COMPONENTS
  6
CONTINUOUS
 62
    4
 10
119.95034991084456
 20
159.05452204936739
 40
2
 50
90
 51
180
  0
LINE
  8
_0-3_0_COMPONENTS
  6
CONTINUOUS
 62
    4
 10
117.95034991084456
 20
159.05452204936739
 11
117.95034991084456
 21
153.55452204936727
  0
ARC
  8
_0-3_0_COMPONENTS
  6
CONTINUOUS
 62
    4
 10
102.95034991084321
 20
153.5545220493675
 40
2.3999999999996362
 50
180.00000000000321
 51
270.0000000000108
  0
LINE
  8
_0-3_0_COMPONENTS
  6
CONTINUOUS
 62
    4
 10
102.95034991084456
 20
151.15452204936741
 11
113.45034991084456
 21
151.15452204936741
  0
ARC
  8
_0-3_0_COMPONENTS
  6
CONTINUOUS
 62
    4
 10
113.45034991084456
 20
153.5545220493675
 40
2.40000000000009
 50
269.99999999998908
 51
359.99999999999681
  0
LINE
  8
_0-3_0_COMPONENTS
  6
CONTINUOUS
 62
    4
 10
115.85034991084421
 20
153.55452204936727
 11
115.85034991084421
 21
159.05452204936739
  0
ARC
  8
_0-3_0_COMPONENTS
  6
CONTINUOUS
 62
    4
 10
113.45034991084456
 20
159.05452204936739
 40
2.3999999999996362
 50
0
 51
90.000000000010871
  0
LINE
  8
_0-3_0_COMPONENTS
  6
CONTINUOUS
 62
    4
 10
113.45034991084456
 20
161.45452204936736
 11
102.95034991084456
 21
161.45452204936736
  0
ARC
  8
_0-3_0_COMPONENTS
  6
CONTINUOUS
 62
    4
 10
102.95034991084321
 20
159.05452204936739
 40
2.3999999999999768
 50
89.999999999989128
 51
180
  0
LINE
  8
_0-3_0_COMPONENTS
  6
CONTINUOUS
 62
    4
 10
100.55034991084447
 20
159.05452204936739
 11
100.55034991084447
 21
153.55452204936727
  0
ARC
  8
_0-3_0_COMPONENTS
  6
CONTINUOUS
 62
    4
 10
102.95034991084456
 20
153.5545220493675
 40
2
 50
180.00000000000321
 51
270
  0
LINE
  8
_0-3_0_COMPONENTS
  6
CONTINUOUS
 62
    4
 10
102.95034991084456
 20
151.55452204936727
 11
113.45034991084456
 21
151.55452204936727
  0
ARC
  8
_0-3_0_COMPONENTS
  6
CONTINUOUS
 62
    4
 10
113.45034991084456
 20
153.5545220493675
 40
2.0000000000001127
 50
270
 51
359.99999999999681
  0
LINE
  8
_0-3_0_COMPONENTS
  6
CONTINUOUS
 62
    4
 10
115.45034991084456
 20
153.55452204936727
 11
115.45034991084456
 21
159.05452204936739
  0
ARC
  8
_0-3_0_COMPONENTS
  6
CONTINUOUS
 62
    4
 10
113.45034991084456
 20
159.05452204936739
 40
2
 50
0
 51
90
  0
LINE
  8
_0-3_0_COMPONENTS
  6
CONTINUOUS
 62
    4
 10
113.45034991084456
 20
161.05452204936761
 11
102.95034991084456
 21
161.0545220493675
  0
ARC
  8
_0-3_0_COMPONENTS
  6
CONTINUOUS
 62
    4
 10
102.95034991084456
 20
159.05452204936739
 40
2
 50
90
 51
180
  0
LINE
  8
_0-3_0_COMPONENTS
  6
CONTINUOUS
 62
    4
 10
100.95034991084456
 20
159.05452204936739
 11
100.95034991084456
 21
153.55452204936727
  0
ARC
  8
_0-3_0_COMPONENTS
  6
CONTINUOUS
 62
    4
 10
146.35034991084421
 20
160.45452204936759
 40
2.40000000000009
 50
0
 51
90
  0
LINE
  8
_0-3_0_COMPONENTS
  6
CONTINUOUS
 62
    4
 10
146.35034991084421
 20
162.85452204936757
 11
137.95034991084548
 21
162.85452204936757
  0
ARC
  8
_0-3_0_COMPONENTS
  6
CONTINUOUS
 62
    4
 10
137.95034991084548
 20
160.45452204936759
 40
2.3999999999999768
 50
90
 51
180
  0
LINE
  8
_0-3_0_COMPONENTS
  6
CONTINUOUS
 62
    4
 10
135.55034991084448
 20
160.45452204936759
 11
135.55034991084448
 21
152.1545220493673
  0
ARC
  8
_0-3_0_COMPONENTS
  6
CONTINUOUS
 62
    4
 10
137.95034991084548
 20
152.15452204936741
 40
2.40000000000009
 50
180.00000000000321
 51
270
  0
LINE
  8
_0-3_0_COMPONENTS
  6
CONTINUOUS
 62
    4
 10
137.95034991084548
 20
149.75452204936732
 11
146.35034991084421
 21
149.75452204936732
  0
ARC
  8
_0-3_0_COMPONENTS
  6
CONTINUOUS
 62
    4
 10
146.35034991084421
 20
152.15452204936741
 40
2.40000000000009
 50
270
 51
359.99999999999681
  0
LINE
  8
_0-3_0_COMPONENTS
  6
CONTINUOUS
 62
    4
 10
148.7503499108443
 20
152.1545220493673
 11
148.7503499108443
 21
160.45452204936759
  0
ARC
  8
_0-3_0_COMPONENTS
  6
CONTINUOUS
 62
    4
 10
146.35034991084421
 20
160.45452204936759
 40
2
 50
0
 51
90
  0
LINE
  8
_0-3_0_COMPONENTS
  6
CONTINUOUS
 62
    4
 10
146.35034991084421
 20
162.45452204936771
 11
137.95034991084548
 21
162.45452204936748
  0
ARC
  8
_0-3_0_COMPONENTS
  6
CONTINUOUS
 62
    4
 10
137.95034991084548
 20
160.45452204936759
 40
2
 50
90
 51
180
  0
LINE
  8
_0-3_0_COMPONENTS
  6
CONTINUOUS
 62
    4
 10
135.95034991084457
 20
160.45452204936759
 11
135.95034991084457
 21
152.1545220493673
  0
ARC
  8
_0-3_0_COMPONENTS
  6
CONTINUOUS
 62
    4
 10
137.95034991084548
 20
152.15452204936741
 40
2
 50
180.00000000000321
 51
270
  0
LINE
  8
_0-3_0_COMPONENTS
  6
CONTINUOUS
 62
    4
 10
137.95034991084548
 20
150.15452204936718
 11
146.35034991084421
 21
150.15452204936718
  0
ARC
  8
_0-3_0_COMPONENTS
  6
CONTINUOUS
 62
    4
 10
146.35034991084421
 20
152.15452204936741
 40
2.0000000000001127
 50
270
 51
359.99999999999681
  0
LINE
  8
_0-3_0_COMPONENTS
  6
CONTINUOUS
 62
    4
 10
148.35034991084421
 20
152.1545220493673
 11
148.35034991084421
 21
160.45452204936759
  0
TEXT
  8
_0-3_0_COMPONENTS
 62
    7
 10
87.191587024246473
 20
145.25864576070739
 40
3
 41
1
 50
0
  1
時計
  0
TEXT
  8
_0-3_0_COMPONENTS
 62
    7
 10
86.399834446927343
 20
140.48184163699613
 40
3
 41
0.8000000000000001
 50
0
  1
セット
  0
TEXT
  8
_0-3_0_COMPONENTS
 62
    7
 10
117.55034991084447
 20
148.05452204936727
 40
2.399999999999999
 41
0.8
 50
0
  1
長押し：停止
  0
LINE
  8
_0-3_0_COMPONENTS
  6
CONTINUOUS
 62
    4
 10
81.300349910844488
 20
141.55452204936727
 11
81.300349910844488
 21
147.05452204936727
  0
ARC
  8
_0-3_0_COMPONENTS
  6
CONTINUOUS
 62
    4
 10
78.900349910844397
 20
147.05452204936727
 40
2.40000000000009
 50
0.0000000000032569
 51
90
  0
LINE
  8
_0-3_0_COMPONENTS
  6
CONTINUOUS
 62
    4
 10
78.900349910844397
 20
149.45452204936736
 11
73.400349910844397
 21
149.45452204936736
  0
ARC
  8
_0-3_0_COMPONENTS
  6
CONTINUOUS
 62
    4
 10
73.400349910844397
 20
147.05452204936727
 40
2.40000000000009
 50
90
 51
179.9999999999967
  0
LINE
  8
_0-3_0_COMPONENTS
  6
CONTINUOUS
 62
    4
 10
71.000349910844306
 20
147.05452204936727
 11
71.000349910844306
 21
141.55452204936727
  0
ARC
  8
_0-3_0_COMPONENTS
  6
CONTINUOUS
 62
    4
 10
73.400349910844397
 20
141.55452204936727
 40
2.40000000000009
 50
180
 51
270
  0
LINE
  8
_0-3_0_COMPONENTS
  6
CONTINUOUS
 62
    4
 10
73.400349910844397
 20
139.1545220493673
 11
78.900349910844397
 21
139.1545220493673
  0
ARC
  8
_0-3_0_COMPONENTS
  6
CONTINUOUS
 62
    4
 10
78.900349910844397
 20
141.55452204936727
 40
2.3999999999999768
 50
270
 51
0
  0
LINE
  8
_0-3_0_COMPONENTS
  6
CONTINUOUS
 62
    4
 10
80.900349910844397
 20
141.55452204936727
 11
80.900349910844397
 21
147.05452204936727
  0
ARC
  8
_0-3_0_COMPONENTS
  6
CONTINUOUS
 62
    4
 10
78.900349910844397
 20
147.05452204936727
 40
2
 50
0.0000000000032569
 51
90
  0
LINE
  8
_0-3_0_COMPONENTS
  6
CONTINUOUS
 62
    4
 10
78.900349910844397
 20
149.05452204936727
 11
73.400349910844397
 21
149.05452204936727
  0
ARC
  8
_0-3_0_COMPONENTS
  6
CONTINUOUS
 62
    4
 10
73.400349910844397
 20
147.05452204936727
 40
2.0000000000001127
 50
90
 51
179.9999999999967
  0
LINE
  8
_0-3_0_COMPONENTS
  6
CONTINUOUS
 62
    4
 10
71.400349910844397
 20
147.05452204936727
 11
71.400349910844397
 21
141.55452204936727
  0
ARC
  8
_0-3_0_COMPONENTS
  6
CONTINUOUS
 62
    4
 10
73.400349910844397
 20
141.55452204936727
 40
2
 50
180
 51
270
  0
LINE
  8
_0-3_0_COMPONENTS
  6
CONTINUOUS
 62
    4
 10
73.400349910844397
 20
139.55452204936716
 11
78.900349910844397
 21
139.55452204936727
  0
ARC
  8
_0-3_0_COMPONENTS
  6
CONTINUOUS
 62
    4
 10
78.900349910844397
 20
141.55452204936727
 40
2
 50
270
 51
0
  0
LINE
  8
_0-3_0_COMPONENTS
  6
CONTINUOUS
 62
    4
 10
98.800349910844488
 20
141.55452204936727
 11
98.800349910844488
 21
147.05452204936727
  0
ARC
  8
_0-3_0_COMPONENTS
  6
CONTINUOUS
 62
    4
 10
96.400349910844397
 20
147.05452204936727
 40
2.40000000000009
 50
0.0000000000032569
 51
90
  0
LINE
  8
_0-3_0_COMPONENTS
  6
CONTINUOUS
 62
    4
 10
96.400349910844397
 20
149.45452204936736
 11
85.900349910844397
 21
149.45452204936736
  0
ARC
  8
_0-3_0_COMPONENTS
  6
CONTINUOUS
 62
    4
 10
85.900349910844397
 20
147.05452204936727
 40
2.40000000000009
 50
90
 51
179.9999999999967
  0
LINE
  8
_0-3_0_COMPONENTS
  6
CONTINUOUS
 62
    4
 10
83.500349910844306
 20
147.05452204936727
 11
83.500349910844306
 21
141.55452204936727
  0
ARC
  8
_0-3_0_COMPONENTS
  6
CONTINUOUS
 62
    4
 10
85.900349910844397
 20
141.55452204936727
 40
2.40000000000009
 50
180
 51
270
  0
LINE
  8
_0-3_0_COMPONENTS
  6
CONTINUOUS
 62
    4
 10
85.900349910844397
 20
139.1545220493673
 11
96.400349910844397
 21
139.1545220493673
  0
ARC
  8
_0-3_0_COMPONENTS
  6
CONTINUOUS
 62
    4
 10
96.400349910844397
 20
141.55452204936727
 40
2.3999999999999768
 50
270
 51
0
  0
LINE
  8
_0-3_0_COMPONENTS
  6
CONTINUOUS
 62
    4
 10
98.400349910844397
 20
141.55452204936727
 11
98.400349910844397
 21
147.05452204936727
  0
ARC
  8
_0-3_0_COMPONENTS
  6
CONTINUOUS
 62
    4
 10
96.400349910844397
 20
147.05452204936727
 40
2
 50
0.0000000000032569
 51
90
  0
LINE
  8
_0-3_0_COMPONENTS
  6
CONTINUOUS
 62
    4
 10
96.400349910844397
 20
149.05452204936727
 11
85.900349910844397
 21
149.05452204936727
  0
ARC
  8
_0-3_0_COMPONENTS
  6
CONTINUOUS
 62
    4
 10
85.900349910844397
 20
147.05452204936727
 40
2.0000000000001127
 50
90
 51
179.9999999999967
  0
LINE
  8
_0-3_0_COMPONENTS
  6
CONTINUOUS
 62
    4
 10
83.900349910844397
 20
147.05452204936727
 11
83.900349910844397
 21
141.55452204936727
  0
ARC
  8
_0-3_0_COMPONENTS
  6
CONTINUOUS
 62
    4
 10
85.900349910844397
 20
141.55452204936727
 40
2
 50
180
 51
270
  0
LINE
  8
_0-3_0_COMPONENTS
  6
CONTINUOUS
 62
    4
 10
85.900349910844397
 20
139.55452204936716
 11
96.400349910844397
 21
139.55452204936727
  0
ARC
  8
_0-3_0_COMPONENTS
  6
CONTINUOUS
 62
    4
 10
96.400349910844397
 20
141.55452204936727
 40
2
 50
270
 51
0
  0
LINE
  8
_0-3_0_COMPONENTS
  6
CONTINUOUS
 62
    4
 10
97.800349910844488
 20
154.25452204936732
 11
97.800349910844488
 21
158.25452204936732
  0
ARC
  8
_0-3_0_COMPONENTS
  6
CONTINUOUS
 62
    4
 10
95.400349910844397
 20
158.25452204936732
 40
2.40000000000009
 50
0
 51
90
  0
LINE
  8
_0-3_0_COMPONENTS
  6
CONTINUOUS
 62
    4
 10
95.400349910844397
 20
160.6545220493673
 11
86.900349910844397
 21
160.6545220493673
  0
ARC
  8
_0-3_0_COMPONENTS
  6
CONTINUOUS
 62
    4
 10
86.900349910844397
 20
158.25452204936732
 40
2.3999999999999768
 50
90
 51
180
  0
LINE
  8
_0-3_0_COMPONENTS
  6
CONTINUOUS
 62
    4
 10
84.500349910844306
 20
158.25452204936732
 11
84.500349910844306
 21
154.25452204936732
  0
ARC
  8
_0-3_0_COMPONENTS
  6
CONTINUOUS
 62
    4
 10
86.900349910844397
 20
154.25452204936755
 40
2.40000000000009
 50
180.00000000000321
 51
270
  0
LINE
  8
_0-3_0_COMPONENTS
  6
CONTINUOUS
 62
    4
 10
86.900349910844397
 20
151.85452204936746
 11
95.400349910844397
 21
151.85452204936734
  0
ARC
  8
_0-3_0_COMPONENTS
  6
CONTINUOUS
 62
    4
 10
95.400349910844397
 20
154.25452204936732
 40
2.3999999999999768
 50
270
 51
0
  0
LINE
  8
_0-3_0_COMPONENTS
  6
CONTINUOUS
 62
    4
 10
97.400349910844397
 20
154.25452204936732
 11
97.400349910844397
 21
158.25452204936732
  0
ARC
  8
_0-3_0_COMPONENTS
  6
CONTINUOUS
 62
    4
 10
95.400349910844397
 20
158.25452204936732
 40
2
 50
0
 51
90
  0
LINE
  8
_0-3_0_COMPONENTS
  6
CONTINUOUS
 62
    4
 10
95.400349910844397
 20
160.25452204936743
 11
86.900349910844397
 21
160.25452204936721
  0
ARC
  8
_0-3_0_COMPONENTS
  6
CONTINUOUS
 62
    4
 10
86.900349910844397
 20
158.25452204936732
 40
2
 50
90
 51
180
  0
LINE
  8
_0-3_0_COMPONENTS
  6
CONTINUOUS
 62
    4
 10
84.900349910844397
 20
158.25452204936732
 11
84.900349910844397
 21
154.25452204936732
  0
ARC
  8
_0-3_0_COMPONENTS
  6
CONTINUOUS
 62
    4
 10
86.900349910844397
 20
154.25452204936755
 40
2
 50
180.00000000000321
 51
270
  0
LINE
  8
_0-3_0_COMPONENTS
  6
CONTINUOUS
 62
    4
 10
86.900349910844397
 20
152.25452204936743
 11
95.400349910844397
 21
152.25452204936732
  0
ARC
  8
_0-3_0_COMPONENTS
  6
CONTINUOUS
 62
    4
 10
95.400349910844397
 20
154.25452204936732
 40
2
 50
270
 51
0
  0
LINE
  8
_0-3_0_COMPONENTS
  6
CONTINUOUS
 62
    4
 10
69.500349910844306
 20
158.25452204936732
 11
69.500349910844306
 21
154.25452204936732
  0
ARC
  8
_0-3_0_COMPONENTS
  6
CONTINUOUS
 62
    4
 10
71.900349910844397
 20
154.25452204936755
 40
2.40000000000009
 50
180.00000000000321
 51
270
  0
LINE
  8
_0-3_0_COMPONENTS
  6
CONTINUOUS
 62
    4
 10
71.900349910844397
 20
151.85452204936746
 11
80.400349910844397
 21
151.85452204936746
  0
ARC
  8
_0-3_0_COMPONENTS
  6
CONTINUOUS
 62
    4
 10
80.400349910845307
 20
154.25452204936755
 40
2.40000000000009
 50
269.99999999998908
 51
359.99999999999681
  0
LINE
  8
_0-3_0_COMPONENTS
  6
CONTINUOUS
 62
    4
 10
82.800349910845397
 20
154.25452204936732
 11
82.800349910845397
 21
158.25452204936732
  0
ARC
  8
_0-3_0_COMPONENTS
  6
CONTINUOUS
 62
    4
 10
80.400349910845307
 20
158.25452204936732
 40
2.3999999999996362
 50
0.0000000000032569
 51
90.000000000010871
  0
LINE
  8
_0-3_0_COMPONENTS
  6
CONTINUOUS
 62
    4
 10
80.400349910844397
 20
160.6545220493673
 11
71.900349910844397
 21
160.6545220493673
  0
ARC
  8
_0-3_0_COMPONENTS
  6
CONTINUOUS
 62
    4
 10
71.900349910844397
 20
158.25452204936732
 40
2.3999999999999768
 50
90
 51
180
  0
LINE
  8
_0-3_0_COMPONENTS
  6
CONTINUOUS
 62
    4
 10
69.900349910844397
 20
158.25452204936732
 11
69.900349910844397
 21
154.25452204936732
  0
ARC
  8
_0-3_0_COMPONENTS
  6
CONTINUOUS
 62
    4
 10
71.900349910844397
 20
154.25452204936755
 40
2
 50
180.00000000000321
 51
270
  0
LINE
  8
_0-3_0_COMPONENTS
  6
CONTINUOUS
 62
    4
 10
71.900349910844397
 20
152.25452204936743
 11
80.400349910844397
 21
152.25452204936743
  0
ARC
  8
_0-3_0_COMPONENTS
  6
CONTINUOUS
 62
    4
 10
80.400349910845307
 20
154.25452204936755
 40
2.0000000000001127
 50
269.99999999998698
 51
359.99999999999681
  0
LINE
  8
_0-3_0_COMPONENTS
  6
CONTINUOUS
 62
    4
 10
82.400349910845307
 20
154.25452204936732
 11
82.400349910845307
 21
158.25452204936732
  0
ARC
  8
_0-3_0_COMPONENTS
  6
CONTINUOUS
 62
    4
 10
80.400349910845307
 20
158.25452204936732
 40
1.999999999999545
 50
0.0000000000032569
 51
90.000000000013031
  0
LINE
  8
_0-3_0_COMPONENTS
  6
CONTINUOUS
 62
    4
 10
80.400349910844397
 20
160.25452204936698
 11
71.900349910844397
 21
160.25452204936721
  0
ARC
  8
_0-3_0_COMPONENTS
  6
CONTINUOUS
 62
    4
 10
71.900349910844397
 20
158.25452204936732
 40
2
 50
90
 51
180
  0
LINE
  8
_0-3_0_COMPONENTS
  6
CONTINUOUS
 62
    4
 10
68.450349910844579
 20
164.50452204936732
 11
68.450349910844579
 21
176.10452204936711
  0
LINE
  8
_0-3_0_COMPONENTS
  6
CONTINUOUS
 62
    4
 10
102.85034991084421
 20
164.50452204936732
 11
102.85034991084421
 21
176.10452204936711
  0
LINE
  8
_0-3_0_COMPONENTS
  6
CONTINUOUS
 62
    4
 10
101.65034991084438
 20
163.30452204936727
 11
69.650349910844397
 21
163.30452204936727
  0
LINE
  8
_0-3_0_COMPONENTS
  6
CONTINUOUS
 62
    4
 10
101.65034991084438
 20
177.30452204936727
 11
69.650349910844397
 21
177.30452204936727
  0
ARC
  8
_0-3_0_COMPONENTS
  6
CONTINUOUS
 62
    4
 10
69.650349910844397
 20
164.50452204936732
 40
1.199999999999999
 50
180
 51
270
  0
ARC
  8
_0-3_0_COMPONENTS
  6
CONTINUOUS
 62
    4
 10
69.650349910844397
 20
176.10452204936711
 40
1.199999999999999
 50
90
 51
180
  0
ARC
  8
_0-3_0_COMPONENTS
  6
CONTINUOUS
 62
    4
 10
101.65034991084438
 20
176.10452204936711
 40
1.199999999999999
 50
0
 51
90
  0
ARC
  8
_0-3_0_COMPONENTS
  6
CONTINUOUS
 62
    4
 10
101.65034991084438
 20
164.50452204936732
 40
1.199999999999999
 50
270
 51
0
  0
CIRCLE
  8
_0-3_0_COMPONENTS
  6
CONTINUOUS
 62
    4
 10
83.650349910844397
 20
172.40452204936718
 40
0.5999999999999998
  0
CIRCLE
  8
_0-3_0_COMPONENTS
  6
CONTINUOUS
 62
    4
 10
82.850349910844215
 20
168.05452204936727
 40
0.5999999999999998
  0
TEXT
  8
_0-3_0_COMPONENTS
 62
    7
 10
108.65034991084438
 20
174.05452204936727
 40
2.5
 41
0.65
 50
0
  1
現在時刻
  0
TEXT
  8
_0-3_0_COMPONENTS
 62
    7
 10
108.65034991084438
 20
169.05452204936727
 40
2.5
 41
0.6999999999999998
 50
0
  1
入 時 刻
  0
TEXT
  8
_0-3_0_COMPONENTS
 62
    7
 10
108.65034991084438
 20
164.05452204936727
 40
2.5
 41
0.65
 50
0
  1
切残時間
  0
TEXT
  8
_0-3_0_COMPONENTS
 62
    7
 10
123.15034991084438
 20
169.05452204936739
 40
2.5
 41
0.7800000000000001
 50
0
  1
24時間
  0
TEXT
  8
_0-3_0_COMPONENTS
 62
    7
 10
123.15034991084438
 20
164.05452204936739
 40
2.5
 41
0.68
 50
0
  1
一時停止
  0
TEXT
  8
_0-3_0_COMPONENTS
 62
    7
 10
140.15034991084439
 20
174.15452204936752
 40
2.2999999999999989
 41
0.8999999999999999
 50
0
  1
プラズマ
  0
TEXT
  8
_0-3_0_COMPONENTS
 62
    7
 10
140.15034991084439
 20
170.95452204936736
 40
2.2999999999999989
 41
0.8299999999999998
 50
0
  1
クラスター
  0
TEXT
  8
_0-3_0_COMPONENTS
 62
    7
 10
58.45189630259756
 20
172.6545220493673
 40
2.5
 41
0.75
 50
0
  1
午前
  0
TEXT
  8
_0-3_0_COMPONENTS
 62
    7
 10
58.45189630259756
 20
165.75452204936755
 40
2.5
 41
0.75
 50
0
  1
午後
  0
ARC
  8
_0-3_0_COMPONENTS
  6
CONTINUOUS
 62
    4
 10
72.74478581119547
 20
182.52715987790486
 40
0.164648817196962
 50
270
 51
90
  0
LINE
  8
_0-3_0_COMPONENTS
  6
CONTINUOUS
 62
    4
 10
72.74478581119547
 20
182.69180869510182
 11
72.470659296203393
 21
182.69180869510182
  0
ARC
  8
_0-3_0_COMPONENTS
  6
CONTINUOUS
 62
    4
 10
72.470659296202484
 20
182.66680869510173
 40
0.025000000000091
 50
89.99999999895779
 51
180
  0
LINE
  8
_0-3_0_COMPONENTS
  6
CONTINUOUS
 62
    4
 10
72.445659296202393
 20
182.66680869510173
 11
72.445659296202393
 21
182.38751106070776
  0
ARC
  8
_0-3_0_COMPONENTS
  6
CONTINUOUS
 62
    4
 10
72.470659296202484
 20
182.38751106070787
 40
0.0249999999996361
 50
180.00000000026051
 51
270.00000000104222
  0
LINE
  8
_0-3_0_COMPONENTS
  6
CONTINUOUS
 62
    4
 10
72.470659296203393
 20
182.3625110607079
 11
72.74478581119547
 21
182.3625110607079
  0
ARC
  8
_0-3_0_COMPONENTS
  6
CONTINUOUS
 62
    4
 10
73.083711902172581
 20
181.69013475110591
 40
0.0618499582053887
 50
303.76258610235328
 51
353.57632866114272
  0
ARC
  8
_0-3_0_COMPONENTS
  6
CONTINUOUS
 62
    4
 10
72.989255814038187
 20
181.68209403765501
 40
0.1559217683683833
 50
0.4119212922594172
 51
30.631946577916558
  0
ARC
  8
_0-3_0_COMPONENTS
  6
CONTINUOUS
 62
    4
 10
71.539542690058624
 20
181.10509095772465
 40
1.714523805089622
 50
22.511889345415895
 51
33.441114966739043
  0
ARC
  8
_0-3_0_COMPONENTS
  6
CONTINUOUS
 62
    4
 10
73.894723758862255
 20
182.68998819827879
 40
1.1244376553509409
 50
209.26702898606512
 51
214.69619967005672
  0
ARC
  8
_0-3_0_COMPONENTS
  6
CONTINUOUS
 62
    4
 10
72.823562236706493
 20
182.08874109971395
 40
0.1039322007999377
 50
29.723678557477246
 51
42.985266591796253
  0
ARC
  8
_0-3_0_COMPONENTS
  6
CONTINUOUS
 62
    4
 10
72.908845695556465
 20
182.16828269180314
 40
0.0126874640615128
 50
202.16710555084731
 51
223.1652136359192
  0
ARC
  8
_0-3_0_COMPONENTS
  6
CONTINUOUS
 62
    4
 10
72.899030672594562
 20
182.16433314253504
 40
0.0021081889908192
 50
129.66886889626877
 51
203.40842282213196
  0
ARC
  8
_0-3_0_COMPONENTS
  6
CONTINUOUS
 62
    4
 10
72.901892810735262
 20
182.16113527748257
 40
0.0063988244766157
 50
104.2056949792487
 51
131.1174823509489
  0
ARC
  8
_0-3_0_COMPONENTS
  6
CONTINUOUS
 62
    4
 10
72.569213618162393
 20
183.78170391666458
 40
1.6479711828783309
 50
281.59071099914694
 51
282.20500514627451
  0
ARC
  8
_0-3_0_COMPONENTS
  6
CONTINUOUS
 62
    4
 10
43.595316423351505
 20
257.60865273455726
 40
80.936019716696904
 50
291.24088775630536
 51
291.27504906883336
  0
ARC
  8
_0-3_0_COMPONENTS
  6
CONTINUOUS
 62
    4
 10
72.780448663160314
 20
182.56358968569031
 40
0.4169924504938379
 50
295.89886673028877
 51
313.65107670836414
  0
ARC
  8
_0-3_0_COMPONENTS
  6
CONTINUOUS
 62
    4
 10
72.650875799417462
 20
182.62279897808491
 40
0.5518132168708294
 50
319.1504802575057
 51
335.00577918010952
  0
ARC
  8
_0-3_0_COMPONENTS
  6
CONTINUOUS
 62
    4
 10
72.9208932294855
 20
182.49668927853508
 40
0.2537981618659203
 50
335.05317955081449
 51
358.4344762761201
  0
ARC
  8
_0-3_0_COMPONENTS
  6
CONTINUOUS
 62
    4
 10
71.961336406299324
 20
182.52112822341871
 40
1.2136658050082689
 50
358.5187633686076
 51
4.2828123774013544
  0
ARC
  8
_0-3_0_COMPONENTS
  6
CONTINUOUS
 62
    4
 10
72.938787547291212
 20
182.59124517368638
 40
0.2337280344700402
 50
5.036511342706305
 51
41.972711949134456
  0
ARC
  8
_0-3_0_COMPONENTS
  6
CONTINUOUS
 62
    4
 10
72.29146636381256
 20
181.96663394853919
 40
1.133149893985754
 50
43.563755831381655
 51
50.21858489931089
  0
ARC
  8
_0-3_0_COMPONENTS
  6
CONTINUOUS
 62
    4
 10
72.795635743010279
 20
182.58873865345844
 40
0.3326391756121248
 50
48.390655776887058
 51
80.806082315497306
  0
ARC
  8
_0-3_0_COMPONENTS
  6
CONTINUOUS
 62
    4
 10
72.79131238267746
 20
182.57602424372021
 40
0.3458882469186502
 50
80.435631205055656
 51
89.781308446480025
  0
ARC
  8
_0-3_0_COMPONENTS
  6
CONTINUOUS
 62
    4
 10
72.76985085150136
 20
180.97200825825973
 40
1.9500347939345499
 50
89.330613222317836
 51
92.368875756312249
  0
ARC
  8
_0-3_0_COMPONENTS
  6
CONTINUOUS
 62
    4
 10
72.708361255530235
 20
182.39212334002422
 40
0.5285988550412398
 50
92.07192760689935
 51
105.34720702367738
  0
ARC
  8
_0-3_0_COMPONENTS
  6
CONTINUOUS
 62
    4
 10
72.653907865684232
 20
182.60049817667913
 40
0.3132537915406394
 50
105.8298118923397
 51
143.80848215660878
  0
ARC
  8
_0-3_0_COMPONENTS
  6
CONTINUOUS
 62
    4
 10
72.857714227232463
 20
182.46111060591147
 40
0.5600967383640399
 50
144.6117813447644
 51
159.2050351813458
  0
ARC
  8
_0-3_0_COMPONENTS
  6
CONTINUOUS
 62
    4
 10
73.396376770596361
 20
182.24222560231976
 40
1.1414572401645979
 50
158.53302601538999
 51
169.34117426881138
  0
ARC
  8
_0-3_0_COMPONENTS
  6
CONTINUOUS
 62
    4
 10
73.977149192425258
 20
182.10468867142799
 40
1.737869357635009
 50
168.42644588642062
 51
193.30690156405461
  0
ARC
  8
_0-3_0_COMPONENTS
  6
CONTINUOUS
 62
    4
 10
72.461619797606545
 20
181.75391424086001
 40
0.1824464088298101
 50
195.65289923680646
 51
209.06142290636836
  0
ARC
  8
_0-3_0_COMPONENTS
  6
CONTINUOUS
 62
    4
 10
72.408082963260312
 20
181.72505678908953
 40
0.1216349784317719
 50
209.429346618088
 51
229.95324554640154
  0
ARC
  8
_0-3_0_COMPONENTS
  6
CONTINUOUS
 62
    4
 10
72.386815919757282
 20
181.69764569455071
 40
0.086978340363181
 50
229.0597647977483
 51
250.78543098441781
  0
ARC
  8
_0-3_0_COMPONENTS
  6
CONTINUOUS
 62
    4
 10
72.367837253956622
 20
181.64117069042038
 40
0.0274114628622658
 50
249.39553274673576
 51
297.01599333958699
  0
ARC
  8
_0-3_0_COMPONENTS
  6
CONTINUOUS
 62
    4
 10
72.356083914728515
 20
181.6584665313926
 40
0.0482297147771005
 50
300.12331903257012
 51
329.37112217397867
  0
ARC
  8
_0-3_0_COMPONENTS
  6
CONTINUOUS
 62
    4
 10
72.179104839405226
 20
181.761295540275
 40
0.2529120482521903
 50
329.75253257117532
 51
354.45340351253327
  0
ARC
  8
_0-3_0_COMPONENTS
  6
CONTINUOUS
 62
    4
 10
59.624372045097516
 20
182.60602165325929
 40
12.835922026350999
 50
356.11730363301109
 51
357.3042447444314
  0
ARC
  8
_0-3_0_COMPONENTS
  6
CONTINUOUS
 62
    4
 10
71.588146792124462
 20
182.04787945266537
 40
0.8591515538178008
 50
356.96005680998479
 51
3.0626959016798869
  0
ARC
  8
_0-3_0_COMPONENTS
  6
CONTINUOUS
 62
    4
 10
72.606234388612392
 20
182.10830108115067
 40
0.1608198694102249
 50
178.24891535652039
 51
185.1795300192206
  0
ARC
  8
_0-3_0_COMPONENTS
  6
CONTINUOUS
 62
    4
 10
72.466508244648593
 20
182.11131230045577
 40
0.0211045984916179
 50
110.52578643271509
 51
174.82655356934179
  0
ARC
  8
_0-3_0_COMPONENTS
  6
CONTINUOUS
 62
    4
 10
72.471174010267532
 20
182.08710094755167
 40
0.0456012998515877
 50
88.033589991464623
 51
105.3425918348424
  0
ARC
  8
_0-3_0_COMPONENTS
  6
CONTINUOUS
 62
    4
 10
72.563045895516552
 20
174.45336852631317
 40
7.6798378459478362
 50
89.655685741834304
 51
90.673756059081824
  0
ARC
  8
_0-3_0_COMPONENTS
  6
CONTINUOUS
 62
    4
 10
72.611680023780536
 20
181.84975451763068
 40
0.2833240646409989
 50
87.109120467576104
 51
90.502147094484143
  0
ARC
  8
_0-3_0_COMPONENTS
  6
CONTINUOUS
 62
    4
 10
72.625676811251196
 20
182.11771657433621
 40
0.015004297915322
 50
39.262206419089658
 51
88.883488078791742
  0
ARC
  8
_0-3_0_COMPONENTS
  6
CONTINUOUS
 62
    4
 10
72.19769694128854
 20
181.86417371915467
 40
0.5122840036110067
 50
28.628631812060085
 51
30.894742185737076
  0
ARC
  8
_0-3_0_COMPONENTS
  6
CONTINUOUS
 62
    4
 10
74.923232069207188
 20
183.42096147753147
 40
2.6266402644621771
 50
209.95005779455232
 51
218.89802300792683
  0
ARC
  8
_0-3_0_COMPONENTS
  6
CONTINUOUS
 62
    4
 10
73.356783782826369
 20
182.15495707691366
 40
0.6125609210092911
 50
218.74302708576249
 51
238.83603299227888
  0
ARC
  8
_0-3_0_COMPONENTS
  6
CONTINUOUS
 62
    4
 10
73.074646090006353
 20
181.70578221798325
 40
0.0826923627922128
 50
245.06991219088808
 51
271.88190832137058
  0
ARC
  8
_0-3_0_COMPONENTS
  6
CONTINUOUS
 62
    4
 10
73.071896870932505
 20
181.69842509740544
 40
0.0754887055608963
 50
274.15140574883702
 51
307.72392635808517
  0
ARC
  8
_0-3_0_COMPONENTS
  6
CONTINUOUS
 62
    4
 10
145.0760383973984
 20
186.94040299551727
 40
0.6730215117255823
 50
11.523020478623479
 51
32.237703769447186
  0
ARC
  8
_0-3_0_COMPONENTS
  6
CONTINUOUS
 62
    4
 10
145.38691752526619
 20
187.15095483666164
 40
0.2980038048426654
 50
29.879775489898911
 51
57.437291271944232
  0
ARC
  8
_0-3_0_COMPONENTS
  6
CONTINUOUS
 62
    4
 10
145.4965112497166
 20
187.3324816080584
 40
0.0861920475591256
 50
53.888032624747083
 51
120.14636686585089
  0
ARC
  8
_0-3_0_COMPONENTS
  6
CONTINUOUS
 62
    4
 10
145.64684517207024
 20
187.09508481199191
 40
0.3671373315244437
 50
121.8285297590984
 51
143.91715700040279
  0
ARC
  8
_0-3_0_COMPONENTS
  6
CONTINUOUS
 62
    4
 10
145.87588695635031
 20
186.9217536346897
 40
0.6543458797990449
 50
143.46312178268308
 51
165.3498346912556
  0
ARC
  8
_0-3_0_COMPONENTS
  6
CONTINUOUS
 62
    4
 10
147.09578305881223
 20
186.56977238936383
 40
1.923868965676414
 50
164.3966097326556
 51
177.8624622679425
  0
ARC
  8
_0-3_0_COMPONENTS
  6
CONTINUOUS
 62
    4
 10
152.90956529327149
 20
186.33334760245611
 40
7.7424484213309838
 50
177.71878401319048
 51
179.36711346410879
  0
ARC
  8
_0-3_0_COMPONENTS
  6
CONTINUOUS
 62
    4
 10
152.90776125755928
 20
186.23113019256015
 40
7.742448519405733
 50
178.61055940786539
 51
180.25888883487445
  0
ARC
  8
_0-3_0_COMPONENTS
  6
CONTINUOUS
 62
    4
 10
147.09734752344229
 20
186.20116810549927
 40
1.931962275105912
 50
180.14892932920989
 51
193.42411298889169
  0
ARC
  8
_0-3_0_COMPONENTS
  6
CONTINUOUS
 62
    4
 10
145.85402993167645
 20
185.89034439967315
 40
0.6505982677326014
 50
192.21872802038379
 51
214.60926400327005
  0
ARC
  8
_0-3_0_COMPONENTS
  6
CONTINUOUS
 62
    4
 10
145.6492446762536
 20
185.74878059536399
 40
0.4016459696674751
 50
214.58072823798039
 51
233.5445723665758
  0
ARC
  8
_0-3_0_COMPONENTS
  6
CONTINUOUS
 62
    4
 10
145.46336139813456
 20
185.49550345662305
 40
0.0874845001823355
 50
232.8981058195971
 51
270.74460016605161
  0
ARC
  8
_0-3_0_COMPONENTS
  6
CONTINUOUS
 62
    4
 10
145.46290325081736
 20
185.51285928563754
 40
0.1048450753350805
 50
270.87169161498854
 51
305.41758487928098
  0
ARC
  8
_0-3_0_COMPONENTS
  6
CONTINUOUS
 62
    4
 10
145.27847478069861
 20
185.75336658041419
 40
0.4078747273620251
 50
306.9515283052691
 51
325.38669823539652
  0
ARC
  8
_0-3_0_COMPONENTS
  6
CONTINUOUS
 62
    4
 10
145.02621820953254
 20
185.90982581547564
 40
0.7045070446445671
 50
326.56797088624551
 51
345.67725535120729
  0
ARC
  8
_0-3_0_COMPONENTS
  6
CONTINUOUS
 62
    4
 10
142.22521313288461
 20
186.53999995178867
 40
3.5752931504891751
 50
346.99684699774422
 51
354.09136475628201
  0
ARC
  8
_0-3_0_COMPONENTS
  6
CONTINUOUS
 62
    4
 10
143.12600209462061
 20
186.44729170153686
 40
2.6697462329580941
 50
354.08034011006333
 51
359.15214831325096
  0
ARC
  8
_0-3_0_COMPONENTS
  6
CONTINUOUS
 62
    4
 10
142.47125689820722
 20
186.44929593768756
 40
3.3244582826834729
 50
359.28458650748081
 51
3.3503195745618725
  0
ARC
  8
_0-3_0_COMPONENTS
  6
CONTINUOUS
 62
    4
 10
142.76532374672751
 20
186.48015423232527
 40
3.0291212681745052
 50
3.0926955900084336
 51
11.322144677463036
  0
ARC
  8
_0-3_0_COMPONENTS
  6
CONTINUOUS
 62
    4
 10
146.82095902683158
 20
185.74846538162637
 40
0.2331460560983436
 50
200.61495257403271
 51
255.46205769436841
  0
ARC
  8
_0-3_0_COMPONENTS
  6
CONTINUOUS
 62
    4
 10
146.94607216707527
 20
186.05323847953275
 40
0.5613416636329846
 50
250.90467983717599
 51
257.41991634976182
  0
ARC
  8
_0-3_0_COMPONENTS
  6
CONTINUOUS
 62
    4
 10
146.92405589871532
 20
186.01493034405325
 40
0.5193243422987593
 50
258.87022182456087
 51
277.37682237302095
  0
ARC
  8
_0-3_0_COMPONENTS
  6
CONTINUOUS
 62
    4
 10
146.92019896572037
 20
186.1850207047006
 40
0.6887377147152874
 50
275.8781044818765
 51
283.31674391985012
  0
ARC
  8
_0-3_0_COMPONENTS
  6
CONTINUOUS
 62
    4
 10
147.03432130286046
 20
185.73272888045801
 40
0.2224273154958562
 50
281.54537190190671
 51
343.90194856908959
  0
ARC
  8
_0-3_0_COMPONENTS
  6
CONTINUOUS
 62
    4
 10
146.84464985762861
 20
185.79689982282616
 40
0.4225521082552478
 50
342.67306426857322
 51
355.18347404338499
  0
ARC
  8
_0-3_0_COMPONENTS
  6
CONTINUOUS
 62
    4
 10
145.90394564266762
 20
185.86642026759682
 40
1.365806227349734
 50
355.59087758144499
 51
3.8007127032066021
  0
ARC
  8
_0-3_0_COMPONENTS
  6
CONTINUOUS
 62
    4
 10
146.78728771209853
 20
185.92552558934437
 40
0.4804892531194572
 50
3.7504105254071746
 51
22.927359048034716
  0
ARC
  8
_0-3_0_COMPONENTS
  6
CONTINUOUS
 62
    4
 10
147.06205297133919
 20
186.04446022257241
 40
0.1811152211230372
 50
22.136413461512709
 51
83.501528447567224
  0
ARC
  8
_0-3_0_COMPONENTS
  6
CONTINUOUS
 62
    4
 10
146.98762721625143
 20
185.72496426137354
 40
0.5083879656709227
 50
79.238849067977184
 51
88.342511503700805
  0
ARC
  8
_0-3_0_COMPONENTS
  6
CONTINUOUS
 62
    4
 10
146.93692313304745
 20
182.54030973078033
 40
3.6934090157067531
 50
88.985258453579135
 51
91.701120236384312
  0
ARC
  8
_0-3_0_COMPONENTS
  6
CONTINUOUS
 62
    4
 10
146.85295945294546
 20
185.80565687654791
 40
0.4272065237877509
 50
93.4459507088728
 51
104.36053483143518
  0
ARC
  8
_0-3_0_COMPONENTS
  6
CONTINUOUS
 62
    4
 10
146.78359494972255
 20
186.04685406619603
 40
0.1764959001024296
 50
101.9657648424736
 51
159.53679714157803
  0
ARC
  8
_0-3_0_COMPONENTS
  6
CONTINUOUS
 62
    4
 10
147.06959063231624
 20
185.92278987128065
 40
0.4880884965603872
 50
157.62893191577919
 51
176.4943820454192
  0
ARC
  8
_0-3_0_COMPONENTS
  6
CONTINUOUS
 62
    4
 10
147.96085899690251
 20
185.86868378188603
 40
1.380997607677618
 50
176.5148364963241
 51
184.7971240571272
  0
ARC
  8
_0-3_0_COMPONENTS
  6
CONTINUOUS
 62
    4
 10
146.94969876628329
 20
185.7837686696597
 40
0.3662781507724133
 50
184.78828137763059
 51
198.692931732808
  0
ARC
  8
_0-3_0_COMPONENTS
  6
CONTINUOUS
 62
    4
 10
147.11156887247034
 20
185.71920500297551
 40
0.3543362667459382
 50
278.55938872070322
 51
351.80660137723259
  0
ARC
  8
_0-3_0_COMPONENTS
  6
CONTINUOUS
 62
    4
 10
145.86219701220443
 20
185.87372210289925
 40
1.613171852273143
 50
352.69863050579908
 51
5.3062910130505738
  0
ARC
  8
_0-3_0_COMPONENTS
  6
CONTINUOUS
 62
    4
 10
147.11927914115358
 20
185.99897106134233
 40
0.3499960701513338
 50
3.9216520021020153
 51
65.454452035529882
  0
ARC
  8
_0-3_0_COMPONENTS
  6
CONTINUOUS
 62
    4
 10
147.02239244114844
 20
185.75006114109407
 40
0.6168496971214847
 50
66.872953593664945
 51
85.056706179639093
  0
ARC
  8
_0-3_0_COMPONENTS
  6
CONTINUOUS
 62
    4
 10
146.92839512104956
 20
185.33443271273586
 40
1.0406401752792548
 50
81.870878534059414
 51
97.52714442037778
  0
ARC
  8
_0-3_0_COMPONENTS
  6
CONTINUOUS
 62
    4
 10
147.06015433399943
 20
184.76508701944294
 40
1.6233073445248409
 50
99.505575647129063
 51
107.0311482849156
  0
ARC
  8
_0-3_0_COMPONENTS
  6
CONTINUOUS
 62
    4
 10
146.72539299510935
 20
186.00176328792747
 40
0.3453951520698562
 50
114.03755621716391
 51
177.45038300137349
  0
ARC
  8
_0-3_0_COMPONENTS
  6
CONTINUOUS
 62
    4
 10
147.98601003567137
 20
185.87631521540788
 40
1.6118328964096619
 50
174.98814183109107
 51
187.60188226565736
  0
ARC
  8
_0-3_0_COMPONENTS
  6
CONTINUOUS
 62
    4
 10
146.74424995635854
 20
185.72421354585355
 40
0.3611176979447834
 50
189.74531759202167
 51
265.30800736202229
  0
ARC
  8
_0-3_0_COMPONENTS
  6
CONTINUOUS
 62
    4
 10
146.84111921479461
 20
186.34720187992104
 40
0.9909911027352144
 50
262.67152434237607
 51
268.17598572865051
  0
ARC
  8
_0-3_0_COMPONENTS
  6
CONTINUOUS
 62
    4
 10
146.91650271460821
 20
189.74512560152379
 40
4.3897151679597277
 50
268.60422857662911
 51
271.99578232344839
  0
ARC
  8
_0-3_0_COMPONENTS
  6
CONTINUOUS
 62
    4
 10
147.02567449315256
 20
186.16909927694894
 40
0.8122027115954391
 50
273.08454056574902
 51
279.82772121205272
  0
ARC
  8
_0-3_0_COMPONENTS
  6
CONTINUOUS
 62
    4
 10
99.407339407502604
 20
185.79642203067101
 40
49.544527684510462
 50
359.62356114433248
 51
0.22211444053221
  0
ARC
  8
_0-3_0_COMPONENTS
  6
CONTINUOUS
 62
    4
 10
148.36437392103243
 20
185.99853930412837
 40
0.5872069313802342
 50
359.01914069364232
 51
12.042724813701596
  0
ARC
  8
_0-3_0_COMPONENTS
  6
CONTINUOUS
 62
    4
 10
148.75548078451129
 20
186.08280620519076
 40
0.187127660379302
 50
11.7942721912777
 51
63.742230841490517
  0
ARC
  8
_0-3_0_COMPONENTS
  6
CONTINUOUS
 62
    4
 10
148.64703956850553
 20
185.88215964759308
 40
0.4151322535676955
 50
62.571291455580571
 51
89.312951403895382
  0
ARC
  8
_0-3_0_COMPONENTS
  6
CONTINUOUS
 62
    4
 10
148.58208775688626
 20
184.02555264297757
 40
2.272785474068979
 50
88.236830371177745
 51
91.998618736332971
  0
ARC
  8
_0-3_0_COMPONENTS
  6
CONTINUOUS
 62
    4
 10
148.52486964452054
 20
185.85604773683007
 40
0.4414586033893425
 50
92.8625102401583
 51
99.75428389176497
  0
ARC
  8
_0-3_0_COMPONENTS
  6
CONTINUOUS
 62
    4
 10
148.48157146547828
 20
186.08389561434637
 40
0.2096084254198453
 50
98.641824038553764
 51
139.1011146736933
  0
ARC
  8
_0-3_0_COMPONENTS
  6
CONTINUOUS
 62
    4
 10
147.61239691544733
 20
186.84723596427352
 40
0.9471831466724681
 50
312.62549847989509
 51
318.62251243506818
  0
ARC
  8
_0-3_0_COMPONENTS
  6
CONTINUOUS
 62
    4
 10
148.27065957644254
 20
186.15847139545383
 40
0.0187049392451891
 50
180.08496073990849
 51
205.89470449944866
  0
ARC
  8
_0-3_0_COMPONENTS
  6
CONTINUOUS
 62
    4
 10
149.71671935691529
 20
186.22218526752885
 40
1.4661509528531508
 50
179.9344502395883
 51
182.49174657926789
  0
ARC
  8
_0-3_0_COMPONENTS
  6
CONTINUOUS
 62
    4
 10
148.20979937678521
 20
186.22405390234348
 40
0.0407704354510571
 50
359.73119968704287
 51
46.865714374463429
  0
ARC
  8
_0-3_0_COMPONENTS
  6
CONTINUOUS
 62
    4
 10
148.18621032467945
 20
186.19463685292078
 40
0.0784192951900423
 50
48.983982355645132
 51
90.934812282278826
  0
ARC
  8
_0-3_0_COMPONENTS
  6
CONTINUOUS
 62
    4
 10
148.16876162036351
 20
185.79392146746852
 40
0.4793970036166617
 50
88.067136876150996
 51
92.52583929727605
  0
ARC
  8
_0-3_0_COMPONENTS
  6
CONTINUOUS
 62
    4
 10
148.15081898433936
 20
186.19993983281074
 40
0.0729823822558014
 50
92.500716439546138
 51
115.04755437285659
  0
ARC
  8
_0-3_0_COMPONENTS
  6
CONTINUOUS
 62
    4
 10
148.16653130702252
 20
186.17765604275928
 40
0.0999380193615743
 50
117.80073958685085
 51
144.57145834352556
  0
ARC
  8
_0-3_0_COMPONENTS
  6
CONTINUOUS
 62
    4
 10
148.09694670852331
 20
186.22789759371607
 40
0.0141261953503619
 50
147.0118113878415
 51
182.1321643134305
  0
ARC
  8
_0-3_0_COMPONENTS
  6
CONTINUOUS
 62
    4
 10
3796.9727027287467
 20
185.63820488936505
 40
3648.8899200003888
 50
179.99074875054128
 51
180.00293268173879
  0
ARC
  8
_0-3_0_COMPONENTS
  6
CONTINUOUS
 62
    4
 10
148.09991469212536
 20
185.45036883461807
 40
0.0171604377018804
 50
176.43249798465399
 51
210.30474396499741
  0
ARC
  8
_0-3_0_COMPONENTS
  6
CONTINUOUS
 62
    4
 10
148.16207874515021
 20
185.49713071628207
 40
0.0948543399769295
 50
215.75179137855641
 51
250.08345272487753
  0
ARC
  8
_0-3_0_COMPONENTS
  6
CONTINUOUS
 62
    4
 10
148.1591223810883
 20
185.51322620588177
 40
0.1092928340086292
 50
254.41912472095532
 51
270.00511440966977
  0
ARC
  8
_0-3_0_COMPONENTS
  6
CONTINUOUS
 62
    4
 10
148.17000379676755
 20
185.85772039511812
 40
0.4539172337090695
 50
268.62759166742182
 51
272.84539540602088
  0
ARC
  8
_0-3_0_COMPONENTS
  6
CONTINUOUS
 62
    4
 10
148.18902806286041
 20
185.48506726720881
 40
0.0807807158455177
 50
272.48940962585987
 51
294.90026084671279
  0
ARC
  8
_0-3_0_COMPONENTS
  6
CONTINUOUS
 62
    4
 10
148.18038306286962
 20
185.49783450545464
 40
0.0960326922775188
 50
296.37162432421041
 51
323.77924242302367
  0
ARC
  8
_0-3_0_COMPONENTS
  6
CONTINUOUS
 62
    4
 10
148.24047566195758
 20
185.45312944780573
 40
0.0211444214739341
 50
325.28885851307927
 51
357.50664305733209
  0
ARC
  8
_0-3_0_COMPONENTS
  6
CONTINUOUS
 62
    4
 10
569.33209625222343
 20
185.4942985232069
 40
421.07049829034531
 50
179.93978594572539
 51
180.00572711275771
  0
ARC
  8
_0-3_0_COMPONENTS
  6
CONTINUOUS
 62
    4
 10
148.71079394942034
 20
185.94526070978633
 40
0.449042880995749
 50
167.53216145562129
 51
181.07762841910823
  0
ARC
  8
_0-3_0_COMPONENTS
  6
CONTINUOUS
 62
    4
 10
148.39599982174922
 20
186.01233747839307
 40
0.1272150385464843
 50
118.51635303090637
 51
166.42122756206236
  0
ARC
  8
_0-3_0_COMPONENTS
  6
CONTINUOUS
 62
    4
 10
148.50059057734733
 20
185.81502318343495
 40
0.3505314976256702
 50
98.449819371308308
 51
118.14076012963758
  0
ARC
  8
_0-3_0_COMPONENTS
  6
CONTINUOUS
 62
    4
 10
148.53495081046548
 20
185.36608410048472
 40
0.8002855986143543
 50
84.043727469770075
 51
96.159536761330585
  0
ARC
  8
_0-3_0_COMPONENTS
  6
CONTINUOUS
 62
    4
 10
148.60278771183857
 20
186.00815737757989
 40
0.1546415327693637
 50
50.328797036466653
 51
84.356103789920808
  0
ARC
  8
_0-3_0_COMPONENTS
  6
CONTINUOUS
 62
    4
 10
148.5672731814916
 20
186.00036255661109
 40
0.1846718610865633
 50
14.875340111840792
 51
43.37432068106159
  0
ARC
  8
_0-3_0_COMPONENTS
  6
CONTINUOUS
 62
    4
 10
148.10502289603846
 20
185.86199850868331
 40
0.6671209756602015
 50
4.0903305497584581
 51
16.16884342874334
  0
ARC
  8
_0-3_0_COMPONENTS
  6
CONTINUOUS
 62
    4
 10
148.54702426053563
 20
185.88580622662448
 40
0.2246820334911026
 50
0.867086537380864
 51
6.074816403355169
  0
ARC
  8
_0-3_0_COMPONENTS
  6
CONTINUOUS
 62
    4
 10
-2934.9060464493036
 20
185.55820268383206
 40
3083.6777447801678
 50
359.99810484759302
 51
0.0061501600659396
  0
ARC
  8
_0-3_0_COMPONENTS
  6
CONTINUOUS
 62
    4
 10
148.79649981684633
 20
185.4545399731304
 40
0.0248589934029295
 50
176.15961984506068
 51
205.33170068274131
  0
ARC
  8
_0-3_0_COMPONENTS
  6
CONTINUOUS
 62
    4
 10
148.84903097060123
 20
185.49255112655009
 40
0.0893953877004829
 50
212.96871485423832
 51
250.83426777495702
  0
ARC
  8
_0-3_0_COMPONENTS
  6
CONTINUOUS
 62
    4
 10
148.84742861665745
 20
185.50291785005231
 40
0.0987839042608617
 50
253.68733538902944
 51
267.01103822151412
  0
ARC
  8
_0-3_0_COMPONENTS
  6
CONTINUOUS
 62
    4
 10
148.86203903884825
 20
185.86172853887251
 40
0.4578868342111258
 50
267.52647459174852
 51
272.5537076203858
  0
ARC
  8
_0-3_0_COMPONENTS
  6
CONTINUOUS
 62
    4
 10
148.87962912489047
 20
185.48171342063676
 40
0.0774680193303936
 50
272.07982185841149
 51
297.05920921765056
  0
ARC
  8
_0-3_0_COMPONENTS
  6
CONTINUOUS
 62
    4
 10
148.88137215350343
 20
185.47359393198905
 40
0.0694774010587799
 50
298.82544387995818
 51
357.78774464160352
  0
ARC
  8
_0-3_0_COMPONENTS
  6
CONTINUOUS
 62
    4
 10
63.300349910844488
 20
127.30452204936692
 40
0.6500000000003184
 50
90
 51
270
  0
LINE
  8
_0-3_0_COMPONENTS
  6
CONTINUOUS
 62
    4
 10
63.300349910844488
 20
127.95452204936725
 11
65.000349910844306
 21
127.95452204936725
  0
ARC
  8
_0-3_0_COMPONENTS
  6
CONTINUOUS
 62
    4
 10
65.000349910844306
 20
127.30452204936692
 40
0.6500000000003184
 50
270
 51
90
  0
LINE
  8
_0-3_0_COMPONENTS
  6
CONTINUOUS
 62
    4
 10
65.000349910844306
 20
126.6545220493666
 11
63.300349910844488
 21
126.6545220493666
  0
ARC
  8
_0-3_0_COMPONENTS
  6
CONTINUOUS
 62
    4
 10
86.300349910844488
 20
127.30452204936692
 40
0.6500000000003184
 50
90
 51
270
  0
LINE
  8
_0-3_0_COMPONENTS
  6
CONTINUOUS
 62
    4
 10
86.300349910844488
 20
127.95452204936725
 11
88.000349910844306
 21
127.95452204936725
  0
ARC
  8
_0-3_0_COMPONENTS
  6
CONTINUOUS
 62
    4
 10
88.000349910844306
 20
127.30452204936692
 40
0.6500000000003184
 50
270
 51
90
  0
LINE
  8
_0-3_0_COMPONENTS
  6
CONTINUOUS
 62
    4
 10
88.000349910844306
 20
126.6545220493666
 11
86.300349910844488
 21
126.6545220493666
  0
ARC
  8
_0-3_0_COMPONENTS
  6
CONTINUOUS
 62
    4
 10
109.30034991084447
 20
127.30452204936692
 40
0.6500000000003184
 50
90
 51
270
  0
LINE
  8
_0-3_0_COMPONENTS
  6
CONTINUOUS
 62
    4
 10
109.30034991084447
 20
127.95452204936725
 11
111.0003499108443
 21
127.95452204936725
  0
ARC
  8
_0-3_0_COMPONENTS
  6
CONTINUOUS
 62
    4
 10
111.0003499108443
 20
127.30452204936692
 40
0.6500000000003184
 50
270
 51
90
  0
LINE
  8
_0-3_0_COMPONENTS
  6
CONTINUOUS
 62
    4
 10
111.0003499108443
 20
126.6545220493666
 11
109.30034991084447
 21
126.6545220493666
  0
ARC
  8
_0-3_0_COMPONENTS
  6
CONTINUOUS
 62
    4
 10
132.30034991084448
 20
127.30452204936692
 40
0.6500000000003184
 50
90
 51
270
  0
LINE
  8
_0-3_0_COMPONENTS
  6
CONTINUOUS
 62
    4
 10
132.30034991084448
 20
127.95452204936725
 11
134.0003499108443
 21
127.95452204936725
  0
ARC
  8
_0-3_0_COMPONENTS
  6
CONTINUOUS
 62
    4
 10
134.0003499108443
 20
127.30452204936692
 40
0.6500000000003184
 50
270
 51
90
  0
LINE
  8
_0-3_0_COMPONENTS
  6
CONTINUOUS
 62
    4
 10
134.0003499108443
 20
126.6545220493666
 11
132.30034991084448
 21
126.6545220493666
  0
ARC
  8
_0-3_0_COMPONENTS
  6
CONTINUOUS
 62
    4
 10
132.30034991084448
 20
132.30452204936693
 40
0.6500000000003184
 50
90
 51
270
  0
LINE
  8
_0-3_0_COMPONENTS
  6
CONTINUOUS
 62
    4
 10
132.30034991084448
 20
132.95452204936725
 11
134.0003499108443
 21
132.95452204936725
  0
ARC
  8
_0-3_0_COMPONENTS
  6
CONTINUOUS
 62
    4
 10
134.0003499108443
 20
132.30452204936693
 40
0.6500000000003184
 50
270
 51
90
  0
LINE
  8
_0-3_0_COMPONENTS
  6
CONTINUOUS
 62
    4
 10
134.0003499108443
 20
131.6545220493665
 11
132.30034991084448
 21
131.6545220493665
  0
ARC
  8
_0-3_0_COMPONENTS
  6
CONTINUOUS
 62
    4
 10
105.80034991084447
 20
175.30452204936727
 40
0.6500000000003184
 50
90
 51
270
  0
LINE
  8
_0-3_0_COMPONENTS
  6
CONTINUOUS
 62
    4
 10
105.80034991084447
 20
175.95452204936759
 11
107.50034991084339
 21
175.95452204936759
  0
ARC
  8
_0-3_0_COMPONENTS
  6
CONTINUOUS
 62
    4
 10
107.50034991084339
 20
175.30452204936727
 40
0.6500000000003184
 50
270
 51
90
  0
LINE
  8
_0-3_0_COMPONENTS
  6
CONTINUOUS
 62
    4
 10
107.50034991084339
 20
174.65452204936696
 11
105.80034991084447
 21
174.65452204936696
  0
ARC
  8
_0-3_0_COMPONENTS
  6
CONTINUOUS
 62
    4
 10
105.80034991084447
 20
170.30452204936727
 40
0.6500000000003184
 50
90
 51
270
  0
LINE
  8
_0-3_0_COMPONENTS
  6
CONTINUOUS
 62
    4
 10
105.80034991084447
 20
170.95452204936748
 11
107.5003499108443
 21
170.95452204936748
  0
ARC
  8
_0-3_0_COMPONENTS
  6
CONTINUOUS
 62
    4
 10
107.5003499108443
 20
170.30452204936727
 40
0.6500000000003184
 50
270
 51
90
  0
LINE
  8
_0-3_0_COMPONENTS
  6
CONTINUOUS
 62
    4
 10
107.5003499108443
 20
169.65452204936696
 11
105.80034991084447
 21
169.65452204936696
  0
ARC
  8
_0-3_0_COMPONENTS
  6
CONTINUOUS
 62
    4
 10
105.80034991084447
 20
165.30452204936727
 40
0.6500000000003184
 50
90
 51
270
  0
LINE
  8
_0-3_0_COMPONENTS
  6
CONTINUOUS
 62
    4
 10
105.80034991084447
 20
165.95452204936748
 11
107.50034991084339
 21
165.95452204936748
  0
ARC
  8
_0-3_0_COMPONENTS
  6
CONTINUOUS
 62
    4
 10
107.50034991084339
 20
165.30452204936727
 40
0.6500000000003184
 50
270
 51
90
  0
LINE
  8
_0-3_0_COMPONENTS
  6
CONTINUOUS
 62
    4
 10
107.50034991084339
 20
164.65452204936696
 11
105.80034991084447
 21
164.65452204936696
  0
ARC
  8
_0-3_0_COMPONENTS
  6
CONTINUOUS
 62
    4
 10
120.30034991084447
 20
170.30452204936739
 40
0.6500000000003184
 50
90
 51
270
  0
LINE
  8
_0-3_0_COMPONENTS
  6
CONTINUOUS
 62
    4
 10
120.30034991084447
 20
170.95452204936782
 11
122.0003499108443
 21
170.95452204936782
  0
ARC
  8
_0-3_0_COMPONENTS
  6
CONTINUOUS
 62
    4
 10
122.0003499108443
 20
170.30452204936739
 40
0.6500000000003184
 50
270
 51
90
  0
LINE
  8
_0-3_0_COMPONENTS
  6
CONTINUOUS
 62
    4
 10
122.0003499108443
 20
169.65452204936718
 11
120.30034991084447
 21
169.65452204936718
  0
ARC
  8
_0-3_0_COMPONENTS
  6
CONTINUOUS
 62
    4
 10
120.30034991084447
 20
165.30452204936739
 40
0.6500000000003184
 50
90
 51
270
  0
LINE
  8
_0-3_0_COMPONENTS
  6
CONTINUOUS
 62
    4
 10
120.30034991084447
 20
165.95452204936782
 11
122.0003499108443
 21
165.95452204936782
  0
ARC
  8
_0-3_0_COMPONENTS
  6
CONTINUOUS
 62
    4
 10
122.0003499108443
 20
165.30452204936739
 40
0.6500000000003184
 50
270
 51
90
  0
LINE
  8
_0-3_0_COMPONENTS
  6
CONTINUOUS
 62
    4
 10
122.0003499108443
 20
164.65452204936707
 11
120.30034991084447
 21
164.65452204936707
  0
ARC
  8
_0-3_0_COMPONENTS
  6
CONTINUOUS
 62
    4
 10
137.30034991084448
 20
175.30452204936727
 40
0.6500000000003184
 50
90
 51
270
  0
LINE
  8
_0-3_0_COMPONENTS
  6
CONTINUOUS
 62
    4
 10
137.30034991084448
 20
175.95452204936759
 11
139.00034991084339
 21
175.95452204936759
  0
ARC
  8
_0-3_0_COMPONENTS
  6
CONTINUOUS
 62
    4
 10
139.00034991084339
 20
175.30452204936727
 40
0.6500000000003184
 50
270
 51
90
  0
LINE
  8
_0-3_0_COMPONENTS
  6
CONTINUOUS
 62
    4
 10
139.00034991084339
 20
174.65452204936696
 11
137.30034991084448
 21
174.65452204936696
  0
LINE
  8
_0-1_1
  6
CENTER2
 62
    3
 10
321.83577106221218
 20
102.45452204936735
 11
311.83557106221132
 21
102.45452204936735
  0
LINE
  8
_0-2_Defpoints
  6
CONTINUOUS
 62
    6
 10
119.35034991084421
 20
246.04264192269954
 11
119.8503499108433
 21
246.04264192269954
  0
LINE
  8
_0-2_Defpoints
  6
CONTINUOUS
 62
    6
 10
119.8503499108433
 20
246.04264192269954
 11
119.8503499108433
 21
245.54264192269943
  0
LINE
  8
_0-2_Defpoints
  6
CONTINUOUS
 62
    6
 10
105.85034991084421
 20
246.04264192269954
 11
106.35034991084421
 21
246.04264192269954
  0
LINE
  8
_0-2_Defpoints
  6
CONTINUOUS
 62
    6
 10
105.85034991084421
 20
246.04264192269954
 11
105.85034991084421
 21
245.54264192269943
  0
TEXT
  8
_0-3_0_COMPONENTS
 62
    7
 10
73.578425821064541
 20
144.99943374858438
 40
2.3999999999999999
 41
1
 50
0
  1
消灯
  0
TEXT
  8
_0-3_0_COMPONENTS
 62
    7
 10
73.08012457531143
 20
141.51132502831256
 40
2.399999999999999
 41
0.65
 50
0
  1
3秒押し
  0
TEXT
  8
_0-3_0_COMPONENTS
 62
    7
 10
66.80152887882221
 20
135.73103057757643
 40
2.399999999999999
 41
0.8
 50
0
  1
フィルターお手入れ
  0
LINE
  8
_0-0_0
  6
CONTINUOUS
 62
    7
 10
70.389297848244609
 20
144.60079275198188
 11
64.11070215175539
 21
144.60079275198188
  0
LINE
  8
_0-0_0
  6
CONTINUOUS
 62
    7
 10
64.11070215175539
 20
139.01981879954701
 11
64.11070215175539
 21
144.60079275198188
  0
TEXT
  8
_0-1_1
 62
    7
 10
62.179784824462132
 20
216.817100792752
 40
3.2000000000000001
 41
0.89
 50
0
  1
リモコンラベル
  0
LINE
  8
_0-0_0
  6
CONTINUOUS
 62
    7
 10
59.854379010947582
 20
216.28557946394866
 11
85.590795815757715
 21
216.28557946394866
  0
LINE
  8
_0-0_0
  6
CONTINUOUS
 62
    7
 10
95.864949037372653
 20
203.39618724046812
 11
85.590795815757715
 21
216.28557946394866
  0
TEXT
  8
_0-1_1
 62
    7
 10
135.77176453706033
 20
59.846206887413814
 40
3.2000000000000001
 41
0.89
 50
0
  1
コントローラ注意ラベル
  0
TEXT
  8
_0-3_0_COMPONENTS
 62
    7
 10
67.164873537183893
 20
124.74348810872027
 40
5.5
 41
1
 50
0
  1
暖房
  0
TEXT
  8
_0-3_0_COMPONENTS
 62
    7
 10
90.335881464703717
 20
124.4445073612684
 40
5.5
 41
1
 50
0
  1
乾燥
  0
TEXT
  8
_0-3_0_COMPONENTS
 62
    7
 10
113.8058701396754
 20
124.29501698754245
 40
5.5
 41
1
 50
0
  1
涼風
  0
TEXT
  8
_0-3_0_COMPONENTS
 62
    7
 10
135.65034991084439
 20
130.80452204936682
 40
3
 41
1
 50
0
  1
標準換気
  0
TEXT
  8
_0-3_0_COMPONENTS
 62
    7
 10
135.65034991084439
 20
125.80452204936692
 40
3
 41
0.8000000000000001
 50
0
  1
クリーン換気
  0
TEXT
  8
_0-3_0_COMPONENTS
 62
    7
 10
62.082200830502131
 20
101.42298980747452
 40
2.399999999999999
 41
0.8
 50
0
  1
フィルターお手入れランプは1か月を目安に点灯します
  0
ARC
  8
_0-0_0
  6
CONTINUOUS
 62
    4
 10
112.4441136989535
 20
119.512472830485
 40
0.4896459789594018
 50
279.84705918893831
 51
286.93656182203278
  0
ARC
  8
_0-0_0
  6
CONTINUOUS
 62
    4
 10
112.00714590060123
 20
121.01670280822797
 40
2.056027682907799
 50
286.37403296525872
 51
288.85576405620122
  0
ARC
  8
_0-0_0
  6
CONTINUOUS
 62
    4
 10
109.23174328527555
 20
129.09408738895621
 40
10.596926461343919
 50
288.94203722844207
 51
290.26496828778527
  0
ARC
  8
_0-0_0
  6
CONTINUOUS
 62
    4
 10
148.75740259682424
 20
20.452042868297553
 40
105.0119060559041
 50
109.84643100976229
 51
109.96464252807609
  0
ARC
  8
_0-0_0
  6
CONTINUOUS
 62
    4
 10
115.30062398763446
 20
113.30964338444941
 40
6.3111528210813503
 50
104.98449271358289
 51
110.35061749567871
  0
ARC
  8
_0-0_0
  6
CONTINUOUS
 62
    4
 10
114.72177703175246
 20
115.42004293721849
 40
4.1228724627503501
 50
93.315623902540934
 51
104.79682797442208
  0
ARC
  8
_0-0_0
  6
CONTINUOUS
 62
    4
 10
114.77572554712149
 20
111.70578780799716
 40
7.8356838124234871
 50
90.258245572208721
 51
92.138572650504258
  0
ARC
  8
_0-0_0
  6
CONTINUOUS
 62
    4
 10
114.74942283485232
 20
117.5414123440609
 40
1.999999999999996
 50
66.015740926428421
 51
90.258245572222477
  0
ARC
  8
_0-0_0
  6
CONTINUOUS
 62
    4
 10
112.33749913258132
 20
112.12013515145808
 40
7.9336011278658737
 50
61.113214816570952
 51
66.015740926429472
  0
ARC
  8
_0-0_0
  6
CONTINUOUS
 62
    4
 10
105.57905050955422
 20
102.1714352219722
 40
19.940321176259459
 50
55.772669339350812
 51
57.917779047244515
  0
ARC
  8
_0-0_0
  6
CONTINUOUS
 62
    4
 10
117.90789559923449
 20
120.24991829653281
 40
1.942053820093289
 50
235.0381680354796
 51
250.82130751044229
  0
ARC
  8
_0-0_0
  6
CONTINUOUS
 62
    4
 10
117.57523109210659
 20
119.42607361492132
 40
1.0555472520280109
 50
253.18619816606809
 51
286.47345438047307
  0
ARC
  8
_0-0_0
  6
CONTINUOUS
 62
    4
 10
116.87539020813345
 20
121.4260789183899
 40
3.1736129263881478
 50
288.35083678421267
 51
306.83022883126557
  0
ARC
  8
_0-0_0
  6
CONTINUOUS
 62
    4
 10
118.08521875868926
 20
119.92506541010475
 40
1.2488369528448979
 50
303.68184333106461
 51
319.53571494836279
  0
ARC
  8
_0-0_0
  6
CONTINUOUS
 62
    4
 10
118.9674890649553
 20
119.17093394169664
 40
0.0881925543904586
 50
320.30288015375941
 51
355.40864451465978
  0
ARC
  8
_0-0_0
  6
CONTINUOUS
 62
    4
 10
119.02469044319921
 20
119.16130276189828
 40
0.0308156434753434
 50
4.786768454451507
 51
81.097624025638026
  0
ARC
  8
_0-0_0
  6
CONTINUOUS
 62
    4
 10
118.97326135095862
 20
118.9793509251064
 40
0.2197051872953285
 50
75.179742931468254
 51
93.651570355195033
  0
ARC
  8
_0-0_0
  6
CONTINUOUS
 62
    4
 10
118.99483373246719
 20
118.20684487968473
 40
0.9924026749791031
 50
92.053771978726643
 51
98.103022811813247
  0
ARC
  8
_0-0_0
  6
CONTINUOUS
 62
    4
 10
121.08890565566842
 20
105.5353141069575
 40
13.835568860610759
 50
99.291916753487697
 51
101.08706043378141
  0
ARC
  8
_0-0_0
  6
CONTINUOUS
 62
    4
 10
117.64620066938731
 20
123.16247853774522
 40
4.1246529842825596
 50
273.98864791033787
 51
280.9306592486144
  0
ARC
  8
_0-0_0
  6
CONTINUOUS
 62
    4
 10
117.80094874153336
 20
120.70648472437839
 40
1.6639253014777108
 50
251.26861928223692
 51
274.55553865153979
  0
ARC
  8
_0-0_0
  6
CONTINUOUS
 62
    4
 10
118.1253656927024
 20
121.40278775778612
 40
2.4289689932985001
 50
238.34654734940269
 51
249.2955436785534
  0
ARC
  8
_0-0_0
  6
CONTINUOUS
 62
    4
 10
95.524293254986318
 20
86.192262745579952
 40
39.411504846436713
 50
57.240009385685837
 51
58.448771972766216
  0
ARC
  8
_0-0_0
  6
CONTINUOUS
 62
    4
 10
114.40942355282548
 20
116.88595948458809
 40
3.37348658857361
 50
59.00223393633005
 51
76.07762116933344
  0
ARC
  8
_0-0_0
  6
CONTINUOUS
 62
    4
 10
114.84033120128059
 20
118.64626471980299
 40
1.561224086212861
 50
75.883358014711632
 51
105.22906801677268
  0
ARC
  8
_0-0_0
  6
CONTINUOUS
 62
    4
 10
115.37243751205959
 20
117.09278981116521
 40
3.2016530963135738
 50
107.11482112800699
 51
120.99931358479409
  0
ARC
  8
_0-0_0
  6
CONTINUOUS
 62
    4
 10
125.30334487975322
 20
99.953169749766047
 40
23.010128590978091
 50
120.21525372742378
 51
122.37769829202598
  0
ARC
  8
_0-0_0
  6
CONTINUOUS
 62
    4
 10
116.27657969787649
 20
114.04843078749279
 40
6.2728052549735808
 50
121.6885548894601
 51
126.1916938358909
  0
ARC
  8
_0-0_0
  6
CONTINUOUS
 62
    4
 10
112.77760829262932
 20
118.81428852375351
 40
0.3605652408526742
 50
124.65877532442179
 51
137.17866708089889
  0
ARC
  8
_0-0_0
  6
CONTINUOUS
 62
    4
 10
112.55241374584328
 20
119.01487160755043
 40
0.0593495349528901
 50
131.42980626696419
 51
155.71130170680581
  0
ARC
  8
_0-0_0
  6
CONTINUOUS
 62
    4
 10
112.51515849801033
 20
119.0367111124106
 40
0.017036351813818
 50
171.3133425575674
 51
192.4271796516812
  0
ARC
  8
_0-0_0
  6
CONTINUOUS
 62
    4
 10
112.51590024188361
 20
119.0614090328227
 40
0.0332648584815238
 50
238.50384148451456
 51
259.0816500497084
  0
ARC
  8
_0-0_0
  6
CONTINUOUS
 62
    4
 10
112.51225780607454
 20
119.12062438906598
 40
0.0919165045632413
 50
268.34275432726042
 51
279.76805368781265
  0
ARC
  8
_0-0_0
  6
CONTINUOUS
 62
    4
 10
111.35752289334048
 20
113.31198021089498
 40
0.4896459789594018
 50
279.84705918893831
 51
286.93656182203278
  0
ARC
  8
_0-0_0
  6
CONTINUOUS
 62
    4
 10
110.92055509498821
 20
114.81621018863783
 40
2.056027682907799
 50
286.37403296525872
 51
288.85576405620122
  0
ARC
  8
_0-0_0
  6
CONTINUOUS
 62
    4
 10
108.14515247966345
 20
122.89359476936617
 40
10.596926461343919
 50
288.94203722844207
 51
290.26496828778527
  0
ARC
  8
_0-0_0
  6
CONTINUOUS
 62
    4
 10
147.67081179121123
 20
14.251550248707474
 40
105.0119060559041
 50
109.84643100976229
 51
109.96464252807609
  0
ARC
  8
_0-0_0
  6
CONTINUOUS
 62
    4
 10
114.21403318202236
 20
107.1091507648595
 40
6.3111528210813503
 50
104.98449271358289
 51
110.35061749567871
  0
ARC
  8
_0-0_0
  6
CONTINUOUS
 62
    4
 10
113.63518622614036
 20
109.21955031762847
 40
4.1228724627503501
 50
93.315623902540934
 51
104.79682797442208
  0
ARC
  8
_0-0_0
  6
CONTINUOUS
 62
    4
 10
113.68913474150939
 20
105.50529518840714
 40
7.8356838124234871
 50
90.258245572208721
 51
92.138572650504258
  0
ARC
  8
_0-0_0
  6
CONTINUOUS
 62
    4
 10
113.66283202924022
 20
111.34091972447087
 40
1.999999999999996
 50
66.015740926428421
 51
90.258245572222477
  0
ARC
  8
_0-0_0
  6
CONTINUOUS
 62
    4
 10
111.25090832697058
 20
105.91964253186806
 40
7.9336011278658737
 50
61.113214816570952
 51
66.015740926429472
  0
ARC
  8
_0-0_0
  6
CONTINUOUS
 62
    4
 10
104.49245970394257
 20
95.970942602382237
 40
19.940321176259459
 50
55.772669339350812
 51
57.917779047244515
  0
ARC
  8
_0-0_0
  6
CONTINUOUS
 62
    4
 10
116.82130479362238
 20
114.0494256769429
 40
1.942053820093289
 50
235.0381680354796
 51
250.82130751044229
  0
ARC
  8
_0-0_0
  6
CONTINUOUS
 62
    4
 10
116.48864028649448
 20
113.22558099533129
 40
1.0555472520280109
 50
253.18619816606809
 51
286.47345438047307
  0
ARC
  8
_0-0_0
  6
CONTINUOUS
 62
    4
 10
115.78879940252134
 20
115.22558629879976
 40
3.1736129263881478
 50
288.35083678421267
 51
306.83022883126557
  0
ARC
  8
_0-0_0
  6
CONTINUOUS
 62
    4
 10
116.99862795307761
 20
113.72457279051472
 40
1.2488369528448979
 50
303.68184333106461
 51
319.53571494836279
  0
ARC
  8
_0-0_0
  6
CONTINUOUS
 62
    4
 10
117.88089825934319
 20
112.9704413221065
 40
0.0881925543904586
 50
320.30288015375941
 51
355.40864451465978
  0
ARC
  8
_0-0_0
  6
CONTINUOUS
 62
    4
 10
117.93809963758847
 20
112.96081014230814
 40
0.0308156434753434
 50
4.786768454451507
 51
81.097624025638026
  0
ARC
  8
_0-0_0
  6
CONTINUOUS
 62
    4
 10
117.88667054534651
 20
112.77885830551649
 40
0.2197051872953285
 50
75.179742931468254
 51
93.651570355195033
  0
ARC
  8
_0-0_0
  6
CONTINUOUS
 62
    4
 10
117.90824292685555
 20
112.0063522600946
 40
0.9924026749791031
 50
92.053771978726643
 51
98.103022811813247
  0
ARC
  8
_0-0_0
  6
CONTINUOUS
 62
    4
 10
120.00231485005632
 20
99.334821487367477
 40
13.835568860610759
 50
99.291916753487697
 51
101.08706043378141
  0
ARC
  8
_0-0_0
  6
CONTINUOUS
 62
    4
 10
116.5596098637752
 20
116.9619859181552
 40
4.1246529842825596
 50
273.98864791033787
 51
280.9306592486144
  0
ARC
  8
_0-0_0
  6
CONTINUOUS
 62
    4
 10
116.71435793592125
 20
114.50599210478848
 40
1.6639253014777108
 50
251.26861928223692
 51
274.55553865153979
  0
ARC
  8
_0-0_0
  6
CONTINUOUS
 62
    4
 10
117.03877488709029
 20
115.2022951381961
 40
2.4289689932985001
 50
238.34654734940269
 51
249.2955436785534
  0
ARC
  8
_0-0_0
  6
CONTINUOUS
 62
    4
 10
94.437702449374214
 20
79.99177012598993
 40
39.411504846436713
 50
57.240009385685837
 51
58.448771972766216
  0
ARC
  8
_0-0_0
  6
CONTINUOUS
 62
    4
 10
113.32283274721338
 20
110.68546686499819
 40
3.37348658857361
 50
59.00223393633005
 51
76.07762116933344
  0
ARC
  8
_0-0_0
  6
CONTINUOUS
 62
    4
 10
113.75374039566848
 20
112.44577210021286
 40
1.561224086212861
 50
75.883358014711632
 51
105.22906801677268
  0
ARC
  8
_0-0_0
  6
CONTINUOUS
 62
    4
 10
114.28584670644657
 20
110.8922971915753
 40
3.2016530963135738
 50
107.11482112800699
 51
120.99931358479409
  0
ARC
  8
_0-0_0
  6
CONTINUOUS
 62
    4
 10
124.21675407414157
 20
93.752677130176081
 40
23.010128590978091
 50
120.21525372742378
 51
122.37769829202598
  0
ARC
  8
_0-0_0
  6
CONTINUOUS
 62
    4
 10
115.18998889226439
 20
107.84793816790276
 40
6.2728052549735808
 50
121.6885548894601
 51
126.1916938358909
  0
ARC
  8
_0-0_0
  6
CONTINUOUS
 62
    4
 10
111.69101748701721
 20
112.61379590416349
 40
0.3605652408526742
 50
124.65877532442179
 51
137.17866708089889
  0
ARC
  8
_0-0_0
  6
CONTINUOUS
 62
    4
 10
111.46582294023117
 20
112.81437898796052
 40
0.0593495349528901
 50
131.42980626696419
 51
155.71130170680581
  0
ARC
  8
_0-0_0
  6
CONTINUOUS
 62
    4
 10
111.42856769239823
 20
112.83621849282057
 40
0.017036351813818
 50
171.3133425575674
 51
192.4271796516812
  0
ARC
  8
_0-0_0
  6
CONTINUOUS
 62
    4
 10
111.4293094362715
 20
112.8609164132328
 40
0.0332648584815238
 50
238.50384148451456
 51
259.0816500497084
  0
ARC
  8
_0-0_0
  6
CONTINUOUS
 62
    4
 10
111.42566700046334
 20
112.92013176947584
 40
0.0919165045632413
 50
268.34275432726042
 51
279.76805368781265
  0
ARC
  8
_0-0_0
  6
CONTINUOUS
 62
    4
 10
110.84849980441957
 20
116.52114321257936
 40
0.5379041817911357
 50
279.84705918889721
 51
286.93656182199299
  0
ARC
  8
_0-0_0
  6
CONTINUOUS
 62
    4
 10
110.36846562433446
 20
118.17362608831165
 40
2.258664292236244
 50
286.37403296528952
 51
288.85576405623203
  0
ARC
  8
_0-0_0
  6
CONTINUOUS
 62
    4
 10
107.31952672339546
 20
127.0470961679528
 40
11.641331293695259
 50
288.94203722843911
 51
290.26496828778232
  0
ARC
  8
_0-0_0
  6
CONTINUOUS
 62
    4
 10
150.74072968497739
 20
7.6975812589888619
 40
115.36159967105079
 50
109.84643100977339
 51
109.96464252808718
  0
ARC
  8
_0-0_0
  6
CONTINUOUS
 62
    4
 10
113.98654013485337
 20
109.70697942622489
 40
6.933163224573752
 50
104.9844927135702
 51
110.35061749566608
  0
ARC
  8
_0-0_0
  6
CONTINUOUS
 62
    4
 10
113.35064356556857
 20
112.02537433492652
 40
4.5292117856583198
 50
93.315623902547073
 51
104.79682797442799
  0
ARC
  8
_0-0_0
  6
CONTINUOUS
 62
    4
 10
113.40990910284652
 20
107.94505211825826
 40
8.6079479277137451
 50
90.258245572224311
 51
92.138572650519805
  0
ARC
  8
_0-0_0
  6
CONTINUOUS
 62
    4
 10
113.38101406534859
 20
114.35582025728085
 40
2.1971146702113211
 50
66.015740926426275
 51
90.258245572220232
  0
ARC
  8
_0-0_0
  6
CONTINUOUS
 62
    4
 10
110.73137759050221
 20
108.4002364317079
 40
8.7155157128182771
 50
61.113214816559988
 51
66.015740926418388
  0
ARC
  8
_0-0_0
  6
CONTINUOUS
 62
    4
 10
103.30683428174459
 20
97.471019149411958
 40
21.905586092534498
 50
55.772669339345981
 51
57.917779047239704
  0
ARC
  8
_0-0_0
  6
CONTINUOUS
 62
    4
 10
116.85077748839147
 20
117.33126933854673
 40
2.1334574692342531
 50
235.03816803546959
 51
250.82130751043109
  0
ARC
  8
_0-0_0
  6
CONTINUOUS
 62
    4
 10
116.48532645395651
 20
116.42622872057431
 40
1.1595791762662579
 50
253.18619816605493
 51
286.47345438045897
  0
ARC
  8
_0-0_0
  6
CONTINUOUS
 62
    4
 10
115.71651111746039
 20
118.62334921694848
 40
3.486395759068773
 50
288.3508367842254
 51
306.8302288312779
  0
ARC
  8
_0-0_0
  6
CONTINUOUS
 62
    4
 10
117.04557714589326
 20
116.97439981733059
 40
1.3719189948991739
 50
303.6818433310766
 51
319.53571494837041
  0
ARC
  8
_0-0_0
  6
CONTINUOUS
 62
    4
 10
118.01480166238842
 20
116.14594316107699
 40
0.0968845775274451
 50
320.30288015349157
 51
355.40864451441507
  0
ARC
  8
_0-0_0
  6
CONTINUOUS
 62
    4
 10
118.07764065603758
 20
116.1353627578632
 40
0.0338527511757424
 50
4.7867684547420132
 51
81.097624026275141
  0
ARC
  8
_0-0_0
  6
CONTINUOUS
 62
    4
 10
118.02114284951856
 20
115.93547823292105
 40
0.2413587450626827
 50
75.179742931655809
 51
93.651570355387136
  0
ARC
  8
_0-0_0
  6
CONTINUOUS
 62
    4
 10
118.04484134746051
 20
115.08683605030721
 40
1.090211237977779
 50
92.053771978735127
 51
98.103022811821276
  0
ARC
  8
_0-0_0
  6
CONTINUOUS
 62
    4
 10
120.3452994189315
 20
101.16643297291163
 40
15.19916565718346
 50
99.291916753488663
 51
101.08706043378239
  0
ARC
  8
_0-0_0
  6
CONTINUOUS
 62
    4
 10
116.56329060364758
 20
120.5308837554658
 40
4.5311677906476521
 50
273.98864791033724
 51
280.93065924861355
  0
ARC
  8
_0-0_0
  6
CONTINUOUS
 62
    4
 10
116.73329023339736
 20
117.83283373681904
 40
1.8279173450061521
 50
251.26861928222399
 51
274.55553865152768
  0
ARC
  8
_0-0_0
  6
CONTINUOUS
 62
    4
 10
117.08968085473632
 20
118.59776254162629
 40
2.6683617043331371
 50
238.34654734940983
 51
249.29554367856033
  0
ARC
  8
_0-0_0
  6
CONTINUOUS
 62
    4
 10
92.26110694703037
 20
79.916982016550534
 40
43.295797736599972
 50
57.24000938568308
 51
58.448771972763438
  0
ARC
  8
_0-0_0
  6
CONTINUOUS
 62
    4
 10
113.00750536014628
 20
113.63576771069101
 40
3.7059684367578551
 50
59.002233936337077
 51
76.077621169341384
  0
ARC
  8
_0-0_0
  6
CONTINUOUS
 62
    4
 10
113.48088211810953
 20
115.56956393886177
 40
1.7150941716521219
 50
75.883358014716733
 51
105.22906801677991
  0
ARC
  8
_0-0_0
  6
CONTINUOUS
 62
    4
 10
114.0654314088715
 20
113.862982683075
 40
3.5171994934186758
 50
107.1148211280047
 51
120.99931358479219
  0
ARC
  8
_0-0_0
  6
CONTINUOUS
 62
    4
 10
124.97510254190818
 20
95.034127343696738
 40
25.277945545347048
 50
120.21525372742101
 51
122.37769829202311
  0
ARC
  8
_0-0_0
  6
CONTINUOUS
 62
    4
 10
115.0586834390783
 20
110.51857974692727
 40
6.8910362245373422
 50
121.6885548894669
 51
126.19169383589779
  0
ARC
  8
_0-0_0
  6
CONTINUOUS
 62
    4
 10
111.21486273652134
 20
115.7541477211635
 40
0.3961015901228548
 50
124.65877532443577
 51
137.17866708091466
  0
ARC
  8
_0-0_0
  6
CONTINUOUS
 62
    4
 10
110.96747361532423
 20
115.97449973916666
 40
0.0651988669580613
 50
131.42980626728149
 51
155.71130170692259
  0
ARC
  8
_0-0_0
  6
CONTINUOUS
 62
    4
 10
110.92654658954459
 20
115.99849168742541
 40
0.0187154092480865
 50
171.31334255630488
 51
192.42717965078529
  0
ARC
  8
_0-0_0
  6
CONTINUOUS
 62
    4
 10
110.92736143771752
 20
116.02562376905579
 40
0.0365433542854219
 50
238.5038414842221
 51
259.08165004949887
  0
ARC
  8
_0-0_0
  6
CONTINUOUS
 62
    4
 10
110.92336001314241
 20
116.09067523300829
 40
0.1009755503052514
 50
268.34275432722552
 51
279.76805368776911
  0
ARC
  8
_0-0_0
  6
CONTINUOUS
 62
    4
 10
130.85856199963836
 20
116.48708460782158
 40
13.00022095879696
 50
179.50143327732729
 51
180.13986895103349
  0
ARC
  8
_0-0_0
  6
CONTINUOUS
 62
    4
 10
120.7788034789214
 20
116.59088848826949
 40
2.9199851301954571
 50
174.7226940534384
 51
179.81716604750826
  0
ARC
  8
_0-0_0
  6
CONTINUOUS
 62
    4
 10
119.50608396297319
 20
116.70208804321661
 40
1.642444902471404
 50
166.9144595068322
 51
174.50181615210939
  0
ARC
  8
_0-0_0
  6
CONTINUOUS
 62
    4
 10
118.9906412875366
 20
116.82140182386324
 40
1.113373465820485
 50
145.85608006197131
 51
166.8895788497698
  0
ARC
  8
_0-0_0
  6
CONTINUOUS
 62
    4
 10
119.19592333708759
 20
116.66846955744522
 40
1.369155019375265
 50
131.01141830576779
 51
145.38102157288651
  0
ARC
  8
_0-0_0
  6
CONTINUOUS
 62
    4
 10
119.0396316651945
 20
116.8608219976442
 40
1.121480508115201
 50
107.02002794805299
 51
131.4349072845944
  0
ARC
  8
_0-0_0
  6
CONTINUOUS
 62
    4
 10
119.15479137204646
 20
116.39813674797714
 40
1.597809781193769
 50
93.874059027882793
 51
106.11223021408309
  0
ARC
  8
_0-0_0
  6
CONTINUOUS
 62
    4
 10
119.42898683629753
 20
109.54014059845876
 40
8.4607895779134096
 50
88.446185326753308
 51
92.588764101913739
  0
ARC
  8
_0-0_0
  6
CONTINUOUS
 62
    4
 10
119.61352789463352
 20
116.12458629399297
 40
1.873770394715835
 50
78.2012423666566
 51
88.627521399947426
  0
ARC
  8
_0-0_0
  6
CONTINUOUS
 62
    4
 10
119.76594565369758
 20
116.86207614766003
 40
1.12069790566322
 50
64.179142653050774
 51
78.119408437245937
  0
ARC
  8
_0-0_0
  6
CONTINUOUS
 62
    4
 10
119.75635680629919
 20
116.86719712520134
 40
1.1203173692895369
 50
35.573851881046451
 51
63.623625309408197
  0
ARC
  8
_0-0_0
  6
CONTINUOUS
 62
    4
 10
119.54208587416131
 20
116.72732652684412
 40
1.3760111757844499
 50
12.358738456412227
 51
35.120544985956456
  0
ARC
  8
_0-0_0
  6
CONTINUOUS
 62
    4
 10
117.9288924505913
 20
116.41280319578304
 40
3.0193791998100549
 50
0.8073734556952947
 51
11.636869717453929
  0
ARC
  8
_0-0_0
  6
CONTINUOUS
 62
    4
 10
117.9288924505913
 20
116.49789448746587
 40
3.019379199810062
 50
348.36313028254596
 51
359.19262654430468
  0
ARC
  8
_0-0_0
  6
CONTINUOUS
 62
    4
 10
119.54208587416131
 20
116.18337115640467
 40
1.376011175784457
 50
324.87945501404357
 51
347.6412615435878
  0
ARC
  8
_0-0_0
  6
CONTINUOUS
 62
    4
 10
119.75635680629919
 20
116.04350055804756
 40
1.1203173692895969
 50
296.37637469059177
 51
324.42614811895361
  0
ARC
  8
_0-0_0
  6
CONTINUOUS
 62
    4
 10
119.76594565369758
 20
116.04862153558865
 40
1.120697905663134
 50
281.88059156275403
 51
295.82085734694931
  0
ARC
  8
_0-0_0
  6
CONTINUOUS
 62
    4
 10
119.61352789463352
 20
116.78611138925582
 40
1.8737703947158019
 50
271.3724786000526
 51
281.79875763334342
  0
ARC
  8
_0-0_0
  6
CONTINUOUS
 62
    4
 10
119.42898683629753
 20
123.37055708479014
 40
8.4607895779134221
 50
267.41123589808631
 51
271.55381467324667
  0
ARC
  8
_0-0_0
  6
CONTINUOUS
 62
    4
 10
119.15479137204646
 20
116.51256093527153
 40
1.5978097811936879
 50
253.88776978591678
 51
266.12594097211717
  0
ARC
  8
_0-0_0
  6
CONTINUOUS
 62
    4
 10
119.0396316651945
 20
116.0498756856047
 40
1.1214805081150769
 50
228.56509271540554
 51
252.97997205194693
  0
ARC
  8
_0-0_0
  6
CONTINUOUS
 62
    4
 10
119.19592333708759
 20
116.24222812580357
 40
1.3691550193752559
 50
214.61897842711348
 51
228.9885816942322
  0
ARC
  8
_0-0_0
  6
CONTINUOUS
 62
    4
 10
118.9906412875366
 20
116.08929585938567
 40
1.113373465820477
 50
193.11042115023013
 51
214.1439199380286
  0
ARC
  8
_0-0_0
  6
CONTINUOUS
 62
    4
 10
119.50608396297319
 20
116.20860964003217
 40
1.6424449024713849
 50
185.4981838478906
 51
193.08554049316771
  0
ARC
  8
_0-0_0
  6
CONTINUOUS
 62
    4
 10
120.7788034789214
 20
116.31980919497929
 40
2.919985130195458
 50
180.1828339524917
 51
185.27730594656156
  0
ARC
  8
_0-0_0
  6
CONTINUOUS
 62
    4
 10
130.85856199963836
 20
116.42361307542732
 40
13.00022095879696
 50
179.86013104896642
 51
180.49856672267273
  0
ARC
  8
_0-0_0
  6
CONTINUOUS
 62
    4
 10
47.602915841082449
 20
105.54035423744009
 40
70.133201444583249
 50
2.482847936958946
 51
3.1917216391886311
  0
ARC
  8
_0-0_0
  6
CONTINUOUS
 62
    4
 10
93.192102577366298
 20
108.1375464565862
 40
24.47018882359228
 50
3.0632151773806564
 51
4.460256767601332
  0
ARC
  8
_0-0_0
  6
CONTINUOUS
 62
    4
 10
116.85691038972434
 20
109.9888840897875
 40
0.7330951733458116
 50
4.0400543160476303
 51
25.536995904951698
  0
ARC
  8
_0-0_0
  6
CONTINUOUS
 62
    4
 10
117.38203270215034
 20
110.22304235625431
 40
0.1590472752766869
 50
30.982820803288536
 51
110.12931881985868
  0
ARC
  8
_0-0_0
  6
CONTINUOUS
 62
    4
 10
117.4416683989916
 20
109.92198181777477
 40
0.4646873666423564
 50
104.24821028492408
 51
124.49957980701319
  0
ARC
  8
_0-0_0
  6
CONTINUOUS
 62
    4
 10
117.45996467201028
 20
109.89939644421535
 40
0.4936689644119295
 50
124.76491435717791
 51
146.65433848002089
  0
ARC
  8
_0-0_0
  6
CONTINUOUS
 62
    4
 10
117.80370480445752
 20
109.67700668818694
 40
0.9030697221589407
 50
146.85561662087118
 51
157.60453227084011
  0
ARC
  8
_0-0_0
  6
CONTINUOUS
 62
    4
 10
7.7147220077704332
 20
153.78196242413451
 40
117.6922154785223
 50
338.0465455023596
 51
338.17179628559267
  0
ARC
  8
_0-0_0
  6
CONTINUOUS
 62
    4
 10
10.791342436303239
 20
156.02787899507671
 40
115.72350739977119
 50
336.1835514548714
 51
336.44551777018438
  0
ARC
  8
_0-0_0
  6
CONTINUOUS
 62
    4
 10
122.85300320618033
 20
106.71060528613945
 40
6.711446608658159
 50
157.3257796270156
 51
161.020362786117
  0
ARC
  8
_0-0_0
  6
CONTINUOUS
 62
    4
 10
115.61852306394256
 20
109.1590601200077
 40
0.9268021859459725
 50
332.57564734941865
 51
343.34190916331846
  0
ARC
  8
_0-0_0
  6
CONTINUOUS
 62
    4
 10
116.2539523410105
 20
108.80716807917808
 40
0.2016719603246311
 50
311.6143961966718
 51
338.17633365469629
  0
ARC
  8
_0-0_0
  6
CONTINUOUS
 62
    4
 10
116.24239363417835
 20
108.94289485421408
 40
0.3213283065156538
 50
283.07764324504137
 51
296.92235932566825
  0
ARC
  8
_0-0_0
  6
CONTINUOUS
 62
    4
 10
116.20351203448943
 20
109.03399675527604
 40
0.4192206457352037
 50
263.06392158644791
 51
285.43719443635558
  0
ARC
  8
_0-0_0
  6
CONTINUOUS
 62
    4
 10
116.17562122151819
 20
109.20157044058184
 40
0.5841688408161811
 50
255.48950808654717
 51
267.76956000682122
  0
ARC
  8
_0-0_0
  6
CONTINUOUS
 62
    4
 10
116.54390804629836
 20
110.77075241023207
 40
2.1958791903570431
 50
252.04255711744013
 51
256.44533946466992
  0
ARC
  8
_0-0_0
  6
CONTINUOUS
 62
    4
 10
113.73166365733457
 20
101.88590454557702
 40
7.123482615332211
 50
72.557682781411145
 51
73.962440754198865
  0
ARC
  8
_0-0_0
  6
CONTINUOUS
 62
    4
 10
115.97349040451625
 20
109.73668232649519
 40
1.04119162275637
 50
240.54411671958013
 51
254.75144983426542
  0
ARC
  8
_0-0_0
  6
CONTINUOUS
 62
    4
 10
115.64939207973155
 20
109.1397499742906
 40
0.3622231124516482
 50
198.77903602722761
 51
238.75011442455752
  0
ARC
  8
_0-0_0
  6
CONTINUOUS
 62
    4
 10
115.57539117617851
 20
109.11603536084651
 40
0.2845305977138631
 50
165.346037168115
 51
199.0549340883156
  0
ARC
  8
_0-0_0
  6
CONTINUOUS
 62
    4
 10
320.2526028795005
 20
30.025473319304737
 40
219.70942188773599
 50
158.7470819767594
 51
158.881032699027
  0
ARC
  8
_0-0_0
  6
CONTINUOUS
 62
    4
 10
96.531288153956197
 20
116.1694203265353
 40
20.03880330803674
 50
341.06509313321549
 51
343.21148103896172
  0
ARC
  8
_0-0_0
  6
CONTINUOUS
 62
    4
 10
-180.77570693746247
 20
211.9090433016575
 40
313.39301738924348
 50
341.09726113411062
 51
341.63529967152027
  0
ARC
  8
_0-0_0
  6
CONTINUOUS
 62
    4
 10
80.200938915442293
 20
125.17820194071116
 40
38.382138465049798
 50
341.76848630929868
 51
342.397556641442
  0
ARC
  8
_0-0_0
  6
CONTINUOUS
 62
    4
 10
117.41739860740061
 20
113.38496692482765
 40
0.6583027410789089
 50
141.6054145360101
 51
163.58133827387371
  0
ARC
  8
_0-0_0
  6
CONTINUOUS
 62
    4
 10
117.92214592804519
 20
112.95993647759921
 40
1.318021016671335
 50
125.77194163551251
 51
140.75190536870184
  0
ARC
  8
_0-0_0
  6
CONTINUOUS
 62
    4
 10
117.90417374647857
 20
113.079987006969
 40
1.211388574580497
 50
113.46971391638189
 51
128.402378570845
  0
ARC
  8
_0-0_0
  6
CONTINUOUS
 62
    4
 10
117.80560027384943
 20
113.17919198412782
 40
1.0823304037826819
 50
87.732097382208138
 51
110.7737405925052
  0
ARC
  8
_0-0_0
  6
CONTINUOUS
 62
    4
 10
116.38683569541124
 20
401.64718288724776
 40
287.39022494247251
 50
270.29139321814761
 51
270.4087689341328
  0
ARC
  8
_0-0_0
  6
CONTINUOUS
 62
    4
 10
119.19531209578461
 20
-9.6078353129678362
 40
123.874427247845
 50
89.903856432888559
 51
90.350668958886416
  0
ARC
  8
_0-0_0
  6
CONTINUOUS
 62
    4
 10
119.61103987963041
 20
-9.6078353129678362
 40
123.874427247845
 50
89.649331041113583
 51
90.09614356711144
  0
ARC
  8
_0-0_0
  6
CONTINUOUS
 62
    4
 10
122.41951628000332
 20
401.64718288724776
 40
287.39022494247251
 50
269.59123106586707
 51
269.70860678185232
  0
ARC
  8
_0-0_0
  6
CONTINUOUS
 62
    4
 10
121.00075170156422
 20
113.17919198412782
 40
1.0823304037826189
 50
69.226259407494723
 51
92.267902617791861
  0
ARC
  8
_0-0_0
  6
CONTINUOUS
 62
    4
 10
120.90217822893554
 20
113.079987006969
 40
1.2113885745804688
 50
51.597621429154997
 51
66.530286083618065
  0
ARC
  8
_0-0_0
  6
CONTINUOUS
 62
    4
 10
120.88420604736937
 20
112.95993647759921
 40
1.318021016671369
 50
39.248094631298215
 51
54.228058364487473
  0
ARC
  8
_0-0_0
  6
CONTINUOUS
 62
    4
 10
121.38895336801441
 20
113.38496692482765
 40
0.6583027410789452
 50
16.41866172612632
 51
38.394585463989898
  0
ARC
  8
_0-0_0
  6
CONTINUOUS
 62
    4
 10
158.60541305997139
 20
125.17820194071116
 40
38.382138465049798
 50
197.6024433585579
 51
198.23151369070129
  0
ARC
  8
_0-0_0
  6
CONTINUOUS
 62
    4
 10
419.58205891287752
 20
211.9090433016575
 40
313.39301738924348
 50
198.36470032847961
 51
198.90273886588929
  0
ARC
  8
_0-0_0
  6
CONTINUOUS
 62
    4
 10
142.27506382145838
 20
116.1694203265353
 40
20.038803308036751
 50
196.7885189610383
 51
198.9349068667845
  0
ARC
  8
_0-0_0
  6
CONTINUOUS
 62
    4
 10
-81.446250904085445
 20
30.025473319304737
 40
219.70942188773599
 50
21.118967300972954
 51
21.252918023240574
  0
ARC
  8
_0-0_0
  6
CONTINUOUS
 62
    4
 10
123.23096079923651
 20
109.11603536084651
 40
0.28453059771386
 50
340.9450659116843
 51
14.653962831884919
  0
ARC
  8
_0-0_0
  6
CONTINUOUS
 62
    4
 10
123.15695989568256
 20
109.1397499742906
 40
0.3622231124518308
 50
301.24988557544247
 51
341.22096397277238
  0
ARC
  8
_0-0_0
  6
CONTINUOUS
 62
    4
 10
122.83286157089831
 20
109.73668232649519
 40
1.0411916227564299
 50
285.24855016573462
 51
299.45588328041981
  0
ARC
  8
_0-0_0
  6
CONTINUOUS
 62
    4
 10
125.07468831808044
 20
101.88590454557702
 40
7.1234826153322101
 50
106.03755924580111
 51
107.44231721858891
  0
ARC
  8
_0-0_0
  6
CONTINUOUS
 62
    4
 10
122.2624439291162
 20
110.77075241023207
 40
2.1958791903570737
 50
283.55466053533007
 51
287.9574428825598
  0
ARC
  8
_0-0_0
  6
CONTINUOUS
 62
    4
 10
122.63073075389637
 20
109.20157044058184
 40
0.5841688408162029
 50
272.23043999317877
 51
284.51049191345282
  0
ARC
  8
_0-0_0
  6
CONTINUOUS
 62
    4
 10
122.60283994092559
 20
109.03399675527604
 40
0.4192206457351884
 50
254.56280556364436
 51
276.93607841355208
  0
ARC
  8
_0-0_0
  6
CONTINUOUS
 62
    4
 10
122.56395834123621
 20
108.94289485421408
 40
0.3213283065156363
 50
243.07764067433174
 51
256.92235675495862
  0
ARC
  8
_0-0_0
  6
CONTINUOUS
 62
    4
 10
122.55239963440361
 20
108.80716807917808
 40
0.2016719603245545
 50
201.82366634530356
 51
228.38560380332816
  0
ARC
  8
_0-0_0
  6
CONTINUOUS
 62
    4
 10
123.18782891147155
 20
109.1590601200077
 40
0.9268021859459809
 50
196.6580908366815
 51
207.42435265058131
  0
ARC
  8
_0-0_0
  6
CONTINUOUS
 62
    4
 10
115.95334876923332
 20
106.71060528613945
 40
6.7114466086581519
 50
18.979637213882998
 51
22.674220372984358
  0
ARC
  8
_0-0_0
  6
CONTINUOUS
 62
    4
 10
228.01500953911136
 20
156.02787899507671
 40
115.72350739977119
 50
203.55448222981559
 51
203.81644854512859
  0
ARC
  8
_0-0_0
  6
CONTINUOUS
 62
    4
 10
231.09162996764462
 20
153.78196242413451
 40
117.6922154785223
 50
201.82820371440729
 51
201.95345449764039
  0
ARC
  8
_0-0_0
  6
CONTINUOUS
 62
    4
 10
121.00264717095659
 20
109.67700668818694
 40
0.9030697221589415
 50
22.395467729159914
 51
33.14438337912879
  0
ARC
  8
_0-0_0
  6
CONTINUOUS
 62
    4
 10
121.34638730340428
 20
109.89939644421535
 40
0.4936689644119652
 50
33.345661519979067
 51
55.235085642822092
  0
ARC
  8
_0-0_0
  6
CONTINUOUS
 62
    4
 10
121.3646835764225
 20
109.92198181777477
 40
0.4646873666424882
 50
55.500420192986744
 51
75.751789715075915
  0
ARC
  8
_0-0_0
  6
CONTINUOUS
 62
    4
 10
121.42431927326423
 20
110.22304235625431
 40
0.1590472752767692
 50
69.870681180141332
 51
149.01717919671139
  0
ARC
  8
_0-0_0
  6
CONTINUOUS
 62
    4
 10
121.94944158569022
 20
109.9888840897875
 40
0.7330951733457387
 50
154.46300409504829
 51
175.95994568395229
  0
ARC
  8
_0-0_0
  6
CONTINUOUS
 62
    4
 10
145.61424939804828
 20
108.1375464565862
 40
24.47018882359228
 50
175.53974323239859
 51
176.93678482261933
  0
ARC
  8
_0-0_0
  6
CONTINUOUS
 62
    4
 10
191.2034361343326
 20
105.54035423744009
 40
70.133201444583249
 50
176.8082783608113
 51
177.51715206304101
  0
ARC
  8
_0-0_0
  6
CONTINUOUS
 62
    4
 10
101.57739024012744
 20
113.88240133727742
 40
0.6876692401666648
 50
88.515605882391767
 51
95.605108515487586
  0
ARC
  8
_0-0_0
  6
CONTINUOUS
 62
    4
 10
101.76402684866661
 20
111.69042929927786
 40
2.8875290622609521
 50
95.042579658737963
 51
97.524310749680338
  0
ARC
  8
_0-0_0
  6
CONTINUOUS
 62
    4
 10
103.35695122315019
 20
99.801644784101711
 40
14.88254919051698
 50
97.610583921915875
 51
98.933514981259165
  0
ARC
  8
_0-0_0
  6
CONTINUOUS
 62
    4
 10
78.907784671172521
 20
260.31359494366881
 40
147.48095715852591
 50
278.51497770327472
 51
278.63318922158862
  0
ARC
  8
_0-0_0
  6
CONTINUOUS
 62
    4
 10
99.35549923427834
 20
123.21222080528139
 40
8.8635174218692345
 50
273.65303940706075
 51
279.01916418915652
  0
ARC
  8
_0-0_0
  6
CONTINUOUS
 62
    4
 10
99.570239171967386
 20
120.14637496919533
 40
5.7902498858283122
 50
261.98417059603502
 51
273.46537466791608
  0
ARC
  8
_0-0_0
  6
CONTINUOUS
 62
    4
 10
100.52088693676432
 20
125.27595772630445
 40
11.0046012119557
 50
258.92679226570959
 51
260.80711934400517
  0
ARC
  8
_0-0_0
  6
CONTINUOUS
 62
    4
 10
98.946784292794291
 20
117.23278296535681
 40
2.8088425912485561
 50
234.68428761990537
 51
258.92679226569822
  0
ARC
  8
_0-0_0
  6
CONTINUOUS
 62
    4
 10
103.76409614377143
 20
124.03256177189769
 40
11.142118374963059
 50
229.78176151004649
 51
234.68428761990492
  0
ARC
  8
_0-0_0
  6
CONTINUOUS
 62
    4
 10
115.81609606516758
 20
135.86739446501235
 40
28.004611701523469
 50
224.44121603284057
 51
226.58632574073419
  0
ARC
  8
_0-0_0
  6
CONTINUOUS
 62
    4
 10
93.850021801497405
 20
114.37461969473235
 40
2.7274617421866871
 50
43.706714728931459
 51
59.489854203893649
  0
ARC
  8
_0-0_0
  6
CONTINUOUS
 62
    4
 10
94.535453150027478
 20
115.41729300736278
 40
1.4824330392877369
 50
61.854744859556419
 51
95.142001073961893
  0
ARC
  8
_0-0_0
  6
CONTINUOUS
 62
    4
 10
94.947270104943527
 20
112.47007709911235
 40
4.457089577885144
 50
97.019383477713503
 51
115.4987755247659
  0
ARC
  8
_0-0_0
  6
CONTINUOUS
 62
    4
 10
93.695482016936239
 20
114.87088846405379
 40
1.753893211339965
 50
112.3503900244989
 51
128.2042616417963
  0
ARC
  8
_0-0_0
  6
CONTINUOUS
 62
    4
 10
92.688656512626494
 20
116.15282108501742
 40
0.123859501501509
 50
128.97142684691868
 51
164.0771912078903
  0
ARC
  8
_0-0_0
  6
CONTINUOUS
 62
    4
 10
92.612545344805312
 20
116.18186819593222
 40
0.0432781459350293
 50
173.4553151478031
 51
249.76617071921299
  0
ARC
  8
_0-0_0
  6
CONTINUOUS
 62
    4
 10
92.73357456071335
 20
116.41823233247725
 40
0.3085586437955354
 50
243.84828962506009
 51
262.32011704879431
  0
ARC
  8
_0-0_0
  6
CONTINUOUS
 62
    4
 10
92.917039093583298
 20
117.48796062233066
 40
1.3937514505796149
 50
260.72231867220938
 51
266.77156950529587
  0
ARC
  8
_0-0_0
  6
CONTINUOUS
 62
    4
 10
93.530078151466568
 20
135.51507929738806
 40
19.43096754492728
 50
267.96046344698504
 51
269.75560712727883
  0
ARC
  8
_0-0_0
  6
CONTINUOUS
 62
    4
 10
93.406675403857207
 20
110.29167975526092
 40
5.7927504881802143
 50
82.657194603812001
 51
89.599205942088346
  0
ARC
  8
_0-0_0
  6
CONTINUOUS
 62
    4
 10
93.871304316437544
 20
113.71639559810773
 40
2.336852127724065
 50
59.937165975726109
 51
83.224085345029592
  0
ARC
  8
_0-0_0
  6
CONTINUOUS
 62
    4
 10
93.232424948106199
 20
112.84707696526152
 40
3.411295780601502
 50
47.015094042912167
 51
57.964090372061868
  0
ARC
  8
_0-0_0
  6
CONTINUOUS
 62
    4
 10
134.07135111979459
 20
155.09685197539124
 40
55.35035669893417
 50
225.9085560791612
 51
227.11731866624148
  0
ARC
  8
_0-0_0
  6
CONTINUOUS
 62
    4
 10
99.595848749339438
 20
118.04154918098595
 40
4.7377964054961365
 50
227.67078062981786
 51
244.74616786282058
  0
ARC
  8
_0-0_0
  6
CONTINUOUS
 62
    4
 10
98.51671877873332
 20
115.73643759568005
 40
2.1926163539180358
 50
244.55190470818652
 51
273.89761471024837
  0
ARC
  8
_0-0_0
  6
CONTINUOUS
 62
    4
 10
98.212661160690458
 20
118.02247529141914
 40
4.4964697896644416
 50
275.7833678215
 51
289.66786027828766
  0
ARC
  8
_0-0_0
  6
CONTINUOUS
 62
    4
 10
89.266981980117634
 20
144.36490388838785
 40
32.315914608227181
 50
288.88380042090511
 51
291.04624498550731
  0
ARC
  8
_0-0_0
  6
CONTINUOUS
 62
    4
 10
97.807698353730302
 20
122.46418940918317
 40
8.8096612833827201
 50
290.35710158296888
 51
294.86024052939967
  0
ARC
  8
_0-0_0
  6
CONTINUOUS
 62
    4
 10
101.31081504737221
 20
114.93585923687896
 40
0.5063855027146015
 50
293.3273220179858
 51
305.84721377446538
  0
ARC
  8
_0-0_0
  6
CONTINUOUS
 62
    4
 10
101.56556774861019
 20
114.59750559480391
 40
0.0833517507741103
 50
300.09835296040591
 51
324.37984840007692
  0
ARC
  8
_0-0_0
  6
CONTINUOUS
 62
    4
 10
101.61084335084842
 20
114.55715114634995
 40
0.0239262152863406
 50
339.9818892485444
 51
1.0957263432331401
  0
ARC
  8
_0-0_0
  6
CONTINUOUS
 62
    4
 10
101.60300662103827
 20
114.52334568462924
 40
0.0467178756474381
 50
47.172388177810276
 51
67.750196743067789
  0
ARC
  8
_0-0_0
  6
CONTINUOUS
 62
    4
 10
101.59168212285749
 20
114.4407983653781
 40
0.1290894964267791
 50
77.011301021123856
 51
88.436600381669123
  0
ARC
  8
_0-0_0
  6
CONTINUOUS
 62
    4
 10
97.143555249749624
 20
110.64260573787169
 40
0.6876937381222415
 50
88.517231902560226
 51
95.606734535654922
  0
ARC
  8
_0-0_0
  6
CONTINUOUS
 62
    4
 10
97.330260716154498
 20
108.45056090940295
 40
2.8876319293928451
 50
95.044205678943924
 51
97.525936769886314
  0
ARC
  8
_0-0_0
  6
CONTINUOUS
 62
    4
 10
98.923579245987639
 20
96.561398073449083
 40
14.88307937567588
 50
97.612209942121054
 51
98.93514100146433
  0
ARC
  8
_0-0_0
  6
CONTINUOUS
 62
    4
 10
74.468986315337588
 20
257.07837246812323
 40
147.4862111116665
 50
278.51660372352421
 51
278.63481524183794
  0
ARC
  8
_0-0_0
  6
CONTINUOUS
 62
    4
 10
94.921320306601501
 20
119.97269451519809
 40
8.8638331813100581
 50
273.65466542728609
 51
279.02079020938185
  0
ARC
  8
_0-0_0
  6
CONTINUOUS
 62
    4
 10
95.136154904216255
 20
116.9067455551642
 40
5.7904561612823846
 50
261.98579661625876
 51
273.4670006881397
  0
ARC
  8
_0-0_0
  6
CONTINUOUS
 62
    4
 10
96.08669095539426
 20
122.03653802944234
 40
11.00499324671172
 50
258.9284182859493
 51
260.80874536424482
  0
ARC
  8
_0-0_0
  6
CONTINUOUS
 62
    4
 10
94.512760503908339
 20
113.99303206297884
 40
2.80894265519815
 50
234.6859136401363
 51
258.92841828593077
  0
ARC
  8
_0-0_0
  6
CONTINUOUS
 62
    4
 10
99.330050987288359
 20
120.79318982363827
 40
11.14251530869587
 50
229.78338753025866
 51
234.68591364011706
  0
ARC
  8
_0-0_0
  6
CONTINUOUS
 62
    4
 10
111.38214437425722
 20
132.62878616421744
 40
28.005609355190941
 50
224.4428420530879
 51
226.58795176098161
  0
ARC
  8
_0-0_0
  6
CONTINUOUS
 62
    4
 10
89.415897560303619
 20
111.13462232427696
 40
2.727558906975676
 50
43.708340749156171
 51
59.491480224117879
  0
ARC
  8
_0-0_0
  6
CONTINUOUS
 62
    4
 10
90.101323735284495
 20
112.1773522341565
 40
1.482485850401864
 50
61.856370879771873
 51
95.143627094175556
  0
ARC
  8
_0-0_0
  6
CONTINUOUS
 62
    4
 10
90.51323900407533
 20
109.23004302118056
 40
4.4572483600107002
 50
97.021009497939274
 51
115.5004015449915
  0
ARC
  8
_0-0_0
  6
CONTINUOUS
 62
    4
 10
89.261338186068314
 20
111.63090438688118
 40
1.753955693120041
 50
112.35201604472339
 51
128.2058876620207
  0
ARC
  8
_0-0_0
  6
CONTINUOUS
 62
    4
 10
88.254440432603587
 20
112.91285410156388
 40
0.1238639139486056
 50
128.97305286719139
 51
164.07881722825081
  0
ARC
  8
_0-0_0
  6
CONTINUOUS
 62
    4
 10
88.178325729013522
 20
112.94190008719192
 40
0.043279687702619
 50
173.45694116781703
 51
249.76779673905869
  0
ARC
  8
_0-0_0
  6
CONTINUOUS
 62
    4
 10
88.299352548379374
 20
113.178276078885
 40
0.3085696360806656
 50
243.84991564537278
 51
262.32174306910519
  0
ARC
  8
_0-0_0
  6
CONTINUOUS
 62
    4
 10
88.482793257694538
 20
114.24804768377532
 40
1.393801102449953
 50
260.72394469246069
 51
266.77319552554752
  0
ARC
  8
_0-0_0
  6
CONTINUOUS
 62
    4
 10
89.095342537456417
 20
132.27582595913872
 40
19.43165976577557
 50
267.96208946721242
 51
269.75723314750621
  0
ARC
  8
_0-0_0
  6
CONTINUOUS
 62
    4
 10
88.972651244335338
 20
107.05152435091235
 40
5.7929568527132291
 50
82.658820624035143
 51
89.600831962311474
  0
ARC
  8
_0-0_0
  6
CONTINUOUS
 62
    4
 10
89.437199514091389
 20
110.47637538293997
 40
2.336935377194492
 50
59.938791995950865
 51
83.225711365255122
  0
ARC
  8
_0-0_0
  6
CONTINUOUS
 62
    4
 10
88.798322057808491
 20
109.60700764963598
 40
3.411417306717245
 50
47.016720063131693
 51
57.965716392281052
  0
ARC
  8
_0-0_0
  6
CONTINUOUS
 62
    4
 10
129.63750401802644
 20
151.85944680071554
 40
55.35232853436856
 50
225.9101820993817
 51
227.11894468646198
  0
ARC
  8
_0-0_0
  6
CONTINUOUS
 62
    4
 10
95.161825129744556
 20
114.80184551099375
 40
4.7379651876945407
 50
227.6724066500495
 51
244.74779388305347
  0
ARC
  8
_0-0_0
  6
CONTINUOUS
 62
    4
 10
94.082722136006395
 20
112.49662118173114
 40
2.1926944650429529
 50
244.55353072842547
 51
273.89924073048803
  0
ARC
  8
_0-0_0
  6
CONTINUOUS
 62
    4
 10
93.77858880744634
 20
114.78273168649366
 40
4.4966299746946472
 50
275.78499384170982
 51
289.66948629849741
  0
ARC
  8
_0-0_0
  6
CONTINUOUS
 62
    4
 10
84.831843334922268
 20
141.12584482975034
 40
32.31706585040883
 50
288.8854264411409
 51
291.0478710057431
  0
ARC
  8
_0-0_0
  6
CONTINUOUS
 62
    4
 10
93.373485516299297
 20
119.2245925438325
 40
8.8099751242207986
 50
290.35872760320467
 51
294.86186654963557
  0
ARC
  8
_0-0_0
  6
CONTINUOUS
 62
    4
 10
96.876940662887591
 20
111.69609360057279
 40
0.5064035425069044
 50
293.32894803814417
 51
305.84883979462438
  0
ARC
  8
_0-0_0
  6
CONTINUOUS
 62
    4
 10
97.131712042108574
 20
111.35773513490073
 40
0.0833547201484738
 50
300.09997898067092
 51
324.38147442031589
  0
ARC
  8
_0-0_0
  6
CONTINUOUS
 62
    4
 10
97.176990402531373
 20
111.31738053379092
 40
0.0239270676486828
 50
339.98351527072077
 51
1.097352365433216
  0
ARC
  8
_0-0_0
  6
CONTINUOUS
 62
    4
 10
97.16915435295823
 20
111.28357364536873
 40
0.0467195399530953
 50
47.17401419839696
 51
67.751822763769638
  0
ARC
  8
_0-0_0
  6
CONTINUOUS
 62
    4
 10
97.157831794077537
 20
111.20102306404044
 40
0.1290940951901898
 50
77.012927041139406
 51
88.438226401678818
  0
ARC
  8
_0-0_0
  6
CONTINUOUS
 62
    4
 10
130.75118997906747
 20
116.99516426916079
 40
40.739090315529509
 50
185.44470562876625
 51
187.78481713051615
  0
ARC
  8
_0-0_0
  6
CONTINUOUS
 62
    4
 10
92.432425913250426
 20
111.70954400501341
 40
2.0580532565680389
 50
186.48976298920939
 51
214.55147739481722
  0
ARC
  8
_0-0_0
  6
CONTINUOUS
 62
    4
 10
92.744780760482626
 20
112.15721372909558
 40
2.57633956374125
 50
218.8155002070639
 51
252.67787798150249
  0
ARC
  8
_0-0_0
  6
CONTINUOUS
 62
    4
 10
94.590840128735635
 20
118.02890665447716
 40
8.7313907048144603
 50
252.58551911485031
 51
262.62515128720428
  0
ARC
  8
_0-0_0
  6
CONTINUOUS
 62
    4
 10
97.164938835347584
 20
130.27763657313801
 40
21.23186092548206
 50
259.97810941839827
 51
264.56599341086899
  0
ARC
  8
_0-0_0
  6
CONTINUOUS
 62
    4
 10
95.88529729896436
 20
117.66689967139905
 40
8.5569873368242195
 50
265.09941562155597
 51
269.30732231198192
  0
ARC
  8
_0-0_0
  6
CONTINUOUS
 62
    4
 10
96.630355385095299
 20
318.51022935660876
 40
209.40141080215011
 50
269.76783391046649
 51
269.93515508651842
  0
ARC
  8
_0-0_0
  6
CONTINUOUS
 62
    4
 10
96.356716942223556
 20
101.20178352523521
 40
7.9072540599867702
 50
84.858912955000008
 51
89.734456244557094
  0
ARC
  8
_0-0_0
  6
CONTINUOUS
 62
    4
 10
96.434991241406351
 20
102.33580826302932
 40
6.770818721945492
 50
80.221593500580524
 51
84.658707106403909
  0
ARC
  8
_0-0_0
  6
CONTINUOUS
 62
    4
 10
99.041833795298316
 20
116.38138013032244
 40
7.515680350795411
 50
258.82256594217062
 51
262.60577415303623
  0
LINE
  8
_0-0_0
  6
CONTINUOUS
 62
    4
 10
98.074598372456421
 20
108.92819914686754
 11
98.248139739010639
 21
108.92114594094016
  0
ARC
  8
_0-0_0
  6
CONTINUOUS
 62
    4
 10
98.271711823787427
 20
109.11580490589904
 40
0.1960809930093702
 50
263.09542772007819
 51
321.2482533984247
  0
ARC
  8
_0-0_0
  6
CONTINUOUS
 62
    4
 10
98.060755957190394
 20
109.09371803933174
 40
0.3775362562247491
 50
344.5382169784408
 51
8.775370520283463
  0
ARC
  8
_0-0_0
  6
CONTINUOUS
 62
    4
 10
96.211972994928601
 20
108.52774593446997
 40
2.3077429535212941
 50
15.6766137999724
 51
27.55695406689978
  0
ARC
  8
_0-0_0
  6
CONTINUOUS
 62
    4
 10
100.98811518257252
 20
110.89181782305013
 40
3.0223834332617318
 50
201.49376001864908
 51
205.40071521746807
  0
ARC
  8
_0-0_0
  6
CONTINUOUS
 62
    4
 10
102.21612342182334
 20
111.45005450854671
 40
4.3700830062585307
 50
185.5876083412306
 51
202.40465823364954
  0
ARC
  8
_0-0_0
  6
CONTINUOUS
 62
    4
 10
90.912722803660471
 20
110.43356719146834
 40
6.9791488633982279
 50
4.8575271438357781
 51
8.738094555157728
  0
ARC
  8
_0-0_0
  6
CONTINUOUS
 62
    4
 10
120.1720913787135
 20
114.90079672339368
 40
22.619281167358199
 50
183.77370209521109
 51
188.66299904244038
  0
ARC
  8
_0-0_0
  6
CONTINUOUS
 62
    4
 10
107.43558322843819
 20
113.93218132415825
 40
9.8474734132164982
 50
174.81818735686709
 51
183.0274795808626
  0
ARC
  8
_0-0_0
  6
CONTINUOUS
 62
    4
 10
104.21921657461234
 20
114.30233166482889
 40
6.6112828766599092
 50
166.3064836535033
 51
175.49545128168199
  0
ARC
  8
_0-0_0
  6
CONTINUOUS
 62
    4
 10
99.260455503427237
 20
115.46163951997232
 40
1.519772387827422
 50
145.52068551318163
 51
164.5145628866243
  0
ARC
  8
_0-0_0
  6
CONTINUOUS
 62
    4
 10
98.810030826512502
 20
115.72420662613478
 40
1.000574810897697
 50
115.14831939781699
 51
143.3128157096259
  0
ARC
  8
_0-0_0
  6
CONTINUOUS
 62
    4
 10
109.78792668365531
 20
93.834819576697384
 40
25.488196678540358
 50
115.80018622652728
 51
116.57619810251958
  0
ARC
  8
_0-0_0
  6
CONTINUOUS
 62
    4
 10
98.270819986987589
 20
117.68998364472145
 40
1.0017496402857419
 50
295.02641740945597
 51
313.28964836516848
  0
ARC
  8
_0-0_0
  6
CONTINUOUS
 62
    4
 10
98.249340225856485
 20
117.57137669447672
 40
0.935184655268181
 50
319.24091280346681
 51
1.9622710225625079
  0
ARC
  8
_0-0_0
  6
CONTINUOUS
 62
    4
 10
97.504963108529409
 20
117.63532601289477
 40
1.6793169017247109
 50
358.91062298342217
 51
51.673831294086113
  0
ARC
  8
_0-0_0
  6
CONTINUOUS
 62
    4
 10
97.162757099695227
 20
116.99451092997458
 40
2.3977159283184787
 50
54.756349223321251
 51
82.715181722218005
  0
ARC
  8
_0-0_0
  6
CONTINUOUS
 62
    4
 10
96.112871619652196
 20
111.63197240525175
 40
7.8584118466178534
 50
80.079050533427491
 51
89.36209761706381
  0
ARC
  8
_0-0_0
  6
CONTINUOUS
 62
    4
 10
96.199315645097613
 20
118.01348759408415
 40
1.4764099894371089
 50
89.959416242833796
 51
115.96382476341288
  0
ARC
  8
_0-0_0
  6
CONTINUOUS
 62
    4
 10
96.570576851498572
 20
117.76769189832543
 40
1.873639128893259
 50
122.8973006640105
 51
140.7686721205691
  0
ARC
  8
_0-0_0
  6
CONTINUOUS
 62
    4
 10
92.434216543006186
 20
122.46063141215699
 40
4.4175976336177003
 50
302.05280340304898
 51
307.43102036123798
  0
ARC
  8
_0-0_0
  6
CONTINUOUS
 62
    4
 10
94.109406825215501
 20
119.95225900660557
 40
1.405376041980491
 50
272.56893875860248
 51
298.43710904993997
  0
ARC
  8
_0-0_0
  6
CONTINUOUS
 62
    4
 10
93.807492891081437
 20
125.13520750451607
 40
6.597012002023832
 50
266.82786985837049
 51
273.17085762524891
  0
ARC
  8
_0-0_0
  6
CONTINUOUS
 62
    4
 10
93.562967467646558
 20
120.14561097696889
 40
1.6018482404603779
 50
239.58052398467128
 51
265.68489126816569
  0
ARC
  8
_0-0_0
  6
CONTINUOUS
 62
    4
 10
93.499401377498543
 20
120.04365677359248
 40
1.481747107481131
 50
227.43335282599011
 51
239.70401046345421
  0
ARC
  8
_0-0_0
  6
CONTINUOUS
 62
    4
 10
144.9978971450655
 20
169.55631892020232
 40
72.918422797047753
 50
223.66321960697308
 51
223.94602310110039
  0
ARC
  8
_0-0_0
  6
CONTINUOUS
 62
    4
 10
91.484102527232607
 20
118.2673920514361
 40
1.2148892419217081
 50
51.043239685138168
 51
85.946766027220746
  0
ARC
  8
_0-0_0
  6
CONTINUOUS
 62
    4
 10
91.283667329984382
 20
115.82432730906282
 40
3.666112105504633
 50
85.520885553477796
 51
96.794837888818676
  0
ARC
  8
_0-0_0
  6
CONTINUOUS
 62
    4
 10
91.659951889512285
 20
110.54773209251266
 40
8.9536745650445421
 50
95.190645537158616
 51
99.840838467741932
  0
ARC
  8
_0-0_0
  6
CONTINUOUS
 62
    4
 10
90.625911357572476
 20
116.40382326322026
 40
3.0070718242136811
 50
99.498807772275696
 51
115.60561528226419
  0
ARC
  8
_0-0_0
  6
CONTINUOUS
 62
    4
 10
90.045399094099593
 20
117.68686664167103
 40
1.5994539304415369
 50
116.71609434929459
 51
139.95152107908239
  0
ARC
  8
_0-0_0
  6
CONTINUOUS
 62
    4
 10
90.088048265081397
 20
117.6586499478999
 40
1.6502678479379029
 50
140.15435400853269
 51
166.93515861609529
  0
ARC
  8
_0-0_0
  6
CONTINUOUS
 62
    4
 10
89.860156245953476
 20
117.65152083368548
 40
1.431080973374158
 50
164.59394534076258
 51
196.78754082429429
  0
ARC
  8
_0-0_0
  6
CONTINUOUS
 62
    4
 10
89.153754966210271
 20
117.45054059539165
 40
0.6968337653474421
 50
197.74223090173489
 51
238.28065668056871
  0
ARC
  8
_0-0_0
  6
CONTINUOUS
 62
    4
 10
79.857458793518617
 20
99.676413399466696
 40
19.36345416160092
 50
60.521492163600719
 51
62.537083639929633
  0
ARC
  8
_0-0_0
  6
CONTINUOUS
 62
    4
 10
88.712462011603292
 20
115.54364958097426
 40
1.1970133789598869
 50
25.048233346287727
 51
55.74939948859113
  0
ARC
  8
_0-0_0
  6
CONTINUOUS
 62
    4
 10
87.924912233151189
 20
115.1505876209444
 40
2.077034054787211
 50
11.678184829890209
 51
25.67337136474649
  0
ARC
  8
_0-0_0
  6
CONTINUOUS
 62
    4
 10
84.788529132471467
 20
114.49317770121956
 40
5.2815707201583936
 50
3.9173350236073445
 51
11.775301165816641
  0
ARC
  8
_0-0_0
  6
CONTINUOUS
 62
    4
 10
154.79002835081928
 20
119.17219563455569
 40
64.876138504543959
 50
183.816464286869
 51
185.34427475059064
  0
ARC
  8
_0-0_0
  6
CONTINUOUS
 62
    4
 10
75.581710365871458
 20
108.74719232890588
 40
1.2102132782954819
 50
157.44130365827558
 51
164.23173668766071
  0
ARC
  8
_0-0_0
  6
CONTINUOUS
 62
    4
 10
74.570544028606491
 20
109.04412921986128
 40
0.1567917161192398
 50
168.24780994881899
 51
178.92513637623682
  0
ARC
  8
_0-0_0
  6
CONTINUOUS
 62
    4
 10
74.445082377129438
 20
109.05492775037139
 40
0.0322735525570458
 50
194.09081634941529
 51
210.17770113442358
  0
ARC
  8
_0-0_0
  6
CONTINUOUS
 62
    4
 10
74.425079833820291
 20
109.06028723481817
 40
0.0229822249956707
 50
249.90284961896918
 51
277.06809467889257
  0
ARC
  8
_0-0_0
  6
CONTINUOUS
 62
    4
 10
74.415596853990336
 20
109.08016826300301
 40
0.044428318001163
 50
286.08697123372621
 51
311.96926353506438
  0
ARC
  8
_0-0_0
  6
CONTINUOUS
 62
    4
 10
73.828344271291371
 20
109.7682172439152
 40
0.949000673974914
 50
310.55056222769451
 51
321.73431694817202
  0
ARC
  8
_0-0_0
  6
CONTINUOUS
 62
    4
 10
65.427796699761529
 20
116.79507584096647
 40
11.900623752697269
 50
320.21955869080198
 51
323.22344832863859
  0
ARC
  8
_0-0_0
  6
CONTINUOUS
 62
    4
 10
124.39841322232223
 20
71.857483091610774
 40
62.241209858086172
 50
141.93463196695441
 51
142.58964960053899
  0
ARC
  8
_0-0_0
  6
CONTINUOUS
 62
    4
 10
136.10490663323935
 20
61.772260967083227
 40
77.679328841267036
 50
140.98196186463309
 51
141.40177362813912
  0
ARC
  8
_0-0_0
  6
CONTINUOUS
 62
    4
 10
67.000661965099425
 20
117.7830234619037
 40
11.273485108497009
 50
320.92187304650508
 51
323.65201989716632
  0
ARC
  8
_0-0_0
  6
CONTINUOUS
 62
    4
 10
74.314981471183273
 20
112.45326992308041
 40
2.223819459804496
 50
322.56074485377126
 51
341.18163932902075
  0
ARC
  8
_0-0_0
  6
CONTINUOUS
 62
    4
 10
75.550482074751471
 20
111.99616611681658
 40
0.9075560345166781
 50
343.33718917061827
 51
14.308162234806603
  0
ARC
  8
_0-0_0
  6
CONTINUOUS
 62
    4
 10
74.985685807571371
 20
111.79816864260412
 40
1.5046734245908899
 50
16.29906613334294
 51
38.803936931498611
  0
ARC
  8
_0-0_0
  6
CONTINUOUS
 62
    4
 10
73.903981341675262
 20
110.9746845096369
 40
2.8639103968614469
 50
38.081274676483012
 51
57.834630913105691
  0
ARC
  8
_0-0_0
  6
CONTINUOUS
 62
    4
 10
-220.35276504226658
 20
-345.12493044936456
 40
545.64718616953609
 50
57.175033278584635
 51
57.257398675236757
  0
ARC
  8
_0-0_0
  6
CONTINUOUS
 62
    4
 10
75.727289848680356
 20
115.2247174362149
 40
1.697259925756777
 50
216.97021764491302
 51
235.63177928084482
  0
ARC
  8
_0-0_0
  6
CONTINUOUS
 62
    4
 10
75.682339682458405
 20
115.03830639781135
 40
1.554027862739737
 50
181.45013470708437
 51
212.47124851204986
  0
ARC
  8
_0-0_0
  6
CONTINUOUS
 62
    4
 10
78.379075022423421
 20
115.22303676412984
 40
4.2561671434117327
 50
173.81042727736431
 51
183.01762499677667
  0
ARC
  8
_0-0_0
  6
CONTINUOUS
 62
    4
 10
90.234664988992335
 20
113.97554787851736
 40
16.177193163716438
 50
171.12320568254449
 51
173.94513585682051
  0
ARC
  8
_0-0_0
  6
CONTINUOUS
 62
    4
 10
68.847994184539402
 20
117.2801571048058
 40
5.463365737287849
 50
351.4918786863239
 51
357.2067630100808
  0
ARC
  8
_0-0_0
  6
CONTINUOUS
 62
    4
 10
73.268101485381521
 20
117.04577620675279
 40
1.0372567816457969
 50
358.23989389777557
 51
9.1573268700327261
  0
ARC
  8
_0-0_0
  6
CONTINUOUS
 62
    4
 10
74.008666812211231
 20
117.1632442008004
 40
0.2874415495894123
 50
9.5334837285747457
 51
28.51899548644868
  0
ARC
  8
_0-0_0
  6
CONTINUOUS
 62
    4
 10
74.162897916725341
 20
117.24775735188454
 40
0.1115759356376802
 50
28.200320103645225
 51
64.732509157934643
  0
ARC
  8
_0-0_0
  6
CONTINUOUS
 62
    4
 10
74.162531898597535
 20
117.22503580433651
 40
0.1326111034041166
 50
68.783225210412879
 51
103.39965989858609
  0
ARC
  8
_0-0_0
  6
CONTINUOUS
 62
    4
 10
74.28421118612232
 20
116.79735669856317
 40
0.577167120427349
 50
105.3115290884138
 51
128.88860948681369
  0
ARC
  8
_0-0_0
  6
CONTINUOUS
 62
    4
 10
76.22512728860056
 20
114.43558741693463
 40
3.6341239184630578
 50
129.33019738360229
 51
148.74933700041529
  0
ARC
  8
_0-0_0
  6
CONTINUOUS
 62
    4
 10
75.006906681733198
 20
115.0939378553849
 40
2.252181135800686
 50
146.9895021025855
 51
172.58930556797324
  0
ARC
  8
_0-0_0
  6
CONTINUOUS
 62
    4
 10
73.91718397933846
 20
115.244400908195
 40
1.1521864371455989
 50
173.01960795339348
 51
214.70539092523333
  0
ARC
  8
_0-0_0
  6
CONTINUOUS
 62
    4
 10
75.649674714555203
 20
116.66659635777845
 40
3.3911161405111531
 50
217.79490499596602
 51
233.2351795813941
  0
ARC
  8
_0-0_0
  6
CONTINUOUS
 62
    4
 10
71.037207818008482
 20
110.51836681057493
 40
4.2949594653038181
 50
36.213233345457759
 51
53.033320203844411
  0
ARC
  8
_0-0_0
  6
CONTINUOUS
 62
    4
 10
66.935567336875465
 20
107.81162704879299
 40
9.2064931820426441
 50
28.838753946224972
 51
34.723466011892604
  0
ARC
  8
_0-0_0
  6
CONTINUOUS
 62
    4
 10
74.12429639766151
 20
111.76999853685792
 40
1.00000000000023
 50
358.58743946965739
 51
28.83875394621317
  0
ARC
  8
_0-0_0
  6
CONTINUOUS
 62
    4
 10
63.535894780719445
 20
112.03109611443714
 40
11.591620307897459
 50
357.21621138529957
 51
358.58743946968309
  0
ARC
  8
_0-0_0
  6
CONTINUOUS
 62
    4
 10
70.302084701243529
 20
111.71686319678694
 40
4.8181762230673328
 50
350.0600279404972
 51
357.0407797609937
  0
ARC
  8
_0-0_0
  6
CONTINUOUS
 62
    4
 10
70.152635568125333
 20
111.79078286206201
 40
4.9783637214890683
 50
343.77864965156641
 51
349.51895259858059
  0
ARC
  8
_0-0_0
  6
CONTINUOUS
 62
    4
 10
70.149340639106412
 20
111.82316300177971
 40
4.9906640333333696
 50
339.75606740648709
 51
343.43227071732019
  0
ARC
  8
_0-0_0
  6
CONTINUOUS
 62
    4
 10
66.023956100078521
 20
113.39885975640656
 40
9.4065719727200161
 50
336.67951270809379
 51
339.44599128542768
  0
ARC
  8
_0-0_0
  6
CONTINUOUS
 62
    4
 10
119.38992327989535
 20
90.300700702423782
 40
48.743688539814257
 50
156.57964700145629
 51
157.17216682207219
  0
ARC
  8
_0-0_0
  6
CONTINUOUS
 62
    4
 10
68.27675188522835
 20
108.74647237816581
 40
1.210213278295062
 50
157.4413036582674
 51
164.2317366876548
  0
ARC
  8
_0-0_0
  6
CONTINUOUS
 62
    4
 10
67.265585547964292
 20
109.04340926912134
 40
0.1567917161192398
 50
168.24780994881899
 51
178.92513637623682
  0
ARC
  8
_0-0_0
  6
CONTINUOUS
 62
    4
 10
67.140123896488603
 20
109.05420779963132
 40
0.0322735525574869
 50
194.09081634921867
 51
210.17770113401778
  0
ARC
  8
_0-0_0
  6
CONTINUOUS
 62
    4
 10
67.120121353178546
 20
109.05956728407811
 40
0.0229822249956707
 50
249.90284961896918
 51
277.06809467889257
  0
ARC
  8
_0-0_0
  6
CONTINUOUS
 62
    4
 10
67.110638373348592
 20
109.07944831226318
 40
0.0444283180012891
 50
286.0869712342897
 51
311.96926353550037
  0
ARC
  8
_0-0_0
  6
CONTINUOUS
 62
    4
 10
66.523385790650536
 20
109.76749729317513
 40
0.9490006739746185
 50
310.5505622276737
 51
321.73431694815502
  0
ARC
  8
_0-0_0
  6
CONTINUOUS
 62
    4
 10
58.12283821911933
 20
116.79435589022641
 40
11.900623752697269
 50
320.21955869080198
 51
323.22344832863859
  0
ARC
  8
_0-0_0
  6
CONTINUOUS
 62
    4
 10
117.09345474168048
 20
71.856763140870768
 40
62.241209858085817
 50
141.93463196695421
 51
142.58964960053879
  0
ARC
  8
_0-0_0
  6
CONTINUOUS
 62
    4
 10
128.7999481525976
 20
61.771541016343277
 40
77.679328841266695
 50
140.98196186463283
 51
141.40177362813889
  0
ARC
  8
_0-0_0
  6
CONTINUOUS
 62
    4
 10
59.695703484457226
 20
117.78230351116387
 40
11.273485108497359
 50
320.92187304650661
 51
323.65201989716757
  0
ARC
  8
_0-0_0
  6
CONTINUOUS
 62
    4
 10
67.010022990541528
 20
112.45254997234057
 40
2.223819459804496
 50
322.56074485377126
 51
341.18163932902075
  0
ARC
  8
_0-0_0
  6
CONTINUOUS
 62
    4
 10
68.245523594110636
 20
111.99544616607651
 40
0.9075560345166781
 50
343.33718917061827
 51
14.308162234806603
  0
ARC
  8
_0-0_0
  6
CONTINUOUS
 62
    4
 10
67.680727326930536
 20
111.79744869186417
 40
1.5046734245908899
 50
16.29906613334294
 51
38.803936931498611
  0
ARC
  8
_0-0_0
  6
CONTINUOUS
 62
    4
 10
66.599022861033517
 20
110.97396455889695
 40
2.8639103968614469
 50
38.081274676483012
 51
57.834630913105691
  0
ARC
  8
_0-0_0
  6
CONTINUOUS
 62
    4
 10
-227.65772352290741
 20
-345.12565040010451
 40
545.64718616953609
 50
57.175033278584635
 51
57.257398675236757
  0
ARC
  8
_0-0_0
  6
CONTINUOUS
 62
    4
 10
68.422331368039522
 20
115.22399748547483
 40
1.697259925756777
 50
216.97021764491302
 51
235.63177928084482
  0
ARC
  8
_0-0_0
  6
CONTINUOUS
 62
    4
 10
68.377381201815296
 20
115.0375864470714
 40
1.5540278627393528
 50
181.45013470708479
 51
212.47124851205887
  0
ARC
  8
_0-0_0
  6
CONTINUOUS
 62
    4
 10
71.074116541781222
 20
115.22231681338989
 40
4.2561671434117327
 50
173.81042727736431
 51
183.01762499677667
  0
ARC
  8
_0-0_0
  6
CONTINUOUS
 62
    4
 10
82.929706508350591
 20
113.97482792777729
 40
16.177193163716889
 50
171.12320568254469
 51
173.94513585682071
  0
ARC
  8
_0-0_0
  6
CONTINUOUS
 62
    4
 10
61.543035703897203
 20
117.27943715406597
 40
5.463365737287849
 50
351.4918786863239
 51
357.2067630100808
  0
ARC
  8
_0-0_0
  6
CONTINUOUS
 62
    4
 10
65.963143004739322
 20
117.04505625601284
 40
1.0372567816457969
 50
358.23989389777557
 51
9.1573268700327261
  0
ARC
  8
_0-0_0
  6
CONTINUOUS
 62
    4
 10
66.703708331570396
 20
117.16252425006057
 40
0.2874415495889637
 50
9.5334837285897577
 51
28.518995486491959
  0
ARC
  8
_0-0_0
  6
CONTINUOUS
 62
    4
 10
66.857939436082233
 20
117.2470374011447
 40
0.111575935638081
 50
28.200320103534881
 51
64.73250915772347
  0
ARC
  8
_0-0_0
  6
CONTINUOUS
 62
    4
 10
66.857573417955336
 20
117.22431585359667
 40
0.1326111034041166
 50
68.783225210412879
 51
103.39965989858609
  0
ARC
  8
_0-0_0
  6
CONTINUOUS
 62
    4
 10
66.979252705480575
 20
116.79663674782311
 40
0.577167120427349
 50
105.3115290884138
 51
128.88860948681369
  0
ARC
  8
_0-0_0
  6
CONTINUOUS
 62
    4
 10
68.920168807958361
 20
114.43486746619468
 40
3.6341239184630578
 50
129.33019738360229
 51
148.74933700041529
  0
ARC
  8
_0-0_0
  6
CONTINUOUS
 62
    4
 10
67.701948201091454
 20
115.09321790464495
 40
2.252181135800686
 50
146.9895021025855
 51
172.58930556797324
  0
ARC
  8
_0-0_0
  6
CONTINUOUS
 62
    4
 10
66.612225498696261
 20
115.24368095745505
 40
1.152186437146051
 50
173.0196079533963
 51
214.70539092522051
  0
ARC
  8
_0-0_0
  6
CONTINUOUS
 62
    4
 10
68.344716233914368
 20
116.66587640703851
 40
3.391116140511512
 50
217.79490499596127
 51
233.23517958138788
  0
ARC
  8
_0-0_0
  6
CONTINUOUS
 62
    4
 10
63.732249337366283
 20
110.51764685983509
 40
4.2949594653035436
 50
36.213233345461347
 51
53.03332020384925
  0
ARC
  8
_0-0_0
  6
CONTINUOUS
 62
    4
 10
59.630608856233266
 20
107.81090709805316
 40
9.2064931820430171
 50
28.838753946223604
 51
34.723466011890977
  0
ARC
  8
_0-0_0
  6
CONTINUOUS
 62
    4
 10
66.819337917019311
 20
111.76927858611809
 40
0.9999999999998322
 50
358.58743946965677
 51
28.838753946225697
  0
ARC
  8
_0-0_0
  6
CONTINUOUS
 62
    4
 10
56.23093630007861
 20
112.03037616369719
 40
11.591620307897459
 50
357.21621138529957
 51
358.58743946968309
  0
ARC
  8
_0-0_0
  6
CONTINUOUS
 62
    4
 10
62.99712622060133
 20
111.71614324604711
 40
4.8181762230668789
 50
350.06002794049629
 51
357.04077976099341
  0
ARC
  8
_0-0_0
  6
CONTINUOUS
 62
    4
 10
62.847677087483589
 20
111.79006291132206
 40
4.9783637214890683
 50
343.77864965156641
 51
349.51895259858059
  0
ARC
  8
_0-0_0
  6
CONTINUOUS
 62
    4
 10
62.844382158464213
 20
111.82244305103988
 40
4.9906640333338057
 50
339.7560674064889
 51
343.43227071732172
  0
ARC
  8
_0-0_0
  6
CONTINUOUS
 62
    4
 10
58.718997619436322
 20
113.3981398056665
 40
9.4065719727200161
 50
336.67951270809379
 51
339.44599128542768
  0
ARC
  8
_0-0_0
  6
CONTINUOUS
 62
    4
 10
112.08496479925361
 20
90.299980751683776
 40
48.743688539814257
 50
156.57964700145629
 51
157.17216682207219
  0
ARC
  8
_0-0_0
  6
CONTINUOUS
 62
    4
 10
70.936419225665304
 20
107.96952983998021
 40
0.0631433641544005
 50
283.39605508725452
 51
305.14249453777182
  0
ARC
  8
_0-0_0
  6
CONTINUOUS
 62
    4
 10
70.071060165984363
 20
108.9659588727715
 40
1.3825728945956539
 50
310.70719139500397
 51
320.43965653433656
  0
ARC
  8
_0-0_0
  6
CONTINUOUS
 62
    4
 10
54.719800353231221
 20
121.71964579105262
 40
21.340466289004179
 50
320.29081692258688
 51
322.40855436286227
  0
ARC
  8
_0-0_0
  6
CONTINUOUS
 62
    4
 10
117.1912318282616
 20
73.403393217976358
 40
57.635171933729317
 50
141.3657906086787
 51
142.23397234077089
  0
ARC
  8
_0-0_0
  6
CONTINUOUS
 62
    4
 10
-29.819194266777685
 20
191.6427962516613
 40
131.02528574951298
 50
321.11344543100591
 51
321.40122557502991
  0
ARC
  8
_0-0_0
  6
CONTINUOUS
 62
    4
 10
67.400578347791451
 20
114.04804334655675
 40
6.6362657059832441
 50
321.32452461218707
 51
327.4935511807306
  0
ARC
  8
_0-0_0
  6
CONTINUOUS
 62
    4
 10
71.327823366598295
 20
111.56702952893287
 40
1.99109796921762
 50
326.97085091919558
 51
344.14678320315238
  0
ARC
  8
_0-0_0
  6
CONTINUOUS
 62
    4
 10
72.057431076432294
 20
111.3373075453798
 40
1.2266785872130139
 50
345.15921870564778
 51
23.003991486222691
  0
ARC
  8
_0-0_0
  6
CONTINUOUS
 62
    4
 10
70.54355140762027
 20
110.69005675464011
 40
2.87311651160145
 50
23.087007892500984
 51
42.450384203317071
  0
ARC
  8
_0-0_0
  6
CONTINUOUS
 62
    4
 10
69.594650035524409
 20
109.85001752921895
 40
4.1403119956355212
 50
42.164904025294021
 51
53.44008638728166
  0
ARC
  8
_0-0_0
  6
CONTINUOUS
 62
    4
 10
212.17233690202147
 20
303.37904267308562
 40
236.23832755013
 50
233.43517322157339
 51
233.6231470630035
  0
ARC
  8
_0-0_0
  6
CONTINUOUS
 62
    4
 10
72.836056782737614
 20
115.58263853749183
 40
2.3965889500627328
 50
213.54849095784609
 51
234.3022245880702
  0
ARC
  8
_0-0_0
  6
CONTINUOUS
 62
    4
 10
72.717485041200234
 20
115.3262999827787
 40
2.161186551375466
 50
181.85502600319813
 51
209.61884181457503
  0
ARC
  8
_0-0_0
  6
CONTINUOUS
 62
    4
 10
76.437041829136433
 20
115.52305124486535
 40
5.8856568661786337
 50
173.30378731642548
 51
182.59726467156156
  0
ARC
  8
_0-0_0
  6
CONTINUOUS
 62
    4
 10
105.55055813480339
 20
111.9177142843968
 40
35.221462764023726
 50
171.18959095063218
 51
173.00128173341786
  0
ARC
  8
_0-0_0
  6
CONTINUOUS
 62
    4
 10
65.331108183253491
 20
118.10755020229855
 40
5.4716615105451911
 50
351.64434034621751
 51
357.40532059758157
  0
ARC
  8
_0-0_0
  6
CONTINUOUS
 62
    4
 10
69.397944137699596
 20
117.90404752184262
 40
1.3999138542055808
 50
358.1906518214314
 51
8.244721371005129
  0
ARC
  8
_0-0_0
  6
CONTINUOUS
 62
    4
 10
70.404906566611316
 20
118.04565058877282
 40
0.3830763887883918
 50
8.8819406497727921
 51
26.76492773641258
  0
ARC
  8
_0-0_0
  6
CONTINUOUS
 62
    4
 10
70.61423520437529
 20
118.151777167583
 40
0.1483835862098654
 50
26.576046614061439
 51
65.207925887480044
  0
ARC
  8
_0-0_0
  6
CONTINUOUS
 62
    4
 10
70.62033612040841
 20
118.13719661868906
 40
0.1594883061921907
 50
69.397840905094554
 51
100.3701246936463
  0
ARC
  8
_0-0_0
  6
CONTINUOUS
 62
    4
 10
70.738608382581332
 20
117.65368786848743
 40
0.6570427928919874
 50
102.92650642828159
 51
127.88545559992849
  0
ARC
  8
_0-0_0
  6
CONTINUOUS
 62
    4
 10
73.091583007921599
 20
114.7155569848558
 40
4.4211746123667889
 50
128.56972763364629
 51
148.1591845648125
  0
ARC
  8
_0-0_0
  6
CONTINUOUS
 62
    4
 10
71.579806485873632
 20
115.52184768022247
 40
2.7138638094231621
 50
145.78133098143729
 51
172.27589908745281
  0
ARC
  8
_0-0_0
  6
CONTINUOUS
 62
    4
 10
70.340695334595238
 20
115.67949585527689
 40
1.464843400675194
 50
171.8721426914829
 51
212.6379111190356
  0
ARC
  8
_0-0_0
  6
CONTINUOUS
 62
    4
 10
72.446765526306535
 20
117.37831653440939
 40
4.1650172835525651
 50
216.69541591672128
 51
233.5144801134175
  0
ARC
  8
_0-0_0
  6
CONTINUOUS
 62
    4
 10
66.713284414910503
 20
109.7506289343144
 40
5.3774502599753501
 50
36.112089538431987
 51
52.724003235871577
  0
ARC
  8
_0-0_0
  6
CONTINUOUS
 62
    4
 10
61.436582658443512
 20
106.28721066589814
 40
11.685703789984479
 50
31.80957509464936
 51
34.582461481267252
  0
ARC
  8
_0-0_0
  6
CONTINUOUS
 62
    4
 10
41.267238703386283
 20
94.885235260820181
 40
34.848389573153802
 50
29.148780762477095
 51
30.260987615181782
  0
ARC
  8
_0-0_0
  6
CONTINUOUS
 62
    4
 10
70.828995372438384
 20
111.37207908660199
 40
1.000000000000246
 50
359.15540616694687
 51
29.148780762428131
  0
ARC
  8
_0-0_0
  6
CONTINUOUS
 62
    4
 10
57.965029211070486
 20
111.56171981769982
 40
13.86536392830445
 50
357.50524132336931
 51
359.1554061669608
  0
ARC
  8
_0-0_0
  6
CONTINUOUS
 62
    4
 10
66.005657971917571
 20
111.23036781232296
 40
5.8179638015845931
 50
350.19255360414729
 51
357.31857550730694
  0
ARC
  8
_0-0_0
  6
CONTINUOUS
 62
    4
 10
65.738923216330476
 20
111.33553532077637
 40
6.0989920642021111
 50
343.84238024042008
 51
349.64583804480707
  0
ARC
  8
_0-0_0
  6
CONTINUOUS
 62
    4
 10
65.64382218111541
 20
111.40250706640408
 40
6.209088970573803
 50
339.50040149878998
 51
343.49300190487878
  0
ARC
  8
_0-0_0
  6
CONTINUOUS
 62
    4
 10
60.709477982543376
 20
113.3013980504367
 40
11.496068735714729
 50
336.57898399291417
 51
339.24805523760278
  0
ARC
  8
_0-0_0
  6
CONTINUOUS
 62
    4
 10
115.90288801193446
 20
89.171666230412128
 40
48.741512561234436
 50
156.34020139563691
 51
157.09731997860541
  0
ARC
  8
_0-0_0
  6
CONTINUOUS
 62
    4
 10
72.564091555958384
 20
107.48534028604028
 40
1.692160897754702
 50
157.23021362704486
 51
163.61206829053006
  0
ARC
  8
_0-0_0
  6
CONTINUOUS
 62
    4
 10
71.028737144871229
 20
107.93040540086796
 40
0.0938173919134402
 50
159.8226764320874
 51
189.86228032033761
  0
ARC
  8
_0-0_0
  6
CONTINUOUS
 62
    4
 10
70.952623732592201
 20
107.93238448141691
 40
0.024331045944837
 50
227.88288035340372
 51
266.2875986288156
  0
ARC
  8
_0-0_0
  6
CONTINUOUS
 62
    4
 10
136.47195342965733
 20
115.30178367892624
 40
2.5026027369977819
 50
131.63669045238509
 51
134.84192996452659
  0
LINE
  8
_0-0_0
  6
CONTINUOUS
 62
    4
 10
134.70723486007136
 20
117.07626637238529
 11
134.67337218711327
 21
117.04020823023863
  0
LINE
  8
_0-0_0
  6
CONTINUOUS
 62
    4
 10
134.67337218711327
 20
117.04020823023863
 11
134.65263265117255
 21
117.01339099681767
  0
ARC
  8
_0-0_0
  6
CONTINUOUS
 62
    4
 10
134.67632556503031
 20
116.9948356747182
 40
0.0300940882122958
 50
141.93340378431614
 51
176.25594307103611
  0
ARC
  8
_0-0_0
  6
CONTINUOUS
 62
    4
 10
134.65263314569256
 20
116.99790851943264
 40
0.006433518520578
 50
189.9144920972736
 51
273.73869057424377
  0
ARC
  8
_0-0_0
  6
CONTINUOUS
 62
    4
 10
134.64964665885827
 20
117.07453365088626
 40
0.0831147752870189
 50
272.34860312928469
 51
292.29784241550282
  0
LINE
  8
_0-0_0
  6
CONTINUOUS
 62
    4
 10
134.68118217649862
 20
116.99763386546321
 11
134.72154894633831
 21
117.01429671618136
  0
ARC
  8
_0-0_0
  6
CONTINUOUS
 62
    4
 10
133.68075975454121
 20
119.24681851571919
 40
2.4632084213830491
 50
294.9946702213781
 51
298.07670587020379
  0
ARC
  8
_0-0_0
  6
CONTINUOUS
 62
    4
 10
119.64765013461237
 20
145.64505501459262
 40
32.359611495526642
 50
298.0010210737854
 51
298.49797796252124
  0
ARC
  8
_0-0_0
  6
CONTINUOUS
 62
    4
 10
139.08212852022234
 20
109.92559328148028
 40
8.3046751917602712
 50
114.27343463200739
 51
118.75278901400687
  0
ARC
  8
_0-0_0
  6
CONTINUOUS
 62
    4
 10
137.51657203205832
 20
113.09235594591375
 40
4.7759306011815558
 50
99.36542973810468
 51
112.769803071938
  0
ARC
  8
_0-0_0
  6
CONTINUOUS
 62
    4
 10
137.06484298672648
 20
115.8312848555751
 40
2.000000000000131
 50
73.136777601463293
 51
99.365429738079583
  0
ARC
  8
_0-0_0
  6
CONTINUOUS
 62
    4
 10
118.15913325596557
 20
53.461362068707828
 40
67.172334075615196
 50
72.639971074905133
 51
73.13677760145623
  0
ARC
  8
_0-0_0
  6
CONTINUOUS
 62
    4
 10
134.72578735010847
 20
106.5560013555435
 40
11.55318733715312
 50
64.886696236586303
 51
72.490734885889466
  0
LINE
  8
_0-0_0
  6
CONTINUOUS
 62
    4
 10
139.62907188368262
 20
117.01706910363513
 11
140.38924783962829
 21
116.62588346990996
  0
ARC
  8
_0-0_0
  6
CONTINUOUS
 62
    4
 10
145.13783141295061
 20
125.46559342018467
 40
10.03441667252302
 50
241.75585428659917
 51
246.59588918123597
  0
ARC
  8
_0-0_0
  6
CONTINUOUS
 62
    4
 10
142.28058620061256
 20
118.84190007635451
 40
2.8207570685616949
 50
246.41605704105083
 51
264.99238924054657
  0
ARC
  8
_0-0_0
  6
CONTINUOUS
 62
    4
 10
142.0823341512123
 20
118.18654890461634
 40
2.1551732290678469
 50
268.72469713293571
 51
298.58086695349692
  0
ARC
  8
_0-0_0
  6
CONTINUOUS
 62
    4
 10
140.3638254864245
 20
121.56671638840821
 40
5.9465554065683781
 50
297.54049074727981
 51
309.51786904886512
  0
ARC
  8
_0-0_0
  6
CONTINUOUS
 62
    4
 10
142.53490022142659
 20
119.01298402806507
 40
2.595522164831582
 50
308.41768204555967
 51
314.7641434633756
  0
ARC
  8
_0-0_0
  6
CONTINUOUS
 62
    4
 10
143.9310455630416
 20
117.61721657737329
 40
0.6214162163903728
 50
313.99019116255607
 51
325.58004776492578
  0
ARC
  8
_0-0_0
  6
CONTINUOUS
 62
    4
 10
144.34274056985441
 20
117.3342429951155
 40
0.1218522032585735
 50
325.91731196022607
 51
343.93703642163069
  0
ARC
  8
_0-0_0
  6
CONTINUOUS
 62
    4
 10
144.43239606377119
 20
117.30968004277308
 40
0.0289256419706162
 50
341.5532036604988
 51
30.701145383015958
  0
ARC
  8
_0-0_0
  6
CONTINUOUS
 62
    4
 10
144.4296785452816
 20
117.29944441475656
 40
0.0372336998230115
 50
42.186009561085413
 51
83.203304437346631
  0
ARC
  8
_0-0_0
  6
CONTINUOUS
 62
    4
 10
144.41291129452156
 20
117.16742581527789
 40
0.1703119527950147
 50
82.858323717311051
 51
97.712807818995457
  0
ARC
  8
_0-0_0
  6
CONTINUOUS
 62
    4
 10
144.46154221820142
 20
116.73055605104109
 40
0.6098454723841671
 50
96.731878384412013
 51
102.6381009045281
  0
ARC
  8
_0-0_0
  6
CONTINUOUS
 62
    4
 10
144.8492186432345
 20
115.04453299849801
 40
2.3398581137287628
 50
102.86815478888129
 51
107.036076067967
  0
ARC
  8
_0-0_0
  6
CONTINUOUS
 62
    4
 10
172.25502312788421
 20
24.850036475284966
 40
96.606098813053733
 50
106.90478331637568
 51
107.11669947398628
  0
ARC
  8
_0-0_0
  6
CONTINUOUS
 62
    4
 10
142.59817949855141
 20
121.29530672343132
 40
4.2961259446991153
 50
279.50407347204298
 51
286.55116934585862
  0
ARC
  8
_0-0_0
  6
CONTINUOUS
 62
    4
 10
142.91553723143852
 20
119.38086923254677
 40
2.3555669419525608
 50
256.87901190128519
 51
279.57962070610267
  0
ARC
  8
_0-0_0
  6
CONTINUOUS
 62
    4
 10
143.42724731298721
 20
121.15945873539219
 40
4.204949089387834
 50
242.58716471377249
 51
255.5899487244464
  0
ARC
  8
_0-0_0
  6
CONTINUOUS
 62
    4
 10
152.47531193344048
 20
139.13068064363989
 40
24.325142404739768
 50
240.71100998639099
 51
243.15682742983059
  0
ARC
  8
_0-0_0
  6
CONTINUOUS
 62
    4
 10
136.21928930619742
 20
110.0601323933685
 40
8.9819176859037561
 50
60.990654768595312
 51
68.993270555960279
  0
ARC
  8
_0-0_0
  6
CONTINUOUS
 62
    4
 10
137.2932204883923
 20
113.03264284300159
 40
5.822326073556221
 50
68.373072947236934
 51
78.53007863929929
  0
ARC
  8
_0-0_0
  6
CONTINUOUS
 62
    4
 10
137.79502013791852
 20
115.5680135656318
 40
3.2378277495876308
 50
78.310846339479894
 51
93.089272478135598
  0
ARC
  8
_0-0_0
  6
CONTINUOUS
 62
    4
 10
137.79048977884531
 20
116.43661084789543
 40
2.3706257601565718
 50
94.111352398591051
 51
110.10857940321089
  0
ARC
  8
_0-0_0
  6
CONTINUOUS
 62
    4
 10
138.23494518224242
 20
115.39874448379229
 40
3.498554490615644
 50
111.10015489677809
 51
121.5065781364387
  0
ARC
  8
_0-0_0
  6
CONTINUOUS
 62
    4
 10
140.59460984965244
 20
111.58920163661871
 40
7.9796750672528622
 50
121.6570018321339
 51
127.282628133353
  0
LINE
  8
_0-0_0
  6
CONTINUOUS
 62
    4
 10
135.76094411791927
 20
117.93828737968549
 11
135.20424724143958
 21
117.50458344727205
  0
ARC
  8
_0-0_0
  6
CONTINUOUS
 62
    4
 10
142.12232118960537
 20
108.88253655576549
 40
11.054385543829839
 50
128.74252080011098
 51
131.41874931821627
  0
ARC
  8
_0-0_0
  6
CONTINUOUS
 62
    4
 10
136.47195833834257
 20
111.96548783939276
 40
2.5026027369977819
 50
131.63669045238509
 51
134.84192996452659
  0
LINE
  8
_0-0_0
  6
CONTINUOUS
 62
    4
 10
134.70723976875524
 20
113.7399705328517
 11
134.6733770957976
 21
113.70391239070526
  0
LINE
  8
_0-0_0
  6
CONTINUOUS
 62
    4
 10
134.6733770957976
 20
113.70391239070526
 11
134.65263755985552
 21
113.67709515728419
  0
ARC
  8
_0-0_0
  6
CONTINUOUS
 62
    4
 10
134.67633047371418
 20
113.65853983518472
 40
0.0300940882122958
 50
141.93340378431614
 51
176.25594307103611
  0
ARC
  8
_0-0_0
  6
CONTINUOUS
 62
    4
 10
134.65263805437643
 20
113.66161267989916
 40
0.006433518520578
 50
189.9144920972736
 51
273.73869057424377
  0
ARC
  8
_0-0_0
  6
CONTINUOUS
 62
    4
 10
134.64965156754124
 20
113.7382378113529
 40
0.0831147752870189
 50
272.34860312928469
 51
292.29784241550282
  0
LINE
  8
_0-0_0
  6
CONTINUOUS
 62
    4
 10
134.68118708518341
 20
113.66133802592973
 11
134.72155385502219
 21
113.67800087664788
  0
ARC
  8
_0-0_0
  6
CONTINUOUS
 62
    4
 10
133.68076466322554
 20
115.9105226761856
 40
2.4632084213830491
 50
294.9946702213781
 51
298.07670587020379
  0
ARC
  8
_0-0_0
  6
CONTINUOUS
 62
    4
 10
119.64765504329534
 20
142.30875917505915
 40
32.359611495526642
 50
298.0010210737854
 51
298.49797796252124
  0
ARC
  8
_0-0_0
  6
CONTINUOUS
 62
    4
 10
139.08213342890758
 20
106.58929744194669
 40
8.3046751917602712
 50
114.27343463200739
 51
118.75278901400687
  0
ARC
  8
_0-0_0
  6
CONTINUOUS
 62
    4
 10
137.51657694074128
 20
109.75606010638027
 40
4.7759306011815558
 50
99.36542973810468
 51
112.769803071938
  0
ARC
  8
_0-0_0
  6
CONTINUOUS
 62
    4
 10
137.06484789541036
 20
112.49498901604162
 40
2.000000000000131
 50
73.136777601463293
 51
99.365429738079583
  0
ARC
  8
_0-0_0
  6
CONTINUOUS
 62
    4
 10
118.15913816464944
 20
50.12506622917435
 40
67.172334075615196
 50
72.639971074905133
 51
73.13677760145623
  0
ARC
  8
_0-0_0
  6
CONTINUOUS
 62
    4
 10
134.72579225879235
 20
103.21970551601002
 40
11.55318733715312
 50
64.886696236586303
 51
72.490734885889466
  0
LINE
  8
_0-0_0
  6
CONTINUOUS
 62
    4
 10
139.62907679236741
 20
113.68077326410177
 11
140.38925274831262
 21
113.28958763037648
  0
ARC
  8
_0-0_0
  6
CONTINUOUS
 62
    4
 10
145.13783632163449
 20
122.12929758065119
 40
10.03441667252302
 50
241.75585428659917
 51
246.59588918123597
  0
ARC
  8
_0-0_0
  6
CONTINUOUS
 62
    4
 10
142.28059110929643
 20
115.50560423682115
 40
2.8207570685616949
 50
246.41605704105083
 51
264.99238924054657
  0
ARC
  8
_0-0_0
  6
CONTINUOUS
 62
    4
 10
142.08233905989754
 20
114.85025306508286
 40
2.1551732290678469
 50
268.72469713293571
 51
298.58086695349692
  0
ARC
  8
_0-0_0
  6
CONTINUOUS
 62
    4
 10
140.36383039510837
 20
118.23042054887461
 40
5.9465554065683781
 50
297.54049074727981
 51
309.51786904886512
  0
ARC
  8
_0-0_0
  6
CONTINUOUS
 62
    4
 10
142.53490513011047
 20
115.67668818853159
 40
2.595522164831582
 50
308.41768204555967
 51
314.7641434633756
  0
ARC
  8
_0-0_0
  6
CONTINUOUS
 62
    4
 10
143.93105047172548
 20
114.2809207378397
 40
0.6214162163903728
 50
313.99019116255607
 51
325.58004776492578
  0
ARC
  8
_0-0_0
  6
CONTINUOUS
 62
    4
 10
144.3427454785392
 20
113.99794715558202
 40
0.1218522032585735
 50
325.91731196022607
 51
343.93703642163069
  0
ARC
  8
_0-0_0
  6
CONTINUOUS
 62
    4
 10
144.43240097245552
 20
113.9733842032396
 40
0.0289256419706162
 50
341.5532036604988
 51
30.701145383015958
  0
ARC
  8
_0-0_0
  6
CONTINUOUS
 62
    4
 10
144.42968345396548
 20
113.96314857522308
 40
0.0372336998230115
 50
42.186009561085413
 51
83.203304437346631
  0
ARC
  8
_0-0_0
  6
CONTINUOUS
 62
    4
 10
144.41291620320544
 20
113.8311299757443
 40
0.1703119527950147
 50
82.858323717311051
 51
97.712807818995457
  0
ARC
  8
_0-0_0
  6
CONTINUOUS
 62
    4
 10
144.4615471268853
 20
113.3942602115075
 40
0.6098454723841671
 50
96.731878384412013
 51
102.6381009045281
  0
ARC
  8
_0-0_0
  6
CONTINUOUS
 62
    4
 10
144.84922355191747
 20
111.70823715896464
 40
2.3398581137287628
 50
102.86815478888129
 51
107.036076067967
  0
ARC
  8
_0-0_0
  6
CONTINUOUS
 62
    4
 10
172.25502803656763
 20
21.513740635751432
 40
96.606098813053733
 50
106.90478331637568
 51
107.11669947398628
  0
ARC
  8
_0-0_0
  6
CONTINUOUS
 62
    4
 10
142.59818440723529
 20
117.95901088389784
 40
4.2961259446991153
 50
279.50407347204298
 51
286.55116934585862
  0
ARC
  8
_0-0_0
  6
CONTINUOUS
 62
    4
 10
142.91554214012239
 20
116.04457339301329
 40
2.3555669419525608
 50
256.87901190128519
 51
279.57962070610267
  0
ARC
  8
_0-0_0
  6
CONTINUOUS
 62
    4
 10
143.42725222167018
 20
117.82316289585871
 40
4.204949089387834
 50
242.58716471377249
 51
255.5899487244464
  0
ARC
  8
_0-0_0
  6
CONTINUOUS
 62
    4
 10
152.47531684212344
 20
135.79438480410641
 40
24.325142404739768
 50
240.71100998639099
 51
243.15682742983059
  0
ARC
  8
_0-0_0
  6
CONTINUOUS
 62
    4
 10
136.2192942148813
 20
106.72383655383502
 40
8.9819176859037561
 50
60.990654768595312
 51
68.993270555960279
  0
ARC
  8
_0-0_0
  6
CONTINUOUS
 62
    4
 10
137.29322539707663
 20
109.696347003468
 40
5.822326073556221
 50
68.373072947236934
 51
78.53007863929929
  0
ARC
  8
_0-0_0
  6
CONTINUOUS
 62
    4
 10
137.7950250466024
 20
112.23171772609821
 40
3.2378277495876308
 50
78.310846339479894
 51
93.089272478135598
  0
ARC
  8
_0-0_0
  6
CONTINUOUS
 62
    4
 10
137.79049468752828
 20
113.10031500836196
 40
2.3706257601565718
 50
94.111352398591051
 51
110.10857940321089
  0
ARC
  8
_0-0_0
  6
CONTINUOUS
 62
    4
 10
138.2349500909263
 20
112.06244864425882
 40
3.498554490615644
 50
111.10015489677809
 51
121.5065781364387
  0
ARC
  8
_0-0_0
  6
CONTINUOUS
 62
    4
 10
140.59461475833631
 20
108.25290579708511
 40
7.9796750672528622
 50
121.6570018321339
 51
127.282628133353
  0
LINE
  8
_0-0_0
  6
CONTINUOUS
 62
    4
 10
135.76094902660361
 20
114.60199154015201
 11
135.20425215012346
 21
114.16828760773857
  0
ARC
  8
_0-0_0
  6
CONTINUOUS
 62
    4
 10
142.12232609829061
 20
105.5462407162319
 40
11.054385543829839
 50
128.74252080011098
 51
131.41874931821627
  0
ARC
  8
_0-0_0
  6
CONTINUOUS
 62
    4
 10
136.47194614940644
 20
108.63000009086628
 40
2.5026027369977819
 50
131.63669045238509
 51
134.84192996452659
  0
LINE
  8
_0-0_0
  6
CONTINUOUS
 62
    4
 10
134.70722757981957
 20
110.40448278432522
 11
134.67336490686147
 21
110.36842464217879
  0
LINE
  8
_0-0_0
  6
CONTINUOUS
 62
    4
 10
134.67336490686147
 20
110.36842464217879
 11
134.65262537091939
 21
110.34160740875761
  0
ARC
  8
_0-0_0
  6
CONTINUOUS
 62
    4
 10
134.67631828477851
 20
110.32305208665825
 40
0.0300940882122958
 50
141.93340378431614
 51
176.25594307103611
  0
ARC
  8
_0-0_0
  6
CONTINUOUS
 62
    4
 10
134.65262586544031
 20
110.32612493137268
 40
0.006433518520578
 50
189.9144920972736
 51
273.73869057424377
  0
ARC
  8
_0-0_0
  6
CONTINUOUS
 62
    4
 10
134.64963937860557
 20
110.40275006282631
 40
0.0831147752870189
 50
272.34860312928469
 51
292.29784241550282
  0
LINE
  8
_0-0_0
  6
CONTINUOUS
 62
    4
 10
134.68117489624728
 20
110.32585027740337
 11
134.72154166608652
 21
110.34251312812141
  0
ARC
  8
_0-0_0
  6
CONTINUOUS
 62
    4
 10
133.68075247428942
 20
112.57503492765913
 40
2.4632084213830491
 50
294.9946702213781
 51
298.07670587020379
  0
ARC
  8
_0-0_0
  6
CONTINUOUS
 62
    4
 10
119.64764285435921
 20
138.97327142653278
 40
32.359611495526642
 50
298.0010210737854
 51
298.49797796252124
  0
ARC
  8
_0-0_0
  6
CONTINUOUS
 62
    4
 10
139.08212123997145
 20
103.25380969342022
 40
8.3046751917602712
 50
114.27343463200739
 51
118.75278901400687
  0
ARC
  8
_0-0_0
  6
CONTINUOUS
 62
    4
 10
137.51656475180561
 20
106.42057235785379
 40
4.7759306011815558
 50
99.36542973810468
 51
112.769803071938
  0
ARC
  8
_0-0_0
  6
CONTINUOUS
 62
    4
 10
137.06483570647424
 20
109.15950126751526
 40
2.000000000000131
 50
73.136777601463293
 51
99.365429738079583
  0
ARC
  8
_0-0_0
  6
CONTINUOUS
 62
    4
 10
118.15912597571332
 20
46.789578480647932
 40
67.172334075615196
 50
72.639971074905133
 51
73.13677760145623
  0
ARC
  8
_0-0_0
  6
CONTINUOUS
 62
    4
 10
134.72578006985622
 20
99.884217767483548
 40
11.55318733715312
 50
64.886696236586303
 51
72.490734885889466
  0
LINE
  8
_0-0_0
  6
CONTINUOUS
 62
    4
 10
139.62906460343128
 20
110.34528551557529
 11
140.3892405593765
 21
109.95409988184989
  0
ARC
  8
_0-0_0
  6
CONTINUOUS
 62
    4
 10
145.13782413269836
 20
118.7938098321246
 40
10.03441667252302
 50
241.75585428659917
 51
246.59588918123597
  0
ARC
  8
_0-0_0
  6
CONTINUOUS
 62
    4
 10
142.28057892036031
 20
112.17011648829468
 40
2.8207570685616949
 50
246.41605704105083
 51
264.99238924054657
  0
ARC
  8
_0-0_0
  6
CONTINUOUS
 62
    4
 10
142.08232687096142
 20
111.51476531655639
 40
2.1551732290678469
 50
268.72469713293571
 51
298.58086695349692
  0
ARC
  8
_0-0_0
  6
CONTINUOUS
 62
    4
 10
140.36381820617225
 20
114.89493280034825
 40
5.9465554065683781
 50
297.54049074727981
 51
309.51786904886512
  0
ARC
  8
_0-0_0
  6
CONTINUOUS
 62
    4
 10
142.53489294117434
 20
112.34120044000501
 40
2.595522164831582
 50
308.41768204555967
 51
314.7641434633756
  0
ARC
  8
_0-0_0
  6
CONTINUOUS
 62
    4
 10
143.93103828278935
 20
110.94543298931323
 40
0.6214162163903728
 50
313.99019116255607
 51
325.58004776492578
  0
ARC
  8
_0-0_0
  6
CONTINUOUS
 62
    4
 10
144.34273328960352
 20
110.66245940705566
 40
0.1218522032585735
 50
325.91731196022607
 51
343.93703642163069
  0
ARC
  8
_0-0_0
  6
CONTINUOUS
 62
    4
 10
144.4323887835194
 20
110.63789645471301
 40
0.0289256419706162
 50
341.5532036604988
 51
30.701145383015958
  0
ARC
  8
_0-0_0
  6
CONTINUOUS
 62
    4
 10
144.42967126502844
 20
110.62766082669649
 40
0.0372336998230115
 50
42.186009561085413
 51
83.203304437346631
  0
ARC
  8
_0-0_0
  6
CONTINUOUS
 62
    4
 10
144.41290401426931
 20
110.49564222721782
 40
0.1703119527950147
 50
82.858323717311051
 51
97.712807818995457
  0
ARC
  8
_0-0_0
  6
CONTINUOUS
 62
    4
 10
144.46153493794963
 20
110.05877246298102
 40
0.6098454723841671
 50
96.731878384412013
 51
102.6381009045281
  0
ARC
  8
_0-0_0
  6
CONTINUOUS
 62
    4
 10
144.84921136298135
 20
108.37274941043817
 40
2.3398581137287628
 50
102.86815478888129
 51
107.036076067967
  0
ARC
  8
_0-0_0
  6
CONTINUOUS
 62
    4
 10
172.25501584763151
 20
18.178252887224971
 40
96.606098813053733
 50
106.90478331637568
 51
107.11669947398628
  0
ARC
  8
_0-0_0
  6
CONTINUOUS
 62
    4
 10
142.59817221829962
 20
114.62352313537137
 40
4.2961259446991153
 50
279.50407347204298
 51
286.55116934585862
  0
ARC
  8
_0-0_0
  6
CONTINUOUS
 62
    4
 10
142.91552995118627
 20
112.70908564448681
 40
2.3555669419525608
 50
256.87901190128519
 51
279.57962070610267
  0
ARC
  8
_0-0_0
  6
CONTINUOUS
 62
    4
 10
143.42724003273451
 20
114.48767514733224
 40
4.204949089387834
 50
242.58716471377249
 51
255.5899487244464
  0
ARC
  8
_0-0_0
  6
CONTINUOUS
 62
    4
 10
152.47530465318732
 20
132.45889705557982
 40
24.325142404739768
 50
240.71100998639099
 51
243.15682742983059
  0
ARC
  8
_0-0_0
  6
CONTINUOUS
 62
    4
 10
136.21928202594563
 20
103.38834880530866
 40
8.9819176859037561
 50
60.990654768595312
 51
68.993270555960279
  0
ARC
  8
_0-0_0
  6
CONTINUOUS
 62
    4
 10
137.2932132081396
 20
106.36085925494164
 40
5.822326073556221
 50
68.373072947236934
 51
78.53007863929929
  0
ARC
  8
_0-0_0
  6
CONTINUOUS
 62
    4
 10
137.79501285766627
 20
108.89622997757173
 40
3.2378277495876308
 50
78.310846339479894
 51
93.089272478135598
  0
ARC
  8
_0-0_0
  6
CONTINUOUS
 62
    4
 10
137.7904824985926
 20
109.76482725983548
 40
2.3706257601565718
 50
94.111352398591051
 51
110.10857940321089
  0
ARC
  8
_0-0_0
  6
CONTINUOUS
 62
    4
 10
138.23493790199063
 20
108.72696089573234
 40
3.498554490615644
 50
111.10015489677809
 51
121.5065781364387
  0
ARC
  8
_0-0_0
  6
CONTINUOUS
 62
    4
 10
140.59460256940019
 20
104.91741804855875
 40
7.9796750672528622
 50
121.6570018321339
 51
127.282628133353
  0
LINE
  8
_0-0_0
  6
CONTINUOUS
 62
    4
 10
135.76093683766748
 20
111.26650379162553
 11
135.20423996118734
 21
110.8327998592121
  0
ARC
  8
_0-0_0
  6
CONTINUOUS
 62
    4
 10
142.12231390935448
 20
102.21075296770554
 40
11.054385543829839
 50
128.74252080011098
 51
131.41874931821627
  0
TEXT
  8
_0-1_1
 62
    7
 10
370.92480146066918
 20
19.763290431878431
 40
3.2000000000000001
 41
1
 50
0
  1
2023.07.19
  0
ENDSEC
  0
EOF
